ISO-10303-21;
HEADER;
FILE_DESCRIPTION (( 'STEP AP214' ),
    '1' );
FILE_NAME ('Micro_AMRM-019-2X.STEP',
    '2021-09-01T17:17:13',
    ( '' ),
    ( '' ),
    'SwSTEP 2.0',
    'SolidWorks 2020',
    '' );
FILE_SCHEMA (( 'AUTOMOTIVE_DESIGN' ));
ENDSEC;

DATA;
#1 = DIRECTION ( 'NONE',  ( -1.224646799147353207E-16, -0.0000000000000000000, -1.000000000000000000 ) ) ;
#2 = ADVANCED_FACE ( 'NONE', ( #33 ), #70, .T. ) ;
#3 = UNCERTAINTY_MEASURE_WITH_UNIT (LENGTH_MEASURE( 1.000000000000000082E-05 ), #259, 'distance_accuracy_value', 'NONE');
#4 = DIRECTION ( 'NONE',  ( -1.224646799147353207E-16, -0.0000000000000000000, -1.000000000000000000 ) ) ;
#5 = PRESENTATION_LAYER_ASSIGNMENT (  '', '', ( #90 ) ) ;
#6 = CARTESIAN_POINT ( 'NONE',  ( -0.07874000000000001831, 0.0000000000000000000, 1.968503999999999809 ) ) ;
#7 = FACE_OUTER_BOUND ( 'NONE', #80, .T. ) ;
#8 = DIRECTION ( 'NONE',  ( -1.000000000000000000, 0.0000000000000000000, 1.224646799147353207E-16 ) ) ;
#9 = CONICAL_SURFACE ( 'NONE', #226, 0.06374000000000018540, 0.7853981633974528309 ) ;
#10 = DIRECTION ( 'NONE',  ( 1.224646799147353207E-16, 0.0000000000000000000, 1.000000000000000000 ) ) ;
#11 = CARTESIAN_POINT ( 'NONE',  ( 0.0000000000000000000, 0.0000000000000000000, 1.968503999999999809 ) ) ;
#12 = AXIS2_PLACEMENT_3D ( 'NONE', #218, #48, #8 ) ;
#13 =( NAMED_UNIT ( * ) SI_UNIT ( $, .STERADIAN. ) SOLID_ANGLE_UNIT ( ) );
#14 = EDGE_CURVE ( 'NONE', #155, #60, #118, .T. ) ;
#15 = ORIENTED_EDGE ( 'NONE', *, *, #68, .T. ) ;
#16 = AXIS2_PLACEMENT_3D ( 'NONE', #162, #25, #67 ) ;
#17 = EDGE_LOOP ( 'NONE', ( #15, #137, #245, #225 ) ) ;
#18 =( NAMED_UNIT ( * ) PLANE_ANGLE_UNIT ( ) SI_UNIT ( $, .RADIAN. ) );
#19 = VERTEX_POINT ( 'NONE', #278 ) ;
#20 = EDGE_LOOP ( 'NONE', ( #290, #250, #88, #156 ) ) ;
#21 = AXIS2_PLACEMENT_3D ( 'NONE', #11, #127, #78 ) ;
#22 = CARTESIAN_POINT ( 'NONE',  ( 0.0000000000000000000, 0.0000000000000000000, 1.968503999999999809 ) ) ;
#23 = CARTESIAN_POINT ( 'NONE',  ( 0.0000000000000000000, 0.0000000000000000000, 0.0000000000000000000 ) ) ;
#24 = CARTESIAN_POINT ( 'NONE',  ( 0.0000000000000000000, 0.0000000000000000000, 1.968503999999999809 ) ) ;
#25 = DIRECTION ( 'NONE',  ( 0.0000000000000000000, 0.0000000000000000000, 1.000000000000000000 ) ) ;
#26 = CYLINDRICAL_SURFACE ( 'NONE', #253, 0.07874000000000001831 ) ;
#27 = CARTESIAN_POINT ( 'NONE',  ( -0.07873999999999996280, 0.0000000000000000000, 0.4590633979472419912 ) ) ;
#28 = CARTESIAN_POINT ( 'NONE',  ( 2.748217635498583829E-17, 0.0000000000000000000, 0.2244089999999999974 ) ) ;
#29 = ADVANCED_FACE ( 'NONE', ( #141 ), #286, .T. ) ;
#30 = LINE ( 'NONE', #125, #124 ) ;
#31 = DIRECTION ( 'NONE',  ( -1.000000000000000000, 0.0000000000000000000, 1.224646799147353207E-16 ) ) ;
#32 = DIRECTION ( 'NONE',  ( 1.000000000000000000, 0.0000000000000000000, 0.0000000000000000000 ) ) ;
#33 = FACE_OUTER_BOUND ( 'NONE', #110, .T. ) ;
#34 = ORIENTED_EDGE ( 'NONE', *, *, #153, .F. ) ;
#35 = ORIENTED_EDGE ( 'NONE', *, *, #157, .F. ) ;
#36 = VECTOR ( 'NONE', #143, 39.37007874015748143 ) ;
#37 = EDGE_CURVE ( 'NONE', #269, #248, #276, .T. ) ;
#38 = EDGE_LOOP ( 'NONE', ( #247, #271 ) ) ;
#39 = CARTESIAN_POINT ( 'NONE',  ( -0.06374000000000018540, 0.0000000000000000000, 1.968503999999999809 ) ) ;
#40 = AXIS2_PLACEMENT_3D ( 'NONE', #148, #261, #264 ) ;
#41 = CARTESIAN_POINT ( 'NONE',  ( -0.07874000000000001831, 0.0000000000000000000, 1.953504000000000129 ) ) ;
#42 = ADVANCED_FACE ( 'NONE', ( #72 ), #213, .F. ) ;
#43 = DIRECTION ( 'NONE',  ( 1.000000000000000000, 0.0000000000000000000, 0.0000000000000000000 ) ) ;
#44 = DIRECTION ( 'NONE',  ( 0.0000000000000000000, 0.0000000000000000000, 1.000000000000000000 ) ) ;
#45 = LINE ( 'NONE', #39, #36 ) ;
#46 = EDGE_CURVE ( 'NONE', #131, #295, #262, .T. ) ;
#47 = CARTESIAN_POINT ( 'NONE',  ( 5.603717224571623841E-34, 0.0000000000000000000, 4.575782363105141468E-18 ) ) ;
#48 = DIRECTION ( 'NONE',  ( -1.224646799147353207E-16, -0.0000000000000000000, -1.000000000000000000 ) ) ;
#49 = EDGE_CURVE ( 'NONE', #269, #60, #138, .T. ) ;
#50 = CARTESIAN_POINT ( 'NONE',  ( 0.06374000000000018540, 7.805898697765251255E-18, 1.968503999999999809 ) ) ;
#51 = AXIS2_PLACEMENT_3D ( 'NONE', #47, #288, #31 ) ;
#52 = FILL_AREA_STYLE ('',( #193 ) ) ;
#53 =( LENGTH_UNIT ( ) NAMED_UNIT ( * ) SI_UNIT ( $, .METRE. ) );
#54 = SURFACE_STYLE_USAGE ( .BOTH. , #296 ) ;
#55 = ORIENTED_EDGE ( 'NONE', *, *, #217, .T. ) ;
#56 = DIMENSIONAL_EXPONENTS ( 1.000000000000000000, 0.0000000000000000000, 0.0000000000000000000, 0.0000000000000000000, 0.0000000000000000000, 0.0000000000000000000, 0.0000000000000000000 ) ;
#57 = AXIS2_PLACEMENT_3D ( 'NONE', #160, #4, #95 ) ;
#58 = EDGE_LOOP ( 'NONE', ( #179, #133 ) ) ;
#59 = FILL_AREA_STYLE_COLOUR ( '', #94 ) ;
#60 = VERTEX_POINT ( 'NONE', #140 ) ;
#61 = ADVANCED_FACE ( 'NONE', ( #91 ), #194, .T. ) ;
#62 = ORIENTED_EDGE ( 'NONE', *, *, #219, .T. ) ;
#63 = CIRCLE ( 'NONE', #57, 0.03736409849999999117 ) ;
#64 = DIRECTION ( 'NONE',  ( 0.0000000000000000000, 0.0000000000000000000, 1.000000000000000000 ) ) ;
#65 = ORIENTED_EDGE ( 'NONE', *, *, #49, .F. ) ;
#66 = CARTESIAN_POINT ( 'NONE',  ( -0.03736409849999997035, 4.575782363105141468E-18, 0.2244089999999999974 ) ) ;
#67 = DIRECTION ( 'NONE',  ( 1.000000000000000000, 0.0000000000000000000, 0.0000000000000000000 ) ) ;
#68 = EDGE_CURVE ( 'NONE', #82, #269, #63, .T. ) ;
#69 = AXIS2_PLACEMENT_3D ( 'NONE', #263, #205, #79 ) ;
#70 = CYLINDRICAL_SURFACE ( 'NONE', #150, 0.03736409849999999117 ) ;
#71 = APPLICATION_CONTEXT ( 'automotive_design' ) ;
#72 = FACE_OUTER_BOUND ( 'NONE', #58, .T. ) ;
#73 = CARTESIAN_POINT ( 'NONE',  ( -0.03736409849999997035, 7.109325629795700759E-18, 0.2244089999999999974 ) ) ;
#74 = SURFACE_SIDE_STYLE ('',( #75 ) ) ;
#75 = SURFACE_STYLE_FILL_AREA ( #52 ) ;
#76 = DIRECTION ( 'NONE',  ( -0.0000000000000000000, -0.0000000000000000000, -1.000000000000000000 ) ) ;
#77 = DIRECTION ( 'NONE',  ( -1.000000000000000000, 0.0000000000000000000, 1.224646799147353207E-16 ) ) ;
#78 = DIRECTION ( 'NONE',  ( 1.000000000000000000, 0.0000000000000000000, 0.0000000000000000000 ) ) ;
#79 = DIRECTION ( 'NONE',  ( 1.000000000000000000, 0.0000000000000000000, 0.0000000000000000000 ) ) ;
#80 = EDGE_LOOP ( 'NONE', ( #173, #244, #223, #178 ) ) ;
#81 =( CONVERSION_BASED_UNIT ( 'INCH', #85 ) LENGTH_UNIT ( ) NAMED_UNIT ( #132 ) );
#82 = VERTEX_POINT ( 'NONE', #73 ) ;
#83 = AXIS2_PLACEMENT_3D ( 'NONE', #191, #1, #298 ) ;
#84 = VECTOR ( 'NONE', #76, 39.37007874015748143 ) ;
#85 = LENGTH_MEASURE_WITH_UNIT ( LENGTH_MEASURE( 0.02539999999999999897 ), #108 );
#86 = EDGE_LOOP ( 'NONE', ( #297, #89, #106, #65 ) ) ;
#87 = APPLICATION_PROTOCOL_DEFINITION ( 'draft international standard', 'automotive_design', 1998, #71 ) ;
#88 = ORIENTED_EDGE ( 'NONE', *, *, #107, .T. ) ;
#89 = ORIENTED_EDGE ( 'NONE', *, *, #96, .T. ) ;
#90 = STYLED_ITEM ( 'NONE', ( #172 ), #170 ) ;
#91 = FACE_OUTER_BOUND ( 'NONE', #266, .T. ) ;
#92 = DIRECTION ( 'NONE',  ( 1.000000000000000000, 0.0000000000000000000, -0.0000000000000000000 ) ) ;
#93 = CARTESIAN_POINT ( 'NONE',  ( 0.03736409850000001892, 0.0000000000000000000, 0.2244089999999999974 ) ) ;
#94 = COLOUR_RGB ( '',0.7921568627450980005, 0.8196078431372548767, 0.9333333333333333481 ) ;
#95 = DIRECTION ( 'NONE',  ( -1.000000000000000000, 0.0000000000000000000, 0.0000000000000000000 ) ) ;
#96 = EDGE_CURVE ( 'NONE', #82, #155, #274, .T. ) ;
#97 = DIRECTION ( 'NONE',  ( 0.0000000000000000000, 0.0000000000000000000, -1.000000000000000000 ) ) ;
#98 = FACE_OUTER_BOUND ( 'NONE', #86, .T. ) ;
#99 = DIRECTION ( 'NONE',  ( 1.000000000000000000, 0.0000000000000000000, 0.0000000000000000000 ) ) ;
#100 = CIRCLE ( 'NONE', #51, 0.03736409849999999117 ) ;
#101 = CARTESIAN_POINT ( 'NONE',  ( 2.748217635498583829E-17, 0.0000000000000000000, 0.2244089999999999974 ) ) ;
#102 = ADVANCED_FACE ( 'NONE', ( #231 ), #190, .T. ) ;
#103 = DIRECTION ( 'NONE',  ( -1.224646799147353207E-16, -0.0000000000000000000, -1.000000000000000000 ) ) ;
#104 = VECTOR ( 'NONE', #145, 39.37007874015748143 ) ;
#105 = SHAPE_DEFINITION_REPRESENTATION ( #273, #170 ) ;
#106 = ORIENTED_EDGE ( 'NONE', *, *, #14, .T. ) ;
#107 = EDGE_CURVE ( 'NONE', #130, #155, #187, .T. ) ;
#108 =( LENGTH_UNIT ( ) NAMED_UNIT ( * ) SI_UNIT ( $, .METRE. ) );
#109 = EDGE_LOOP ( 'NONE', ( #62, #55, #201, #227 ) ) ;
#110 = EDGE_LOOP ( 'NONE', ( #292, #206, #136, #35 ) ) ;
#111 = ORIENTED_EDGE ( 'NONE', *, *, #211, .F. ) ;
#112 = VECTOR ( 'NONE', #252, 39.37007874015748143 ) ;
#113 = AXIS2_PLACEMENT_3D ( 'NONE', #200, #64, #32 ) ;
#114 = DIRECTION ( 'NONE',  ( -1.000000000000000000, 0.0000000000000000000, 0.0000000000000000000 ) ) ;
#115 = DIRECTION ( 'NONE',  ( -1.224646799147353207E-16, -0.0000000000000000000, -1.000000000000000000 ) ) ;
#116 = DIRECTION ( 'NONE',  ( -1.000000000000000000, 0.0000000000000000000, 0.0000000000000000000 ) ) ;
#117 = ADVANCED_FACE ( 'NONE', ( #255 ), #139, .T. ) ;
#118 = CIRCLE ( 'NONE', #83, 0.07874000000000001831 ) ;
#119 = CIRCLE ( 'NONE', #177, 0.07874000000000001831 ) ;
#120 = DIRECTION ( 'NONE',  ( 0.1736481776669313859, 0.0000000000000000000, 0.9848077530122077983 ) ) ;
#121 = DIRECTION ( 'NONE',  ( -1.000000000000000000, 0.0000000000000000000, 0.0000000000000000000 ) ) ;
#122 = EDGE_CURVE ( 'NONE', #19, #130, #119, .T. ) ;
#123 = LENGTH_MEASURE_WITH_UNIT ( LENGTH_MEASURE( 0.02539999999999999897 ), #53 );
#124 = VECTOR ( 'NONE', #103, 39.37007874015748143 ) ;
#125 = CARTESIAN_POINT ( 'NONE',  ( -0.03736409849999999117, 0.0000000000000000000, 4.575782363105141468E-18 ) ) ;
#126 = PRODUCT_DEFINITION_CONTEXT ( 'detailed design', #71, 'design' ) ;
#127 = DIRECTION ( 'NONE',  ( 0.0000000000000000000, 0.0000000000000000000, 1.000000000000000000 ) ) ;
#128 = EDGE_CURVE ( 'NONE', #295, #130, #45, .T. ) ;
#129 = SURFACE_STYLE_FILL_AREA ( #268 ) ;
#130 = VERTEX_POINT ( 'NONE', #41 ) ;
#131 = VERTEX_POINT ( 'NONE', #236 ) ;
#132 = DIMENSIONAL_EXPONENTS ( 1.000000000000000000, 0.0000000000000000000, 0.0000000000000000000, 0.0000000000000000000, 0.0000000000000000000, 0.0000000000000000000, 0.0000000000000000000 ) ;
#133 = ORIENTED_EDGE ( 'NONE', *, *, #157, .T. ) ;
#134 = CLOSED_SHELL ( 'NONE', ( #224, #192, #207, #147, #102, #117, #61, #29, #2, #42 ) ) ;
#135 =( GEOMETRIC_REPRESENTATION_CONTEXT ( 3 ) GLOBAL_UNCERTAINTY_ASSIGNED_CONTEXT ( ( #3 ) ) GLOBAL_UNIT_ASSIGNED_CONTEXT ( ( #259, #221, #167 ) ) REPRESENTATION_CONTEXT ( 'NONE', 'WORKASPACE' ) );
#136 = ORIENTED_EDGE ( 'NONE', *, *, #260, .T. ) ;
#137 = ORIENTED_EDGE ( 'NONE', *, *, #37, .T. ) ;
#138 = LINE ( 'NONE', #93, #188 ) ;
#139 = PLANE ( 'NONE',  #281 ) ;
#140 = CARTESIAN_POINT ( 'NONE',  ( 0.07874000000000007382, 9.642868896486266213E-18, 0.4590633979472419912 ) ) ;
#141 = FACE_OUTER_BOUND ( 'NONE', #222, .T. ) ;
#142 = AXIS2_PLACEMENT_3D ( 'NONE', #280, #283, #77 ) ;
#143 = DIRECTION ( 'NONE',  ( -0.7071067811865507924, 0.0000000000000000000, -0.7071067811865443531 ) ) ;
#144 = SURFACE_STYLE_USAGE ( .BOTH. , #74 ) ;
#145 = DIRECTION ( 'NONE',  ( 0.7071067811865507924, 8.659560562354973534E-17, -0.7071067811865443531 ) ) ;
#146 = PRESENTATION_LAYER_ASSIGNMENT (  '', '', ( #238 ) ) ;
#147 = ADVANCED_FACE ( 'NONE', ( #228 ), #26, .T. ) ;
#148 = CARTESIAN_POINT ( 'NONE',  ( 0.0000000000000000000, 0.0000000000000000000, 1.953504000000000129 ) ) ;
#149 = CARTESIAN_POINT ( 'NONE',  ( 0.0000000000000000000, 0.0000000000000000000, 1.968503999999999809 ) ) ;
#150 = AXIS2_PLACEMENT_3D ( 'NONE', #23, #115, #232 ) ;
#151 = ORIENTED_EDGE ( 'NONE', *, *, #96, .F. ) ;
#152 = CIRCLE ( 'NONE', #21, 0.06374000000000018540 ) ;
#153 = EDGE_CURVE ( 'NONE', #295, #131, #152, .T. ) ;
#154 = LENGTH_MEASURE_WITH_UNIT ( LENGTH_MEASURE( 0.02539999999999999897 ), #199 );
#155 = VERTEX_POINT ( 'NONE', #27 ) ;
#156 = ORIENTED_EDGE ( 'NONE', *, *, #285, .F. ) ;
#157 = EDGE_CURVE ( 'NONE', #248, #272, #100, .T. ) ;
#158 = ORIENTED_EDGE ( 'NONE', *, *, #241, .F. ) ;
#159 = DIRECTION ( 'NONE',  ( -0.1736481776669311916, 2.126576849575783316E-17, 0.9848077530122080203 ) ) ;
#160 = CARTESIAN_POINT ( 'NONE',  ( 2.748217635498583829E-17, 0.0000000000000000000, 0.2244089999999999974 ) ) ;
#161 = AXIS2_PLACEMENT_3D ( 'NONE', #24, #185, #116 ) ;
#162 = CARTESIAN_POINT ( 'NONE',  ( 0.0000000000000000000, 0.0000000000000000000, 1.968503999999999809 ) ) ;
#163 = CARTESIAN_POINT ( 'NONE',  ( 0.0000000000000000000, 0.0000000000000000000, 1.968503999999999809 ) ) ;
#164 = CARTESIAN_POINT ( 'NONE',  ( 0.0000000000000000000, 0.0000000000000000000, 1.968503999999999809 ) ) ;
#165 =( GEOMETRIC_REPRESENTATION_CONTEXT ( 3 ) GLOBAL_UNCERTAINTY_ASSIGNED_CONTEXT ( ( #204 ) ) GLOBAL_UNIT_ASSIGNED_CONTEXT ( ( #181, #174, #13 ) ) REPRESENTATION_CONTEXT ( 'NONE', 'WORKASPACE' ) );
#166 = CARTESIAN_POINT ( 'NONE',  ( 0.07874000000000001831, 9.642868896486260050E-18, 1.968503999999999809 ) ) ;
#167 =( NAMED_UNIT ( * ) SI_UNIT ( $, .STERADIAN. ) SOLID_ANGLE_UNIT ( ) );
#168 = LINE ( 'NONE', #166, #84 ) ;
#169 = MECHANICAL_DESIGN_GEOMETRIC_PRESENTATION_REPRESENTATION (  '', ( #90 ), #165 ) ;
#170 = ADVANCED_BREP_SHAPE_REPRESENTATION ( 'Micro_AMRM-019-2X', ( #198, #113 ), #277 ) ;
#171 = PRESENTATION_STYLE_ASSIGNMENT (( #144 ) ) ;
#172 = PRESENTATION_STYLE_ASSIGNMENT (( #54 ) ) ;
#173 = ORIENTED_EDGE ( 'NONE', *, *, #46, .F. ) ;
#174 =( NAMED_UNIT ( * ) PLANE_ANGLE_UNIT ( ) SI_UNIT ( $, .RADIAN. ) );
#175 = ORIENTED_EDGE ( 'NONE', *, *, #128, .T. ) ;
#176 = PRODUCT_RELATED_PRODUCT_CATEGORY ( 'part', '', ( #256 ) ) ;
#177 = AXIS2_PLACEMENT_3D ( 'NONE', #216, #97, #257 ) ;
#178 = ORIENTED_EDGE ( 'NONE', *, *, #128, .F. ) ;
#179 = ORIENTED_EDGE ( 'NONE', *, *, #180, .T. ) ;
#180 = EDGE_CURVE ( 'NONE', #272, #248, #287, .T. ) ;
#181 =( CONVERSION_BASED_UNIT ( 'INCH', #154 ) LENGTH_UNIT ( ) NAMED_UNIT ( #203 ) );
#182 = ORIENTED_EDGE ( 'NONE', *, *, #122, .F. ) ;
#183 = CONICAL_SURFACE ( 'NONE', #267, 0.03736409849999999117, 0.1745329251994338915 ) ;
#184 = AXIS2_PLACEMENT_3D ( 'NONE', #101, #240, #121 ) ;
#185 = DIRECTION ( 'NONE',  ( 0.0000000000000000000, 0.0000000000000000000, -1.000000000000000000 ) ) ;
#186 = CARTESIAN_POINT ( 'NONE',  ( 2.748217635498583829E-17, 0.0000000000000000000, 0.2244089999999999974 ) ) ;
#187 = LINE ( 'NONE', #6, #112 ) ;
#188 = VECTOR ( 'NONE', #120, 39.37007874015748143 ) ;
#189 = UNCERTAINTY_MEASURE_WITH_UNIT (LENGTH_MEASURE( 1.000000000000000082E-05 ), #81, 'distance_accuracy_value', 'NONE');
#190 = CYLINDRICAL_SURFACE ( 'NONE', #209, 0.07874000000000001831 ) ;
#191 = CARTESIAN_POINT ( 'NONE',  ( 5.621905209017974867E-17, 0.0000000000000000000, 0.4590633979472419912 ) ) ;
#192 = ADVANCED_FACE ( 'NONE', ( #98 ), #183, .T. ) ;
#193 = FILL_AREA_STYLE_COLOUR ( '', #197 ) ;
#194 = CONICAL_SURFACE ( 'NONE', #161, 0.06374000000000018540, 0.7853981633974528309 ) ;
#195 = CARTESIAN_POINT ( 'NONE',  ( 0.03736409850000001892, 0.0000000000000000000, 0.2244089999999999974 ) ) ;
#196 = DIRECTION ( 'NONE',  ( 0.0000000000000000000, 0.0000000000000000000, -1.000000000000000000 ) ) ;
#197 = COLOUR_RGB ( '',0.7921568627450980005, 0.8196078431372548767, 0.9333333333333333481 ) ;
#198 = MANIFOLD_SOLID_BREP ( 'Cut-Revolve1', #134 ) ;
#199 =( LENGTH_UNIT ( ) NAMED_UNIT ( * ) SI_UNIT ( $, .METRE. ) );
#200 = CARTESIAN_POINT ( 'NONE',  ( 0.0000000000000000000, 0.0000000000000000000, 0.0000000000000000000 ) ) ;
#201 = ORIENTED_EDGE ( 'NONE', *, *, #14, .F. ) ;
#202 = CIRCLE ( 'NONE', #69, 0.07874000000000001831 ) ;
#203 = DIMENSIONAL_EXPONENTS ( 1.000000000000000000, 0.0000000000000000000, 0.0000000000000000000, 0.0000000000000000000, 0.0000000000000000000, 0.0000000000000000000, 0.0000000000000000000 ) ;
#204 = UNCERTAINTY_MEASURE_WITH_UNIT (LENGTH_MEASURE( 1.000000000000000082E-05 ), #181, 'distance_accuracy_value', 'NONE');
#205 = DIRECTION ( 'NONE',  ( -1.224646799147353207E-16, -0.0000000000000000000, -1.000000000000000000 ) ) ;
#206 = ORIENTED_EDGE ( 'NONE', *, *, #211, .T. ) ;
#207 = ADVANCED_FACE ( 'NONE', ( #7 ), #9, .T. ) ;
#208 = DIRECTION ( 'NONE',  ( -0.0000000000000000000, -0.0000000000000000000, -1.000000000000000000 ) ) ;
#209 = AXIS2_PLACEMENT_3D ( 'NONE', #163, #233, #251 ) ;
#210 = CARTESIAN_POINT ( 'NONE',  ( 0.03736409849999999117, 4.575782363105141468E-18, -4.575782363105141468E-18 ) ) ;
#211 = EDGE_CURVE ( 'NONE', #269, #82, #293, .T. ) ;
#212 = CARTESIAN_POINT ( 'NONE',  ( 0.0000000000000000000, 0.0000000000000000000, 0.0000000000000000000 ) ) ;
#213 = PLANE ( 'NONE',  #249 ) ;
#214 = MECHANICAL_DESIGN_GEOMETRIC_PRESENTATION_REPRESENTATION (  '', ( #238 ), #135 ) ;
#215 = PRODUCT_DEFINITION_FORMATION_WITH_SPECIFIED_SOURCE ( 'ANY', '', #256, .NOT_KNOWN. ) ;
#216 = CARTESIAN_POINT ( 'NONE',  ( 0.0000000000000000000, 0.0000000000000000000, 1.953504000000000129 ) ) ;
#217 = EDGE_CURVE ( 'NONE', #19, #60, #168, .T. ) ;
#218 = CARTESIAN_POINT ( 'NONE',  ( 0.0000000000000000000, 0.0000000000000000000, 0.0000000000000000000 ) ) ;
#219 = EDGE_CURVE ( 'NONE', #130, #19, #235, .T. ) ;
#220 = FACE_OUTER_BOUND ( 'NONE', #17, .T. ) ;
#221 =( NAMED_UNIT ( * ) PLANE_ANGLE_UNIT ( ) SI_UNIT ( $, .RADIAN. ) );
#222 = EDGE_LOOP ( 'NONE', ( #151, #111, #270, #294 ) ) ;
#223 = ORIENTED_EDGE ( 'NONE', *, *, #219, .F. ) ;
#224 = ADVANCED_FACE ( 'NONE', ( #220 ), #258, .T. ) ;
#225 = ORIENTED_EDGE ( 'NONE', *, *, #260, .F. ) ;
#226 = AXIS2_PLACEMENT_3D ( 'NONE', #149, #196, #237 ) ;
#227 = ORIENTED_EDGE ( 'NONE', *, *, #107, .F. ) ;
#228 = FACE_OUTER_BOUND ( 'NONE', #109, .T. ) ;
#229 = VECTOR ( 'NONE', #279, 39.37007874015748143 ) ;
#230 = VECTOR ( 'NONE', #159, 39.37007874015747433 ) ;
#231 = FACE_OUTER_BOUND ( 'NONE', #20, .T. ) ;
#232 = DIRECTION ( 'NONE',  ( -1.000000000000000000, 0.0000000000000000000, 1.224646799147353207E-16 ) ) ;
#233 = DIRECTION ( 'NONE',  ( -0.0000000000000000000, -0.0000000000000000000, -1.000000000000000000 ) ) ;
#234 = PRODUCT_DEFINITION ( 'UNKNOWN', '', #215, #126 ) ;
#235 = CIRCLE ( 'NONE', #40, 0.07874000000000001831 ) ;
#236 = CARTESIAN_POINT ( 'NONE',  ( 0.06374000000000018540, 8.724383797125754882E-18, 1.968503999999999809 ) ) ;
#237 = DIRECTION ( 'NONE',  ( -1.000000000000000000, 0.0000000000000000000, 0.0000000000000000000 ) ) ;
#238 = STYLED_ITEM ( 'NONE', ( #171 ), #198 ) ;
#239 = CARTESIAN_POINT ( 'NONE',  ( 0.03736409849999999117, 4.575782363105141468E-18, 0.0000000000000000000 ) ) ;
#240 = DIRECTION ( 'NONE',  ( -1.224646799147353207E-16, -0.0000000000000000000, -1.000000000000000000 ) ) ;
#241 = EDGE_CURVE ( 'NONE', #131, #19, #282, .T. ) ;
#242 = AXIS2_PLACEMENT_3D ( 'NONE', #186, #254, #43 ) ;
#243 =( NAMED_UNIT ( * ) SI_UNIT ( $, .STERADIAN. ) SOLID_ANGLE_UNIT ( ) );
#244 = ORIENTED_EDGE ( 'NONE', *, *, #241, .T. ) ;
#245 = ORIENTED_EDGE ( 'NONE', *, *, #180, .F. ) ;
#246 = PRODUCT_CONTEXT ( 'NONE', #291, 'mechanical' ) ;
#247 = ORIENTED_EDGE ( 'NONE', *, *, #153, .T. ) ;
#248 = VERTEX_POINT ( 'NONE', #239 ) ;
#249 = AXIS2_PLACEMENT_3D ( 'NONE', #212, #275, #92 ) ;
#250 = ORIENTED_EDGE ( 'NONE', *, *, #122, .T. ) ;
#251 = DIRECTION ( 'NONE',  ( -1.000000000000000000, 0.0000000000000000000, 0.0000000000000000000 ) ) ;
#252 = DIRECTION ( 'NONE',  ( -0.0000000000000000000, -0.0000000000000000000, -1.000000000000000000 ) ) ;
#253 = AXIS2_PLACEMENT_3D ( 'NONE', #22, #208, #114 ) ;
#254 = DIRECTION ( 'NONE',  ( 1.224646799147353207E-16, 0.0000000000000000000, 1.000000000000000000 ) ) ;
#255 = FACE_OUTER_BOUND ( 'NONE', #38, .T. ) ;
#256 = PRODUCT ( 'Micro_AMRM-019-2X', 'Micro_AMRM-019-2X', '', ( #246 ) ) ;
#257 = DIRECTION ( 'NONE',  ( 1.000000000000000000, 0.0000000000000000000, 0.0000000000000000000 ) ) ;
#258 = CYLINDRICAL_SURFACE ( 'NONE', #12, 0.03736409849999999117 ) ;
#259 =( CONVERSION_BASED_UNIT ( 'INCH', #123 ) LENGTH_UNIT ( ) NAMED_UNIT ( #56 ) );
#260 = EDGE_CURVE ( 'NONE', #82, #272, #30, .T. ) ;
#261 = DIRECTION ( 'NONE',  ( 0.0000000000000000000, 0.0000000000000000000, -1.000000000000000000 ) ) ;
#262 = CIRCLE ( 'NONE', #16, 0.06374000000000018540 ) ;
#263 = CARTESIAN_POINT ( 'NONE',  ( 5.621905209017974867E-17, 0.0000000000000000000, 0.4590633979472419912 ) ) ;
#264 = DIRECTION ( 'NONE',  ( 1.000000000000000000, 0.0000000000000000000, 0.0000000000000000000 ) ) ;
#265 = CARTESIAN_POINT ( 'NONE',  ( -0.06374000000000018540, 0.0000000000000000000, 1.968503999999999809 ) ) ;
#266 = EDGE_LOOP ( 'NONE', ( #158, #34, #175, #182 ) ) ;
#267 = AXIS2_PLACEMENT_3D ( 'NONE', #28, #10, #99 ) ;
#268 = FILL_AREA_STYLE ('',( #59 ) ) ;
#269 = VERTEX_POINT ( 'NONE', #195 ) ;
#270 = ORIENTED_EDGE ( 'NONE', *, *, #49, .T. ) ;
#271 = ORIENTED_EDGE ( 'NONE', *, *, #46, .T. ) ;
#272 = VERTEX_POINT ( 'NONE', #284 ) ;
#273 = PRODUCT_DEFINITION_SHAPE ( 'NONE', 'NONE',  #234 ) ;
#274 = LINE ( 'NONE', #66, #230 ) ;
#275 = DIRECTION ( 'NONE',  ( 0.0000000000000000000, 0.0000000000000000000, 1.000000000000000000 ) ) ;
#276 = LINE ( 'NONE', #210, #229 ) ;
#277 =( GEOMETRIC_REPRESENTATION_CONTEXT ( 3 ) GLOBAL_UNCERTAINTY_ASSIGNED_CONTEXT ( ( #189 ) ) GLOBAL_UNIT_ASSIGNED_CONTEXT ( ( #81, #18, #243 ) ) REPRESENTATION_CONTEXT ( 'NONE', 'WORKASPACE' ) );
#278 = CARTESIAN_POINT ( 'NONE',  ( 0.07874000000000001831, 9.642868896486260050E-18, 1.953504000000000129 ) ) ;
#279 = DIRECTION ( 'NONE',  ( -1.224646799147353207E-16, -0.0000000000000000000, -1.000000000000000000 ) ) ;
#280 = CARTESIAN_POINT ( 'NONE',  ( 5.603717224571623841E-34, 0.0000000000000000000, 4.575782363105141468E-18 ) ) ;
#281 = AXIS2_PLACEMENT_3D ( 'NONE', #164, #44, #299 ) ;
#282 = LINE ( 'NONE', #50, #104 ) ;
#283 = DIRECTION ( 'NONE',  ( -1.224646799147353207E-16, -0.0000000000000000000, -1.000000000000000000 ) ) ;
#284 = CARTESIAN_POINT ( 'NONE',  ( -0.03736409849999999117, 0.0000000000000000000, 9.151564726210282937E-18 ) ) ;
#285 = EDGE_CURVE ( 'NONE', #60, #155, #202, .T. ) ;
#286 = CONICAL_SURFACE ( 'NONE', #242, 0.03736409849999999117, 0.1745329251994338915 ) ;
#287 = CIRCLE ( 'NONE', #142, 0.03736409849999999117 ) ;
#288 = DIRECTION ( 'NONE',  ( -1.224646799147353207E-16, -0.0000000000000000000, -1.000000000000000000 ) ) ;
#289 = APPLICATION_PROTOCOL_DEFINITION ( 'draft international standard', 'automotive_design', 1998, #291 ) ;
#290 = ORIENTED_EDGE ( 'NONE', *, *, #217, .F. ) ;
#291 = APPLICATION_CONTEXT ( 'automotive_design' ) ;
#292 = ORIENTED_EDGE ( 'NONE', *, *, #37, .F. ) ;
#293 = CIRCLE ( 'NONE', #184, 0.03736409849999999117 ) ;
#294 = ORIENTED_EDGE ( 'NONE', *, *, #285, .T. ) ;
#295 = VERTEX_POINT ( 'NONE', #265 ) ;
#296 = SURFACE_SIDE_STYLE ('',( #129 ) ) ;
#297 = ORIENTED_EDGE ( 'NONE', *, *, #68, .F. ) ;
#298 = DIRECTION ( 'NONE',  ( 1.000000000000000000, 0.0000000000000000000, 0.0000000000000000000 ) ) ;
#299 = DIRECTION ( 'NONE',  ( 1.000000000000000000, 0.0000000000000000000, -0.0000000000000000000 ) ) ;
ENDSEC;
END-ISO-10303-21;
