ISO-10303-21;
HEADER;
FILE_DESCRIPTION (( 'STEP AP214' ),
    '1' );
FILE_NAME ('Micro_GEMM-030-4.STEP',
    '2021-09-01T21:28:35',
    ( '' ),
    ( '' ),
    'SwSTEP 2.0',
    'SolidWorks 2020',
    '' );
FILE_SCHEMA (( 'AUTOMOTIVE_DESIGN' ));
ENDSEC;

DATA;
#1 = DIRECTION ( 'NONE',  ( -1.000000000000000000, 0.0000000000000000000, 0.0000000000000000000 ) ) ;
#2 = APPLICATION_CONTEXT ( 'automotive_design' ) ;
#3 = ADVANCED_FACE ( 'NONE', ( #283 ), #120, .T. ) ;
#4 = ORIENTED_EDGE ( 'NONE', *, *, #58, .T. ) ;
#5 = EDGE_CURVE ( 'NONE', #142, #169, #254, .T. ) ;
#6 = AXIS2_PLACEMENT_3D ( 'NONE', #44, #138, #183 ) ;
#7 = ORIENTED_EDGE ( 'NONE', *, *, #28, .T. ) ;
#8 = EDGE_CURVE ( 'NONE', #213, #24, #127, .T. ) ;
#9 =( NAMED_UNIT ( * ) SI_UNIT ( $, .STERADIAN. ) SOLID_ANGLE_UNIT ( ) );
#10 = ORIENTED_EDGE ( 'NONE', *, *, #276, .F. ) ;
#11 = ADVANCED_FACE ( 'NONE', ( #32 ), #53, .T. ) ;
#12 = CARTESIAN_POINT ( 'NONE',  ( 0.0000000000000000000, 0.0000000000000000000, 1.496062999999999921 ) ) ;
#13 = DIRECTION ( 'NONE',  ( -1.224646799147352961E-16, -0.0000000000000000000, -1.000000000000000000 ) ) ;
#14 = MANIFOLD_SOLID_BREP ( 'Cut-Revolve1', #22 ) ;
#15 = DIRECTION ( 'NONE',  ( 1.000000000000000000, 0.0000000000000000000, 0.0000000000000000000 ) ) ;
#16 = AXIS2_PLACEMENT_3D ( 'NONE', #23, #296, #50 ) ;
#17 = LINE ( 'NONE', #151, #109 ) ;
#18 = CARTESIAN_POINT ( 'NONE',  ( 0.0000000000000000000, 0.0000000000000000000, 1.496062999999999921 ) ) ;
#19 = CYLINDRICAL_SURFACE ( 'NONE', #293, 0.05905499999999998251 ) ;
#20 = CARTESIAN_POINT ( 'NONE',  ( 0.05899594499999999409, 7.224919520692329689E-18, -7.224919520692328148E-18 ) ) ;
#21 = ORIENTED_EDGE ( 'NONE', *, *, #65, .T. ) ;
#22 = CLOSED_SHELL ( 'NONE', ( #97, #3, #244, #239, #173, #11, #299, #256, #159, #49 ) ) ;
#23 = CARTESIAN_POINT ( 'NONE',  ( 0.0000000000000000000, 0.0000000000000000000, 1.496062999999999921 ) ) ;
#24 = VERTEX_POINT ( 'NONE', #99 ) ;
#25 = EDGE_CURVE ( 'NONE', #236, #213, #198, .T. ) ;
#26 = LINE ( 'NONE', #48, #122 ) ;
#27 = ORIENTED_EDGE ( 'NONE', *, *, #164, .T. ) ;
#28 = EDGE_CURVE ( 'NONE', #169, #92, #113, .T. ) ;
#29 = ORIENTED_EDGE ( 'NONE', *, *, #77, .F. ) ;
#30 = DIRECTION ( 'NONE',  ( 1.000000000000000000, 0.0000000000000000000, 0.0000000000000000000 ) ) ;
#31 = MECHANICAL_DESIGN_GEOMETRIC_PRESENTATION_REPRESENTATION (  '', ( #247 ), #202 ) ;
#32 = FACE_OUTER_BOUND ( 'NONE', #126, .T. ) ;
#33 = LENGTH_MEASURE_WITH_UNIT ( LENGTH_MEASURE( 0.02539999999999999897 ), #55 );
#34 = FILL_AREA_STYLE_COLOUR ( '', #241 ) ;
#35 = VERTEX_POINT ( 'NONE', #68 ) ;
#36 = AXIS2_PLACEMENT_3D ( 'NONE', #203, #246, #106 ) ;
#37 = AXIS2_PLACEMENT_3D ( 'NONE', #18, #289, #205 ) ;
#38 = CARTESIAN_POINT ( 'NONE',  ( 3.857159805062494208E-17, 0.0000000000000000000, 0.3149609999999999910 ) ) ;
#39 = FACE_OUTER_BOUND ( 'NONE', #221, .T. ) ;
#40 = CARTESIAN_POINT ( 'NONE',  ( 3.857159805062494208E-17, 0.0000000000000000000, 0.3149609999999999910 ) ) ;
#41 = AXIS2_PLACEMENT_3D ( 'NONE', #38, #290, #223 ) ;
#42 = FACE_OUTER_BOUND ( 'NONE', #218, .T. ) ;
#43 = DIRECTION ( 'NONE',  ( 0.0000000000000000000, 0.0000000000000000000, -1.000000000000000000 ) ) ;
#44 = CARTESIAN_POINT ( 'NONE',  ( 3.857159805062494208E-17, 0.0000000000000000000, 0.3149609999999999910 ) ) ;
#45 = APPLICATION_PROTOCOL_DEFINITION ( 'draft international standard', 'automotive_design', 1998, #2 ) ;
#46 = VECTOR ( 'NONE', #211, 39.37007874015748143 ) ;
#47 = ORIENTED_EDGE ( 'NONE', *, *, #65, .F. ) ;
#48 = CARTESIAN_POINT ( 'NONE',  ( -0.05899594499999999409, 0.0000000000000000000, 7.224919520692328148E-18 ) ) ;
#49 = ADVANCED_FACE ( 'NONE', ( #111 ), #130, .F. ) ;
#50 = DIRECTION ( 'NONE',  ( -1.000000000000000000, 0.0000000000000000000, 0.0000000000000000000 ) ) ;
#51 = PRESENTATION_LAYER_ASSIGNMENT (  '', '', ( #247 ) ) ;
#52 = CARTESIAN_POINT ( 'NONE',  ( 0.0000000000000000000, 0.0000000000000000000, 1.496062999999999921 ) ) ;
#53 = PLANE ( 'NONE',  #180 ) ;
#54 = EDGE_LOOP ( 'NONE', ( #10, #21, #240, #295 ) ) ;
#55 =( LENGTH_UNIT ( ) NAMED_UNIT ( * ) SI_UNIT ( $, .METRE. ) );
#56 = CIRCLE ( 'NONE', #242, 0.05905499999999998251 ) ;
#57 = EDGE_LOOP ( 'NONE', ( #278, #139, #147, #104 ) ) ;
#58 = EDGE_CURVE ( 'NONE', #92, #24, #17, .T. ) ;
#59 = DIMENSIONAL_EXPONENTS ( 1.000000000000000000, 0.0000000000000000000, 0.0000000000000000000, 0.0000000000000000000, 0.0000000000000000000, 0.0000000000000000000, 0.0000000000000000000 ) ;
#60 = DIRECTION ( 'NONE',  ( 0.0000000000000000000, 0.0000000000000000000, 1.000000000000000000 ) ) ;
#61 = CARTESIAN_POINT ( 'NONE',  ( 3.857159805062494208E-17, 0.0000000000000000000, 0.3149609999999999910 ) ) ;
#62 = DIRECTION ( 'NONE',  ( -0.0000000000000000000, -0.0000000000000000000, -1.000000000000000000 ) ) ;
#63 =( GEOMETRIC_REPRESENTATION_CONTEXT ( 3 ) GLOBAL_UNCERTAINTY_ASSIGNED_CONTEXT ( ( #284 ) ) GLOBAL_UNIT_ASSIGNED_CONTEXT ( ( #275, #119, #294 ) ) REPRESENTATION_CONTEXT ( 'NONE', 'WORKASPACE' ) );
#64 = DIRECTION ( 'NONE',  ( 0.0000000000000000000, 0.0000000000000000000, 1.000000000000000000 ) ) ;
#65 = EDGE_CURVE ( 'NONE', #235, #236, #272, .T. ) ;
#66 = CARTESIAN_POINT ( 'NONE',  ( 0.0000000000000000000, 0.0000000000000000000, 1.496062999999999921 ) ) ;
#67 = DIRECTION ( 'NONE',  ( 1.000000000000000000, 0.0000000000000000000, -0.0000000000000000000 ) ) ;
#68 = CARTESIAN_POINT ( 'NONE',  ( -0.05899594499999999409, 0.0000000000000000000, 1.444983904138465630E-17 ) ) ;
#69 = EDGE_CURVE ( 'NONE', #235, #24, #149, .T. ) ;
#70 = CARTESIAN_POINT ( 'NONE',  ( 0.0000000000000000000, 0.0000000000000000000, 1.496062999999999921 ) ) ;
#71 = VECTOR ( 'NONE', #288, 39.37007874015748143 ) ;
#72 =( CONVERSION_BASED_UNIT ( 'INCH', #229 ) LENGTH_UNIT ( ) NAMED_UNIT ( #282 ) );
#73 = ORIENTED_EDGE ( 'NONE', *, *, #219, .T. ) ;
#74 = ORIENTED_EDGE ( 'NONE', *, *, #199, .F. ) ;
#75 = DIRECTION ( 'NONE',  ( 1.000000000000000000, 0.0000000000000000000, 0.0000000000000000000 ) ) ;
#76 = VECTOR ( 'NONE', #137, 39.37007874015748854 ) ;
#77 = EDGE_CURVE ( 'NONE', #92, #261, #291, .T. ) ;
#78 = ORIENTED_EDGE ( 'NONE', *, *, #164, .F. ) ;
#79 = DIRECTION ( 'NONE',  ( 1.000000000000000000, 0.0000000000000000000, 0.0000000000000000000 ) ) ;
#80 = EDGE_CURVE ( 'NONE', #169, #142, #115, .T. ) ;
#81 = VECTOR ( 'NONE', #285, 39.37007874015748854 ) ;
#82 = DIRECTION ( 'NONE',  ( 1.224646799147352961E-16, 0.0000000000000000000, 1.000000000000000000 ) ) ;
#83 = CONICAL_SURFACE ( 'NONE', #6, 0.05899594499999999409, 0.1745329251994340580 ) ;
#84 = CARTESIAN_POINT ( 'NONE',  ( 0.0000000000000000000, 0.0000000000000000000, 0.0000000000000000000 ) ) ;
#85 = DIRECTION ( 'NONE',  ( -1.000000000000000000, 0.0000000000000000000, 0.0000000000000000000 ) ) ;
#86 = CARTESIAN_POINT ( 'NONE',  ( 0.05899594500000004266, 0.0000000000000000000, 0.3149609999999999910 ) ) ;
#87 = CYLINDRICAL_SURFACE ( 'NONE', #238, 0.05899594499999999409 ) ;
#88 = DIRECTION ( 'NONE',  ( -0.0000000000000000000, -0.0000000000000000000, -1.000000000000000000 ) ) ;
#89 = FACE_OUTER_BOUND ( 'NONE', #234, .T. ) ;
#90 = UNCERTAINTY_MEASURE_WITH_UNIT (LENGTH_MEASURE( 1.000000000000000082E-05 ), #72, 'distance_accuracy_value', 'NONE');
#91 = DIRECTION ( 'NONE',  ( -1.224646799147352961E-16, -0.0000000000000000000, -1.000000000000000000 ) ) ;
#92 = VERTEX_POINT ( 'NONE', #266 ) ;
#93 = LINE ( 'NONE', #253, #76 ) ;
#94 = EDGE_LOOP ( 'NONE', ( #118, #4, #255, #78 ) ) ;
#95 = FACE_OUTER_BOUND ( 'NONE', #252, .T. ) ;
#96 = UNCERTAINTY_MEASURE_WITH_UNIT (LENGTH_MEASURE( 1.000000000000000082E-05 ), #258, 'distance_accuracy_value', 'NONE');
#97 = ADVANCED_FACE ( 'NONE', ( #42 ), #87, .T. ) ;
#98 = ORIENTED_EDGE ( 'NONE', *, *, #5, .F. ) ;
#99 = CARTESIAN_POINT ( 'NONE',  ( 0.05905500000000002414, 7.232151672364696963E-18, 0.3152959175478574072 ) ) ;
#100 = PRODUCT ( 'Micro_GEMM-030-4', 'Micro_GEMM-030-4', '', ( #165 ) ) ;
#101 =( NAMED_UNIT ( * ) PLANE_ANGLE_UNIT ( ) SI_UNIT ( $, .RADIAN. ) );
#102 = ORIENTED_EDGE ( 'NONE', *, *, #25, .F. ) ;
#103 = EDGE_CURVE ( 'NONE', #236, #235, #264, .T. ) ;
#104 = ORIENTED_EDGE ( 'NONE', *, *, #69, .F. ) ;
#105 = ORIENTED_EDGE ( 'NONE', *, *, #28, .F. ) ;
#106 = DIRECTION ( 'NONE',  ( 1.000000000000000000, 0.0000000000000000000, 0.0000000000000000000 ) ) ;
#107 = APPLICATION_CONTEXT ( 'automotive_design' ) ;
#108 = DIRECTION ( 'NONE',  ( -1.224646799147352961E-16, -0.0000000000000000000, -1.000000000000000000 ) ) ;
#109 = VECTOR ( 'NONE', #204, 39.37007874015748143 ) ;
#110 = AXIS2_PLACEMENT_3D ( 'NONE', #40, #228, #177 ) ;
#111 = FACE_OUTER_BOUND ( 'NONE', #185, .T. ) ;
#112 = EDGE_CURVE ( 'NONE', #261, #92, #222, .T. ) ;
#113 = LINE ( 'NONE', #132, #81 ) ;
#114 = DIRECTION ( 'NONE',  ( 0.0000000000000000000, 0.0000000000000000000, -1.000000000000000000 ) ) ;
#115 = CIRCLE ( 'NONE', #37, 0.04405500000000001082 ) ;
#116 =( LENGTH_UNIT ( ) NAMED_UNIT ( * ) SI_UNIT ( $, .METRE. ) );
#117 = SURFACE_STYLE_USAGE ( .BOTH. , #188 ) ;
#118 = ORIENTED_EDGE ( 'NONE', *, *, #112, .T. ) ;
#119 =( NAMED_UNIT ( * ) PLANE_ANGLE_UNIT ( ) SI_UNIT ( $, .RADIAN. ) );
#120 = CONICAL_SURFACE ( 'NONE', #190, 0.05899594499999999409, 0.1745329251994340580 ) ;
#121 = DIRECTION ( 'NONE',  ( -1.000000000000000000, 0.0000000000000000000, 1.224646799147352961E-16 ) ) ;
#122 = VECTOR ( 'NONE', #206, 39.37007874015748143 ) ;
#123 = ORIENTED_EDGE ( 'NONE', *, *, #276, .T. ) ;
#124 = AXIS2_PLACEMENT_3D ( 'NONE', #172, #145, #260 ) ;
#125 = SURFACE_STYLE_USAGE ( .BOTH. , #220 ) ;
#126 = EDGE_LOOP ( 'NONE', ( #280, #193 ) ) ;
#127 = CIRCLE ( 'NONE', #157, 0.05905499999999998251 ) ;
#128 = CARTESIAN_POINT ( 'NONE',  ( 3.861261362092112866E-17, 0.0000000000000000000, 0.3152959175478574072 ) ) ;
#129 = CIRCLE ( 'NONE', #269, 0.05899594499999999409 ) ;
#130 = PLANE ( 'NONE',  #237 ) ;
#131 = CARTESIAN_POINT ( 'NONE',  ( 3.861261362092112866E-17, 0.0000000000000000000, 0.3152959175478574072 ) ) ;
#132 = CARTESIAN_POINT ( 'NONE',  ( 0.04405500000000001082, 5.395181473643666598E-18, 1.496062999999999921 ) ) ;
#133 = COLOUR_RGB ( '',0.7921568627450980005, 0.8196078431372548767, 0.9333333333333333481 ) ;
#134 = CARTESIAN_POINT ( 'NONE',  ( -0.05905499999999993394, 0.0000000000000000000, 0.3152959175478574072 ) ) ;
#135 = DIRECTION ( 'NONE',  ( -1.000000000000000000, 0.0000000000000000000, 1.224646799147352961E-16 ) ) ;
#136 = AXIS2_PLACEMENT_3D ( 'NONE', #160, #91, #121 ) ;
#137 = DIRECTION ( 'NONE',  ( -0.7071067811865536790, 0.0000000000000000000, -0.7071067811865412445 ) ) ;
#138 = DIRECTION ( 'NONE',  ( 1.224646799147352961E-16, 0.0000000000000000000, 1.000000000000000000 ) ) ;
#139 = ORIENTED_EDGE ( 'NONE', *, *, #25, .T. ) ;
#140 = CARTESIAN_POINT ( 'NONE',  ( 0.05899594499999999409, 7.224919520692329689E-18, 0.0000000000000000000 ) ) ;
#141 = DIRECTION ( 'NONE',  ( 0.0000000000000000000, 0.0000000000000000000, -1.000000000000000000 ) ) ;
#142 = VERTEX_POINT ( 'NONE', #201 ) ;
#143 =( NAMED_UNIT ( * ) PLANE_ANGLE_UNIT ( ) SI_UNIT ( $, .RADIAN. ) );
#144 = ORIENTED_EDGE ( 'NONE', *, *, #199, .T. ) ;
#145 = DIRECTION ( 'NONE',  ( 0.0000000000000000000, 0.0000000000000000000, 1.000000000000000000 ) ) ;
#146 = STYLED_ITEM ( 'NONE', ( #233 ), #184 ) ;
#147 = ORIENTED_EDGE ( 'NONE', *, *, #8, .T. ) ;
#148 = DIRECTION ( 'NONE',  ( -1.224646799147352961E-16, -0.0000000000000000000, -1.000000000000000000 ) ) ;
#149 = LINE ( 'NONE', #86, #214 ) ;
#150 = PRODUCT_DEFINITION_CONTEXT ( 'detailed design', #107, 'design' ) ;
#151 = CARTESIAN_POINT ( 'NONE',  ( 0.05905499999999998251, 7.232151672364692341E-18, 1.496062999999999921 ) ) ;
#152 = CARTESIAN_POINT ( 'NONE',  ( 8.847974565113086764E-34, 0.0000000000000000000, 7.224919520692328148E-18 ) ) ;
#153 = CARTESIAN_POINT ( 'NONE',  ( -0.05905499999999998251, 0.0000000000000000000, 1.496062999999999921 ) ) ;
#154 = FACE_OUTER_BOUND ( 'NONE', #94, .T. ) ;
#155 = SURFACE_STYLE_FILL_AREA ( #257 ) ;
#156 = EDGE_LOOP ( 'NONE', ( #102, #47, #232, #144 ) ) ;
#157 = AXIS2_PLACEMENT_3D ( 'NONE', #128, #148, #79 ) ;
#158 = FILL_AREA_STYLE_COLOUR ( '', #133 ) ;
#159 = ADVANCED_FACE ( 'NONE', ( #174 ), #263, .T. ) ;
#160 = CARTESIAN_POINT ( 'NONE',  ( 8.847974565113086764E-34, 0.0000000000000000000, 7.224919520692328148E-18 ) ) ;
#161 = ORIENTED_EDGE ( 'NONE', *, *, #112, .F. ) ;
#162 =( NAMED_UNIT ( * ) SI_UNIT ( $, .STERADIAN. ) SOLID_ANGLE_UNIT ( ) );
#163 = DIRECTION ( 'NONE',  ( 0.0000000000000000000, 0.0000000000000000000, 1.000000000000000000 ) ) ;
#164 = EDGE_CURVE ( 'NONE', #261, #213, #175, .T. ) ;
#165 = PRODUCT_CONTEXT ( 'NONE', #2, 'mechanical' ) ;
#166 = SURFACE_STYLE_FILL_AREA ( #195 ) ;
#167 = PRODUCT_DEFINITION ( 'UNKNOWN', '', #207, #150 ) ;
#168 = CARTESIAN_POINT ( 'NONE',  ( 0.0000000000000000000, 0.0000000000000000000, 0.0000000000000000000 ) ) ;
#169 = VERTEX_POINT ( 'NONE', #248 ) ;
#170 = ORIENTED_EDGE ( 'NONE', *, *, #58, .F. ) ;
#171 = CIRCLE ( 'NONE', #136, 0.05899594499999999409 ) ;
#172 = CARTESIAN_POINT ( 'NONE',  ( 0.0000000000000000000, 0.0000000000000000000, 1.496062999999999921 ) ) ;
#173 = ADVANCED_FACE ( 'NONE', ( #39 ), #19, .T. ) ;
#174 = FACE_OUTER_BOUND ( 'NONE', #54, .T. ) ;
#175 = LINE ( 'NONE', #153, #298 ) ;
#176 = AXIS2_PLACEMENT_3D ( 'NONE', #225, #286, #135 ) ;
#177 = DIRECTION ( 'NONE',  ( -1.000000000000000000, 0.0000000000000000000, 0.0000000000000000000 ) ) ;
#178 = CARTESIAN_POINT ( 'NONE',  ( 0.0000000000000000000, 0.0000000000000000000, 1.481063000000000240 ) ) ;
#179 = CARTESIAN_POINT ( 'NONE',  ( 0.05899594500000004266, 0.0000000000000000000, 0.3149609999999999910 ) ) ;
#180 = AXIS2_PLACEMENT_3D ( 'NONE', #12, #163, #262 ) ;
#181 =( GEOMETRIC_REPRESENTATION_CONTEXT ( 3 ) GLOBAL_UNCERTAINTY_ASSIGNED_CONTEXT ( ( #90 ) ) GLOBAL_UNIT_ASSIGNED_CONTEXT ( ( #72, #101, #162 ) ) REPRESENTATION_CONTEXT ( 'NONE', 'WORKASPACE' ) );
#182 = DIRECTION ( 'NONE',  ( -1.000000000000000000, 0.0000000000000000000, 0.0000000000000000000 ) ) ;
#183 = DIRECTION ( 'NONE',  ( 1.000000000000000000, 0.0000000000000000000, 0.0000000000000000000 ) ) ;
#184 = ADVANCED_BREP_SHAPE_REPRESENTATION ( 'Micro_GEMM-030-4', ( #14, #226 ), #63 ) ;
#185 = EDGE_LOOP ( 'NONE', ( #212, #73 ) ) ;
#186 = CONICAL_SURFACE ( 'NONE', #192, 0.04405500000000001082, 0.7853981633974570498 ) ;
#187 = ORIENTED_EDGE ( 'NONE', *, *, #103, .T. ) ;
#188 = SURFACE_SIDE_STYLE ('',( #155 ) ) ;
#189 = ORIENTED_EDGE ( 'NONE', *, *, #259, .T. ) ;
#190 = AXIS2_PLACEMENT_3D ( 'NONE', #61, #82, #75 ) ;
#191 = SHAPE_DEFINITION_REPRESENTATION ( #208, #184 ) ;
#192 = AXIS2_PLACEMENT_3D ( 'NONE', #70, #141, #182 ) ;
#193 = ORIENTED_EDGE ( 'NONE', *, *, #80, .T. ) ;
#194 = PRODUCT_RELATED_PRODUCT_CATEGORY ( 'part', '', ( #100 ) ) ;
#195 = FILL_AREA_STYLE ('',( #34 ) ) ;
#196 = DIMENSIONAL_EXPONENTS ( 1.000000000000000000, 0.0000000000000000000, 0.0000000000000000000, 0.0000000000000000000, 0.0000000000000000000, 0.0000000000000000000, 0.0000000000000000000 ) ;
#197 = ORIENTED_EDGE ( 'NONE', *, *, #249, .F. ) ;
#198 = LINE ( 'NONE', #265, #71 ) ;
#199 = EDGE_CURVE ( 'NONE', #24, #213, #56, .T. ) ;
#200 = DIRECTION ( 'NONE',  ( 0.1736481776669315524, 0.0000000000000000000, 0.9848077530122077983 ) ) ;
#201 = CARTESIAN_POINT ( 'NONE',  ( -0.04405500000000001082, 0.0000000000000000000, 1.496062999999999921 ) ) ;
#202 =( GEOMETRIC_REPRESENTATION_CONTEXT ( 3 ) GLOBAL_UNCERTAINTY_ASSIGNED_CONTEXT ( ( #96 ) ) GLOBAL_UNIT_ASSIGNED_CONTEXT ( ( #258, #143, #9 ) ) REPRESENTATION_CONTEXT ( 'NONE', 'WORKASPACE' ) );
#203 = CARTESIAN_POINT ( 'NONE',  ( 0.0000000000000000000, 0.0000000000000000000, 1.481063000000000240 ) ) ;
#204 = DIRECTION ( 'NONE',  ( -0.0000000000000000000, -0.0000000000000000000, -1.000000000000000000 ) ) ;
#205 = DIRECTION ( 'NONE',  ( 1.000000000000000000, 0.0000000000000000000, 0.0000000000000000000 ) ) ;
#206 = DIRECTION ( 'NONE',  ( -1.224646799147352961E-16, -0.0000000000000000000, -1.000000000000000000 ) ) ;
#207 = PRODUCT_DEFINITION_FORMATION_WITH_SPECIFIED_SOURCE ( 'ANY', '', #100, .NOT_KNOWN. ) ;
#208 = PRODUCT_DEFINITION_SHAPE ( 'NONE', 'NONE',  #167 ) ;
#209 = LENGTH_MEASURE_WITH_UNIT ( LENGTH_MEASURE( 0.02539999999999999897 ), #116 );
#210 = ORIENTED_EDGE ( 'NONE', *, *, #259, .F. ) ;
#211 = DIRECTION ( 'NONE',  ( -1.224646799147352961E-16, -0.0000000000000000000, -1.000000000000000000 ) ) ;
#212 = ORIENTED_EDGE ( 'NONE', *, *, #251, .T. ) ;
#213 = VERTEX_POINT ( 'NONE', #134 ) ;
#214 = VECTOR ( 'NONE', #200, 39.37007874015748143 ) ;
#215 = AXIS2_PLACEMENT_3D ( 'NONE', #178, #43, #267 ) ;
#216 = APPLICATION_PROTOCOL_DEFINITION ( 'draft international standard', 'automotive_design', 1998, #107 ) ;
#217 = PRESENTATION_STYLE_ASSIGNMENT (( #125 ) ) ;
#218 = EDGE_LOOP ( 'NONE', ( #187, #123, #273, #197 ) ) ;
#219 = EDGE_CURVE ( 'NONE', #277, #35, #129, .T. ) ;
#220 = SURFACE_SIDE_STYLE ('',( #166 ) ) ;
#221 = EDGE_LOOP ( 'NONE', ( #170, #297, #27, #74 ) ) ;
#222 = CIRCLE ( 'NONE', #215, 0.05905499999999998251 ) ;
#223 = DIRECTION ( 'NONE',  ( -1.000000000000000000, 0.0000000000000000000, 0.0000000000000000000 ) ) ;
#224 = DIRECTION ( 'NONE',  ( -1.224646799147352961E-16, -0.0000000000000000000, -1.000000000000000000 ) ) ;
#225 = CARTESIAN_POINT ( 'NONE',  ( 0.0000000000000000000, 0.0000000000000000000, 0.0000000000000000000 ) ) ;
#226 = AXIS2_PLACEMENT_3D ( 'NONE', #168, #60, #30 ) ;
#227 = DIRECTION ( 'NONE',  ( -1.000000000000000000, 0.0000000000000000000, 1.224646799147352961E-16 ) ) ;
#228 = DIRECTION ( 'NONE',  ( -1.224646799147352961E-16, -0.0000000000000000000, -1.000000000000000000 ) ) ;
#229 = LENGTH_MEASURE_WITH_UNIT ( LENGTH_MEASURE( 0.02539999999999999897 ), #271 );
#230 = PRESENTATION_LAYER_ASSIGNMENT (  '', '', ( #146 ) ) ;
#231 = LINE ( 'NONE', #20, #46 ) ;
#232 = ORIENTED_EDGE ( 'NONE', *, *, #69, .T. ) ;
#233 = PRESENTATION_STYLE_ASSIGNMENT (( #117 ) ) ;
#234 = EDGE_LOOP ( 'NONE', ( #105, #98, #189, #29 ) ) ;
#235 = VERTEX_POINT ( 'NONE', #179 ) ;
#236 = VERTEX_POINT ( 'NONE', #268 ) ;
#237 = AXIS2_PLACEMENT_3D ( 'NONE', #84, #64, #67 ) ;
#238 = AXIS2_PLACEMENT_3D ( 'NONE', #245, #13, #243 ) ;
#239 = ADVANCED_FACE ( 'NONE', ( #154 ), #250, .T. ) ;
#240 = ORIENTED_EDGE ( 'NONE', *, *, #249, .T. ) ;
#241 = COLOUR_RGB ( '',0.7921568627450980005, 0.8196078431372548767, 0.9333333333333333481 ) ;
#242 = AXIS2_PLACEMENT_3D ( 'NONE', #131, #224, #15 ) ;
#243 = DIRECTION ( 'NONE',  ( -1.000000000000000000, 0.0000000000000000000, 1.224646799147352961E-16 ) ) ;
#244 = ADVANCED_FACE ( 'NONE', ( #95 ), #279, .T. ) ;
#245 = CARTESIAN_POINT ( 'NONE',  ( 0.0000000000000000000, 0.0000000000000000000, 0.0000000000000000000 ) ) ;
#246 = DIRECTION ( 'NONE',  ( 0.0000000000000000000, 0.0000000000000000000, -1.000000000000000000 ) ) ;
#247 = STYLED_ITEM ( 'NONE', ( #217 ), #14 ) ;
#248 = CARTESIAN_POINT ( 'NONE',  ( 0.04405500000000001082, 6.313666573004179469E-18, 1.496062999999999921 ) ) ;
#249 = EDGE_CURVE ( 'NONE', #236, #35, #26, .T. ) ;
#250 = CYLINDRICAL_SURFACE ( 'NONE', #16, 0.05905499999999998251 ) ;
#251 = EDGE_CURVE ( 'NONE', #35, #277, #171, .T. ) ;
#252 = EDGE_LOOP ( 'NONE', ( #281, #7, #161, #210 ) ) ;
#253 = CARTESIAN_POINT ( 'NONE',  ( -0.04405500000000001082, 0.0000000000000000000, 1.496062999999999921 ) ) ;
#254 = CIRCLE ( 'NONE', #124, 0.04405500000000001082 ) ;
#255 = ORIENTED_EDGE ( 'NONE', *, *, #8, .F. ) ;
#256 = ADVANCED_FACE ( 'NONE', ( #292 ), #83, .T. ) ;
#257 = FILL_AREA_STYLE ('',( #158 ) ) ;
#258 =( CONVERSION_BASED_UNIT ( 'INCH', #33 ) LENGTH_UNIT ( ) NAMED_UNIT ( #196 ) );
#259 = EDGE_CURVE ( 'NONE', #142, #261, #93, .T. ) ;
#260 = DIRECTION ( 'NONE',  ( 1.000000000000000000, 0.0000000000000000000, 0.0000000000000000000 ) ) ;
#261 = VERTEX_POINT ( 'NONE', #270 ) ;
#262 = DIRECTION ( 'NONE',  ( 1.000000000000000000, 0.0000000000000000000, -0.0000000000000000000 ) ) ;
#263 = CYLINDRICAL_SURFACE ( 'NONE', #176, 0.05899594499999999409 ) ;
#264 = CIRCLE ( 'NONE', #110, 0.05899594499999999409 ) ;
#265 = CARTESIAN_POINT ( 'NONE',  ( -0.05899594499999995245, 7.224919520692329689E-18, 0.3149609999999999910 ) ) ;
#266 = CARTESIAN_POINT ( 'NONE',  ( 0.05905499999999998251, 7.232151672364692341E-18, 1.481063000000000240 ) ) ;
#267 = DIRECTION ( 'NONE',  ( 1.000000000000000000, 0.0000000000000000000, 0.0000000000000000000 ) ) ;
#268 = CARTESIAN_POINT ( 'NONE',  ( -0.05899594499999995245, 7.228535596528511785E-18, 0.3149609999999999910 ) ) ;
#269 = AXIS2_PLACEMENT_3D ( 'NONE', #152, #108, #227 ) ;
#270 = CARTESIAN_POINT ( 'NONE',  ( -0.05905499999999998251, 0.0000000000000000000, 1.481063000000000240 ) ) ;
#271 =( LENGTH_UNIT ( ) NAMED_UNIT ( * ) SI_UNIT ( $, .METRE. ) );
#272 = CIRCLE ( 'NONE', #41, 0.05899594499999999409 ) ;
#273 = ORIENTED_EDGE ( 'NONE', *, *, #251, .F. ) ;
#274 = AXIS2_PLACEMENT_3D ( 'NONE', #52, #114, #1 ) ;
#275 =( CONVERSION_BASED_UNIT ( 'INCH', #209 ) LENGTH_UNIT ( ) NAMED_UNIT ( #59 ) );
#276 = EDGE_CURVE ( 'NONE', #235, #277, #231, .T. ) ;
#277 = VERTEX_POINT ( 'NONE', #140 ) ;
#278 = ORIENTED_EDGE ( 'NONE', *, *, #103, .F. ) ;
#279 = CONICAL_SURFACE ( 'NONE', #274, 0.04405500000000001082, 0.7853981633974570498 ) ;
#280 = ORIENTED_EDGE ( 'NONE', *, *, #5, .T. ) ;
#281 = ORIENTED_EDGE ( 'NONE', *, *, #80, .F. ) ;
#282 = DIMENSIONAL_EXPONENTS ( 1.000000000000000000, 0.0000000000000000000, 0.0000000000000000000, 0.0000000000000000000, 0.0000000000000000000, 0.0000000000000000000, 0.0000000000000000000 ) ;
#283 = FACE_OUTER_BOUND ( 'NONE', #57, .T. ) ;
#284 = UNCERTAINTY_MEASURE_WITH_UNIT (LENGTH_MEASURE( 1.000000000000000082E-05 ), #275, 'distance_accuracy_value', 'NONE');
#285 = DIRECTION ( 'NONE',  ( 0.7071067811865536790, 8.659560562355008046E-17, -0.7071067811865412445 ) ) ;
#286 = DIRECTION ( 'NONE',  ( -1.224646799147352961E-16, -0.0000000000000000000, -1.000000000000000000 ) ) ;
#287 = MECHANICAL_DESIGN_GEOMETRIC_PRESENTATION_REPRESENTATION (  '', ( #146 ), #181 ) ;
#288 = DIRECTION ( 'NONE',  ( -0.1736481776669313304, 2.126576849575784857E-17, 0.9848077530122077983 ) ) ;
#289 = DIRECTION ( 'NONE',  ( 0.0000000000000000000, 0.0000000000000000000, 1.000000000000000000 ) ) ;
#290 = DIRECTION ( 'NONE',  ( -1.224646799147352961E-16, -0.0000000000000000000, -1.000000000000000000 ) ) ;
#291 = CIRCLE ( 'NONE', #36, 0.05905499999999998251 ) ;
#292 = FACE_OUTER_BOUND ( 'NONE', #156, .T. ) ;
#293 = AXIS2_PLACEMENT_3D ( 'NONE', #66, #88, #85 ) ;
#294 =( NAMED_UNIT ( * ) SI_UNIT ( $, .STERADIAN. ) SOLID_ANGLE_UNIT ( ) );
#295 = ORIENTED_EDGE ( 'NONE', *, *, #219, .F. ) ;
#296 = DIRECTION ( 'NONE',  ( -0.0000000000000000000, -0.0000000000000000000, -1.000000000000000000 ) ) ;
#297 = ORIENTED_EDGE ( 'NONE', *, *, #77, .T. ) ;
#298 = VECTOR ( 'NONE', #62, 39.37007874015748143 ) ;
#299 = ADVANCED_FACE ( 'NONE', ( #89 ), #186, .T. ) ;
ENDSEC;
END-ISO-10303-21;
