ISO-10303-21;
HEADER;
FILE_DESCRIPTION (( 'STEP AP214' ),
    '1' );
FILE_NAME ('49406.STEP',
    '2023-06-30T22:02:53',
    ( '' ),
    ( '' ),
    'SwSTEP 2.0',
    'SolidWorks 2023',
    '' );
FILE_SCHEMA (( 'AUTOMOTIVE_DESIGN' ));
ENDSEC;

DATA;
#1 =( NAMED_UNIT ( * ) PLANE_ANGLE_UNIT ( ) SI_UNIT ( $, .RADIAN. ) );
#2 =( CONVERSION_BASED_UNIT ( 'INCH', #290 ) LENGTH_UNIT ( ) NAMED_UNIT ( #139 ) );
#3 = CYLINDRICAL_SURFACE ( 'NONE', #338, 0.3749999999999998335 ) ;
#4 = DIRECTION ( 'NONE',  ( 0.000000000000000000, 0.000000000000000000, -1.000000000000000000 ) ) ;
#5 = AXIS2_PLACEMENT_3D ( 'NONE', #323, #36, #236 ) ;
#6 = SURFACE_STYLE_USAGE ( .BOTH. , #11 ) ;
#7 = DIRECTION ( 'NONE',  ( 0.000000000000000000, 0.000000000000000000, -1.000000000000000000 ) ) ;
#8 =( CONVERSION_BASED_UNIT ( 'INCH', #333 ) LENGTH_UNIT ( ) NAMED_UNIT ( #117 ) );
#9 =( GEOMETRIC_REPRESENTATION_CONTEXT ( 3 ) GLOBAL_UNCERTAINTY_ASSIGNED_CONTEXT ( ( #175 ) ) GLOBAL_UNIT_ASSIGNED_CONTEXT ( ( #104, #161, #24 ) ) REPRESENTATION_CONTEXT ( 'NONE', 'WORKASPACE' ) );
#10 = UNCERTAINTY_MEASURE_WITH_UNIT (LENGTH_MEASURE( 1.000000000000000082E-05 ), #366, 'distance_accuracy_value', 'NONE');
#11 = SURFACE_SIDE_STYLE ('',( #149 ) ) ;
#12 =( NAMED_UNIT ( * ) SI_UNIT ( $, .STERADIAN. ) SOLID_ANGLE_UNIT ( ) );
#13 = DIRECTION ( 'NONE',  ( 0.000000000000000000, 0.000000000000000000, -1.000000000000000000 ) ) ;
#14 = EDGE_CURVE ( 'NONE', #326, #100, #157, .T. ) ;
#15 = ORIENTED_EDGE ( 'NONE', *, *, #373, .F. ) ;
#16 =( LENGTH_UNIT ( ) NAMED_UNIT ( * ) SI_UNIT ( $, .METRE. ) );
#17 = CARTESIAN_POINT ( 'NONE',  ( 0.000000000000000000, 1.625000000000000000, 0.000000000000000000 ) ) ;
#18 = UNCERTAINTY_MEASURE_WITH_UNIT (LENGTH_MEASURE( 1.000000000000000082E-05 ), #289, 'distance_accuracy_value', 'NONE');
#19 = EDGE_CURVE ( 'NONE', #369, #193, #46, .T. ) ;
#20 = AXIS2_PLACEMENT_3D ( 'NONE', #185, #145, #13 ) ;
#21 = SURFACE_STYLE_USAGE ( .BOTH. , #310 ) ;
#22 = EDGE_LOOP ( 'NONE', ( #15, #163, #251, #53 ) ) ;
#23 = LINE ( 'NONE', #352, #332 ) ;
#24 =( NAMED_UNIT ( * ) SI_UNIT ( $, .STERADIAN. ) SOLID_ANGLE_UNIT ( ) );
#25 = ORIENTED_EDGE ( 'NONE', *, *, #283, .T. ) ;
#26 = DIRECTION ( 'NONE',  ( -1.000000000000000000, 0.000000000000000000, 0.000000000000000000 ) ) ;
#27 = STYLED_ITEM ( 'NONE', ( #196 ), #122 ) ;
#28 = COLOUR_RGB ( '',1.000000000000000000, 0.000000000000000000, 0.000000000000000000 ) ;
#29 = CARTESIAN_POINT ( 'NONE',  ( -1.224646799147352714E-16, 4.000000000000000000, 0.000000000000000000 ) ) ;
#30 = DIMENSIONAL_EXPONENTS ( 1.000000000000000000, 0.000000000000000000, 0.000000000000000000, 0.000000000000000000, 0.000000000000000000, 0.000000000000000000, 0.000000000000000000 ) ;
#31 =( NAMED_UNIT ( * ) PLANE_ANGLE_UNIT ( ) SI_UNIT ( $, .RADIAN. ) );
#32 = EDGE_CURVE ( 'NONE', #259, #372, #265, .T. ) ;
#33 = PRESENTATION_STYLE_ASSIGNMENT (( #314 ) ) ;
#34 =( GEOMETRIC_REPRESENTATION_CONTEXT ( 3 ) GLOBAL_UNCERTAINTY_ASSIGNED_CONTEXT ( ( #10 ) ) GLOBAL_UNIT_ASSIGNED_CONTEXT ( ( #366, #133, #258 ) ) REPRESENTATION_CONTEXT ( 'NONE', 'WORKASPACE' ) );
#35 = PRESENTATION_STYLE_ASSIGNMENT (( #115 ) ) ;
#36 = DIRECTION ( 'NONE',  ( 1.224646799147353207E-16, -1.000000000000000000, 0.000000000000000000 ) ) ;
#37 = DIRECTION ( 'NONE',  ( -0.000000000000000000, -1.000000000000000000, -0.000000000000000000 ) ) ;
#38 = DIRECTION ( 'NONE',  ( 0.000000000000000000, 0.000000000000000000, -1.000000000000000000 ) ) ;
#39 = FACE_OUTER_BOUND ( 'NONE', #49, .T. ) ;
#40 = FACE_OUTER_BOUND ( 'NONE', #181, .T. ) ;
#41 = UNCERTAINTY_MEASURE_WITH_UNIT (LENGTH_MEASURE( 1.000000000000000082E-05 ), #8, 'distance_accuracy_value', 'NONE');
#42 = FILL_AREA_STYLE ('',( #179 ) ) ;
#43 = DIRECTION ( 'NONE',  ( 1.224646799147353207E-16, -0.000000000000000000, 1.000000000000000000 ) ) ;
#44 = CYLINDRICAL_SURFACE ( 'NONE', #84, 0.3749999999999998335 ) ;
#45 = ORIENTED_EDGE ( 'NONE', *, *, #170, .T. ) ;
#46 = CIRCLE ( 'NONE', #255, 0.3749999999999998335 ) ;
#47 = PRESENTATION_LAYER_ASSIGNMENT (  '', '', ( #248 ) ) ;
#48 = LENGTH_MEASURE_WITH_UNIT ( LENGTH_MEASURE( 0.02539999999999999897 ), #16 );
#49 = EDGE_LOOP ( 'NONE', ( #304, #311 ) ) ;
#50 = ORIENTED_EDGE ( 'NONE', *, *, #370, .T. ) ;
#51 = APPLICATION_CONTEXT ( 'automotive_design' ) ;
#52 = DIRECTION ( 'NONE',  ( 0.000000000000000000, -0.000000000000000000, 1.000000000000000000 ) ) ;
#53 = ORIENTED_EDGE ( 'NONE', *, *, #138, .F. ) ;
#54 = EDGE_CURVE ( 'NONE', #259, #288, #354, .T. ) ;
#55 =( LENGTH_UNIT ( ) NAMED_UNIT ( * ) SI_UNIT ( $, .METRE. ) );
#56 = DIRECTION ( 'NONE',  ( 0.000000000000000000, 1.000000000000000000, 0.000000000000000000 ) ) ;
#57 =( LENGTH_UNIT ( ) NAMED_UNIT ( * ) SI_UNIT ( $, .METRE. ) );
#58 = CARTESIAN_POINT ( 'NONE',  ( -0.3750000000000001110, 4.000000000000000000, 0.000000000000000000 ) ) ;
#59 = FACE_OUTER_BOUND ( 'NONE', #123, .T. ) ;
#60 = FACE_OUTER_BOUND ( 'NONE', #195, .T. ) ;
#61 = AXIS2_PLACEMENT_3D ( 'NONE', #256, #81, #106 ) ;
#62 = FILL_AREA_STYLE ('',( #166 ) ) ;
#63 = SURFACE_STYLE_FILL_AREA ( #116 ) ;
#64 = CLOSED_SHELL ( 'NONE', ( #152, #80, #114, #187, #122 ) ) ;
#65 = LINE ( 'NONE', #269, #322 ) ;
#66 = CIRCLE ( 'NONE', #136, 0.3749999999999999445 ) ;
#67 = PLANE ( 'NONE',  #5 ) ;
#68 =( LENGTH_UNIT ( ) NAMED_UNIT ( * ) SI_UNIT ( $, .METRE. ) );
#69 = EDGE_LOOP ( 'NONE', ( #128, #341, #25, #45 ) ) ;
#70 = SURFACE_STYLE_USAGE ( .BOTH. , #301 ) ;
#71 = ORIENTED_EDGE ( 'NONE', *, *, #54, .F. ) ;
#72 = AXIS2_PLACEMENT_3D ( 'NONE', #17, #56, #52 ) ;
#73 = CARTESIAN_POINT ( 'NONE',  ( 0.000000000000000000, 0.000000000000000000, 0.000000000000000000 ) ) ;
#74 = UNCERTAINTY_MEASURE_WITH_UNIT (LENGTH_MEASURE( 1.000000000000000082E-05 ), #234, 'distance_accuracy_value', 'NONE');
#75 = APPLICATION_PROTOCOL_DEFINITION ( 'draft international standard', 'automotive_design', 1998, #276 ) ;
#76 =( NAMED_UNIT ( * ) SI_UNIT ( $, .STERADIAN. ) SOLID_ANGLE_UNIT ( ) );
#77 = CARTESIAN_POINT ( 'NONE',  ( -1.224646799147352714E-16, 4.000000000000000000, 0.000000000000000000 ) ) ;
#78 =( GEOMETRIC_REPRESENTATION_CONTEXT ( 3 ) GLOBAL_UNCERTAINTY_ASSIGNED_CONTEXT ( ( #217 ) ) GLOBAL_UNIT_ASSIGNED_CONTEXT ( ( #211, #295, #349 ) ) REPRESENTATION_CONTEXT ( 'NONE', 'WORKASPACE' ) );
#79 = DIRECTION ( 'NONE',  ( 1.000000000000000000, 0.000000000000000000, 0.000000000000000000 ) ) ;
#80 = ADVANCED_FACE ( 'NONE', ( #325 ), #324, .T. ) ;
#81 = DIRECTION ( 'NONE',  ( -1.224646799147353207E-16, 1.000000000000000000, -0.000000000000000000 ) ) ;
#82 = EDGE_LOOP ( 'NONE', ( #93, #105 ) ) ;
#83 = SURFACE_SIDE_STYLE ('',( #173 ) ) ;
#84 = AXIS2_PLACEMENT_3D ( 'NONE', #309, #253, #220 ) ;
#85 = CIRCLE ( 'NONE', #368, 0.3749999999999999445 ) ;
#86 = CARTESIAN_POINT ( 'NONE',  ( 1.683889348827610752E-16, 1.625000000000000000, 0.000000000000000000 ) ) ;
#87 = AXIS2_PLACEMENT_3D ( 'NONE', #109, #344, #137 ) ;
#88 = AXIS2_PLACEMENT_3D ( 'NONE', #361, #252, #365 ) ;
#89 = SPHERICAL_SURFACE ( 'NONE', #126, 0.3749999999999999445 ) ;
#90 = CARTESIAN_POINT ( 'NONE',  ( 0.3749999999999998335, 1.625000000000000000, 4.592425496802572986E-17 ) ) ;
#91 = CARTESIAN_POINT ( 'NONE',  ( 0.000000000000000000, 0.000000000000000000, -0.3749999999999998335 ) ) ;
#92 = MECHANICAL_DESIGN_GEOMETRIC_PRESENTATION_REPRESENTATION (  '', ( #142 ), #130 ) ;
#93 = ORIENTED_EDGE ( 'NONE', *, *, #19, .F. ) ;
#94 = DIMENSIONAL_EXPONENTS ( 1.000000000000000000, 0.000000000000000000, 0.000000000000000000, 0.000000000000000000, 0.000000000000000000, 0.000000000000000000, 0.000000000000000000 ) ;
#95 = DIRECTION ( 'NONE',  ( 0.000000000000000000, 0.000000000000000000, -1.000000000000000000 ) ) ;
#96 = VECTOR ( 'NONE', #327, 39.37007874015748143 ) ;
#97 = FACE_OUTER_BOUND ( 'NONE', #69, .T. ) ;
#98 = EDGE_CURVE ( 'NONE', #159, #197, #348, .T. ) ;
#99 = LENGTH_MEASURE_WITH_UNIT ( LENGTH_MEASURE( 0.02539999999999999897 ), #206 );
#100 = VERTEX_POINT ( 'NONE', #297 ) ;
#101 = DIRECTION ( 'NONE',  ( -1.000000000000000000, 0.000000000000000000, 0.000000000000000000 ) ) ;
#102 = VERTEX_POINT ( 'NONE', #277 ) ;
#103 = PRESENTATION_LAYER_ASSIGNMENT (  '', '', ( #275 ) ) ;
#104 =( CONVERSION_BASED_UNIT ( 'INCH', #194 ) LENGTH_UNIT ( ) NAMED_UNIT ( #270 ) );
#105 = ORIENTED_EDGE ( 'NONE', *, *, #370, .F. ) ;
#106 = DIRECTION ( 'NONE',  ( -1.000000000000000000, 0.000000000000000000, 0.000000000000000000 ) ) ;
#107 = EDGE_CURVE ( 'NONE', #197, #259, #180, .T. ) ;
#108 =( NAMED_UNIT ( * ) SI_UNIT ( $, .STERADIAN. ) SOLID_ANGLE_UNIT ( ) );
#109 = CARTESIAN_POINT ( 'NONE',  ( 1.683889348827610999E-16, 1.625000000000000000, 0.000000000000000000 ) ) ;
#110 = DIRECTION ( 'NONE',  ( 1.000000000000000000, 0.000000000000000000, 0.000000000000000000 ) ) ;
#111 =( GEOMETRIC_REPRESENTATION_CONTEXT ( 3 ) GLOBAL_UNCERTAINTY_ASSIGNED_CONTEXT ( ( #74 ) ) GLOBAL_UNIT_ASSIGNED_CONTEXT ( ( #234, #31, #108 ) ) REPRESENTATION_CONTEXT ( 'NONE', 'WORKASPACE' ) );
#112 = FACE_OUTER_BOUND ( 'NONE', #151, .T. ) ;
#113 = COLOUR_RGB ( '',1.000000000000000000, 0.000000000000000000, 0.000000000000000000 ) ;
#114 = ADVANCED_FACE ( 'NONE', ( #271 ), #124, .T. ) ;
#115 = SURFACE_STYLE_USAGE ( .BOTH. , #83 ) ;
#116 = FILL_AREA_STYLE ('',( #364 ) ) ;
#117 = DIMENSIONAL_EXPONENTS ( 1.000000000000000000, 0.000000000000000000, 0.000000000000000000, 0.000000000000000000, 0.000000000000000000, 0.000000000000000000, 0.000000000000000000 ) ;
#118 = AXIS2_PLACEMENT_3D ( 'NONE', #215, #150, #38 ) ;
#119 = PRODUCT_CONTEXT ( 'NONE', #51, 'mechanical' ) ;
#120 = AXIS2_PLACEMENT_3D ( 'NONE', #86, #318, #294 ) ;
#121 = DIRECTION ( 'NONE',  ( -0.000000000000000000, -1.000000000000000000, -0.000000000000000000 ) ) ;
#122 = ADVANCED_FACE ( 'NONE', ( #97 ), #127, .T. ) ;
#123 = EDGE_LOOP ( 'NONE', ( #129, #50, #189, #71, #282 ) ) ;
#124 = PLANE ( 'NONE',  #72 ) ;
#125 = EDGE_CURVE ( 'NONE', #100, #326, #222, .T. ) ;
#126 = AXIS2_PLACEMENT_3D ( 'NONE', #202, #164, #110 ) ;
#127 = SPHERICAL_SURFACE ( 'NONE', #343, 0.3749999999999999445 ) ;
#128 = ORIENTED_EDGE ( 'NONE', *, *, #32, .F. ) ;
#129 = ORIENTED_EDGE ( 'NONE', *, *, #329, .F. ) ;
#130 =( GEOMETRIC_REPRESENTATION_CONTEXT ( 3 ) GLOBAL_UNCERTAINTY_ASSIGNED_CONTEXT ( ( #41 ) ) GLOBAL_UNIT_ASSIGNED_CONTEXT ( ( #8, #153, #12 ) ) REPRESENTATION_CONTEXT ( 'NONE', 'WORKASPACE' ) );
#131 =( GEOMETRIC_REPRESENTATION_CONTEXT ( 3 ) GLOBAL_UNCERTAINTY_ASSIGNED_CONTEXT ( ( #18 ) ) GLOBAL_UNIT_ASSIGNED_CONTEXT ( ( #289, #1, #76 ) ) REPRESENTATION_CONTEXT ( 'NONE', 'WORKASPACE' ) );
#132 = ORIENTED_EDGE ( 'NONE', *, *, #19, .T. ) ;
#133 =( NAMED_UNIT ( * ) PLANE_ANGLE_UNIT ( ) SI_UNIT ( $, .RADIAN. ) );
#134 = MECHANICAL_DESIGN_GEOMETRIC_PRESENTATION_REPRESENTATION (  '', ( #191 ), #34 ) ;
#135 = SURFACE_STYLE_FILL_AREA ( #62 ) ;
#136 = AXIS2_PLACEMENT_3D ( 'NONE', #29, #225, #342 ) ;
#137 = DIRECTION ( 'NONE',  ( -1.000000000000000000, 0.000000000000000000, 0.000000000000000000 ) ) ;
#138 = EDGE_CURVE ( 'NONE', #102, #178, #312, .T. ) ;
#139 = DIMENSIONAL_EXPONENTS ( 1.000000000000000000, 0.000000000000000000, 0.000000000000000000, 0.000000000000000000, 0.000000000000000000, 0.000000000000000000, 0.000000000000000000 ) ;
#140 = ADVANCED_FACE ( 'NONE', ( #190 ), #44, .T. ) ;
#141 = FILL_AREA_STYLE ('',( #228 ) ) ;
#142 = STYLED_ITEM ( 'NONE', ( #242 ), #80 ) ;
#143 = DIRECTION ( 'NONE',  ( -0.000000000000000000, -1.000000000000000000, -0.000000000000000000 ) ) ;
#144 = CARTESIAN_POINT ( 'NONE',  ( 0.000000000000000000, 1.625000000000000000, -0.3749999999999998335 ) ) ;
#145 = DIRECTION ( 'NONE',  ( -0.000000000000000000, -1.000000000000000000, -0.000000000000000000 ) ) ;
#146 = CARTESIAN_POINT ( 'NONE',  ( 0.000000000000000000, 0.3750000000000001110, 0.000000000000000000 ) ) ;
#147 = COLOUR_RGB ( '',1.000000000000000000, 0.000000000000000000, 0.000000000000000000 ) ;
#148 = CIRCLE ( 'NONE', #203, 0.3749999999999998335 ) ;
#149 = SURFACE_STYLE_FILL_AREA ( #42 ) ;
#150 = DIRECTION ( 'NONE',  ( -0.000000000000000000, -1.000000000000000000, -0.000000000000000000 ) ) ;
#151 = EDGE_LOOP ( 'NONE', ( #280, #154, #286, #162 ) ) ;
#152 = ADVANCED_FACE ( 'NONE', ( #112 ), #89, .T. ) ;
#153 =( NAMED_UNIT ( * ) PLANE_ANGLE_UNIT ( ) SI_UNIT ( $, .RADIAN. ) );
#154 = ORIENTED_EDGE ( 'NONE', *, *, #32, .T. ) ;
#155 = SURFACE_STYLE_FILL_AREA ( #336 ) ;
#156 = EDGE_CURVE ( 'NONE', #178, #102, #66, .T. ) ;
#157 = CIRCLE ( 'NONE', #87, 0.3749999999999996669 ) ;
#158 = DIRECTION ( 'NONE',  ( 0.000000000000000000, 0.000000000000000000, 1.000000000000000000 ) ) ;
#159 = VERTEX_POINT ( 'NONE', #169 ) ;
#160 = ORIENTED_EDGE ( 'NONE', *, *, #283, .F. ) ;
#161 =( NAMED_UNIT ( * ) PLANE_ANGLE_UNIT ( ) SI_UNIT ( $, .RADIAN. ) );
#162 = ORIENTED_EDGE ( 'NONE', *, *, #98, .T. ) ;
#163 = ORIENTED_EDGE ( 'NONE', *, *, #14, .T. ) ;
#164 = DIRECTION ( 'NONE',  ( 0.000000000000000000, 0.000000000000000000, 1.000000000000000000 ) ) ;
#165 = DIMENSIONAL_EXPONENTS ( 1.000000000000000000, 0.000000000000000000, 0.000000000000000000, 0.000000000000000000, 0.000000000000000000, 0.000000000000000000, 0.000000000000000000 ) ;
#166 = FILL_AREA_STYLE_COLOUR ( '', #28 ) ;
#167 = COLOUR_RGB ( '',0.7921568627450980005, 0.8196078431372548767, 0.9333333333333333481 ) ;
#168 = DIMENSIONAL_EXPONENTS ( 1.000000000000000000, 0.000000000000000000, 0.000000000000000000, 0.000000000000000000, 0.000000000000000000, 0.000000000000000000, 0.000000000000000000 ) ;
#169 = CARTESIAN_POINT ( 'NONE',  ( 0.3749999999999998890, 0.3750000000000001110, 0.000000000000000000 ) ) ;
#170 = EDGE_CURVE ( 'NONE', #159, #372, #85, .T. ) ;
#171 = CARTESIAN_POINT ( 'NONE',  ( -4.592425496802575451E-17, 0.3750000000000000555, 0.000000000000000000 ) ) ;
#172 = SURFACE_SIDE_STYLE ('',( #63 ) ) ;
#173 = SURFACE_STYLE_FILL_AREA ( #141 ) ;
#174 = DIRECTION ( 'NONE',  ( -0.000000000000000000, -1.000000000000000000, -0.000000000000000000 ) ) ;
#175 = UNCERTAINTY_MEASURE_WITH_UNIT (LENGTH_MEASURE( 1.000000000000000082E-05 ), #104, 'distance_accuracy_value', 'NONE');
#176 = CARTESIAN_POINT ( 'NONE',  ( 0.000000000000000000, 0.3750000000000001110, -0.3749999999999998890 ) ) ;
#177 = FILL_AREA_STYLE_COLOUR ( '', #261 ) ;
#178 = VERTEX_POINT ( 'NONE', #58 ) ;
#179 = FILL_AREA_STYLE_COLOUR ( '', #167 ) ;
#180 = CIRCLE ( 'NONE', #20, 0.3749999999999998890 ) ;
#181 = EDGE_LOOP ( 'NONE', ( #339, #334, #213, #245 ) ) ;
#182 = APPLICATION_PROTOCOL_DEFINITION ( 'draft international standard', 'automotive_design', 1998, #51 ) ;
#183 = ADVANCED_FACE ( 'NONE', ( #60 ), #199, .F. ) ;
#184 = CARTESIAN_POINT ( 'NONE',  ( 4.592425496802572986E-17, 0.3750000000000001110, 0.3749999999999998890 ) ) ;
#185 = CARTESIAN_POINT ( 'NONE',  ( 0.000000000000000000, 0.3750000000000001110, 0.000000000000000000 ) ) ;
#186 = SHAPE_DEFINITION_REPRESENTATION ( #238, #315 ) ;
#187 = ADVANCED_FACE ( 'NONE', ( #59 ), #3, .T. ) ;
#188 = CARTESIAN_POINT ( 'NONE',  ( -4.592425496802575451E-17, 0.3750000000000000555, 0.000000000000000000 ) ) ;
#189 = ORIENTED_EDGE ( 'NONE', *, *, #257, .T. ) ;
#190 = FACE_OUTER_BOUND ( 'NONE', #22, .T. ) ;
#191 = STYLED_ITEM ( 'NONE', ( #357 ), #114 ) ;
#192 = STYLED_ITEM ( 'NONE', ( #320 ), #330 ) ;
#193 = VERTEX_POINT ( 'NONE', #268 ) ;
#194 = LENGTH_MEASURE_WITH_UNIT ( LENGTH_MEASURE( 0.02539999999999999897 ), #340 );
#195 = EDGE_LOOP ( 'NONE', ( #284, #254 ) ) ;
#196 = PRESENTATION_STYLE_ASSIGNMENT (( #21 ) ) ;
#197 = VERTEX_POINT ( 'NONE', #184 ) ;
#198 = AXIS2_PLACEMENT_3D ( 'NONE', #146, #37, #95 ) ;
#199 = PLANE ( 'NONE',  #120 ) ;
#200 = FILL_AREA_STYLE ('',( #345 ) ) ;
#201 = PRESENTATION_LAYER_ASSIGNMENT (  '', '', ( #367 ) ) ;
#202 = CARTESIAN_POINT ( 'NONE',  ( -4.592425496802575451E-17, 0.3750000000000000555, 0.000000000000000000 ) ) ;
#203 = AXIS2_PLACEMENT_3D ( 'NONE', #205, #208, #4 ) ;
#204 = SURFACE_STYLE_USAGE ( .BOTH. , #291 ) ;
#205 = CARTESIAN_POINT ( 'NONE',  ( 0.000000000000000000, 1.625000000000000000, 0.000000000000000000 ) ) ;
#206 =( LENGTH_UNIT ( ) NAMED_UNIT ( * ) SI_UNIT ( $, .METRE. ) );
#207 = UNCERTAINTY_MEASURE_WITH_UNIT (LENGTH_MEASURE( 1.000000000000000082E-05 ), #2, 'distance_accuracy_value', 'NONE');
#208 = DIRECTION ( 'NONE',  ( -0.000000000000000000, -1.000000000000000000, -0.000000000000000000 ) ) ;
#209 = DIRECTION ( 'NONE',  ( 0.000000000000000000, 0.000000000000000000, -1.000000000000000000 ) ) ;
#210 = AXIS2_PLACEMENT_3D ( 'NONE', #328, #43, #358 ) ;
#211 =( CONVERSION_BASED_UNIT ( 'INCH', #99 ) LENGTH_UNIT ( ) NAMED_UNIT ( #165 ) );
#212 = DIRECTION ( 'NONE',  ( 0.000000000000000000, 0.000000000000000000, -1.000000000000000000 ) ) ;
#213 = ORIENTED_EDGE ( 'NONE', *, *, #156, .F. ) ;
#214 = CYLINDRICAL_SURFACE ( 'NONE', #296, 0.3749999999999998335 ) ;
#215 = CARTESIAN_POINT ( 'NONE',  ( 0.000000000000000000, 0.3750000000000001110, 0.000000000000000000 ) ) ;
#216 = PRESENTATION_LAYER_ASSIGNMENT (  '', '', ( #191 ) ) ;
#217 = UNCERTAINTY_MEASURE_WITH_UNIT (LENGTH_MEASURE( 1.000000000000000082E-05 ), #211, 'distance_accuracy_value', 'NONE');
#218 = PRODUCT_DEFINITION_FORMATION_WITH_SPECIFIED_SOURCE ( 'ANY', '', #266, .NOT_KNOWN. ) ;
#219 = EDGE_LOOP ( 'NONE', ( #132, #313, #360, #160, #221 ) ) ;
#220 = DIRECTION ( 'NONE',  ( -1.000000000000000000, 0.000000000000000000, 0.000000000000000000 ) ) ;
#221 = ORIENTED_EDGE ( 'NONE', *, *, #257, .F. ) ;
#222 = CIRCLE ( 'NONE', #61, 0.3749999999999996669 ) ;
#223 = DIRECTION ( 'NONE',  ( -1.224646799147353207E-16, 1.000000000000000000, -0.000000000000000000 ) ) ;
#224 = CARTESIAN_POINT ( 'NONE',  ( -2.296212748401288342E-17, 6.829619984160658046E-17, 0.000000000000000000 ) ) ;
#225 = DIRECTION ( 'NONE',  ( -1.224646799147353207E-16, 1.000000000000000000, -0.000000000000000000 ) ) ;
#226 = ADVANCED_FACE ( 'NONE', ( #39 ), #67, .F. ) ;
#227 = MECHANICAL_DESIGN_GEOMETRIC_PRESENTATION_REPRESENTATION (  '', ( #192 ), #78 ) ;
#228 = FILL_AREA_STYLE_COLOUR ( '', #281 ) ;
#229 = SURFACE_SIDE_STYLE ('',( #135 ) ) ;
#230 =( CONVERSION_BASED_UNIT ( 'INCH', #347 ) LENGTH_UNIT ( ) NAMED_UNIT ( #30 ) );
#231 = CARTESIAN_POINT ( 'NONE',  ( 0.000000000000000000, 1.625000000000000000, 0.000000000000000000 ) ) ;
#232 = SURFACE_STYLE_FILL_AREA ( #200 ) ;
#233 = PRESENTATION_STYLE_ASSIGNMENT (( #204 ) ) ;
#234 =( CONVERSION_BASED_UNIT ( 'INCH', #260 ) LENGTH_UNIT ( ) NAMED_UNIT ( #94 ) );
#235 = LENGTH_MEASURE_WITH_UNIT ( LENGTH_MEASURE( 0.02539999999999999897 ), #57 );
#236 = DIRECTION ( 'NONE',  ( 1.000000000000000000, 1.224646799147353207E-16, 0.000000000000000000 ) ) ;
#237 = PRESENTATION_LAYER_ASSIGNMENT (  '', '', ( #27 ) ) ;
#238 = PRODUCT_DEFINITION_SHAPE ( 'NONE', 'NONE',  #249 ) ;
#239 = VECTOR ( 'NONE', #174, 39.37007874015748143 ) ;
#240 = SURFACE_STYLE_USAGE ( .BOTH. , #172 ) ;
#241 = CARTESIAN_POINT ( 'NONE',  ( 4.592425496802572370E-17, 0.000000000000000000, 0.3749999999999998335 ) ) ;
#242 = PRESENTATION_STYLE_ASSIGNMENT (( #70 ) ) ;
#243 = LINE ( 'NONE', #91, #239 ) ;
#244 = FILL_AREA_STYLE ('',( #177 ) ) ;
#245 = ORIENTED_EDGE ( 'NONE', *, *, #359, .F. ) ;
#246 = DIRECTION ( 'NONE',  ( 0.000000000000000000, 0.000000000000000000, -1.000000000000000000 ) ) ;
#247 = MECHANICAL_DESIGN_GEOMETRIC_PRESENTATION_REPRESENTATION (  '', ( #367 ), #292 ) ;
#248 = STYLED_ITEM ( 'NONE', ( #33 ), #187 ) ;
#249 = PRODUCT_DEFINITION ( 'UNKNOWN', '', #218, #308 ) ;
#250 = FILL_AREA_STYLE_COLOUR ( '', #113 ) ;
#251 = ORIENTED_EDGE ( 'NONE', *, *, #359, .T. ) ;
#252 = DIRECTION ( 'NONE',  ( 0.000000000000000000, 0.000000000000000000, 1.000000000000000000 ) ) ;
#253 = DIRECTION ( 'NONE',  ( -1.224646799147353207E-16, 1.000000000000000000, -0.000000000000000000 ) ) ;
#254 = ORIENTED_EDGE ( 'NONE', *, *, #14, .F. ) ;
#255 = AXIS2_PLACEMENT_3D ( 'NONE', #231, #346, #212 ) ;
#256 = CARTESIAN_POINT ( 'NONE',  ( 1.683889348827610999E-16, 1.625000000000000000, 0.000000000000000000 ) ) ;
#257 = EDGE_CURVE ( 'NONE', #369, #288, #243, .T. ) ;
#258 =( NAMED_UNIT ( * ) SI_UNIT ( $, .STERADIAN. ) SOLID_ANGLE_UNIT ( ) );
#259 = VERTEX_POINT ( 'NONE', #356 ) ;
#260 = LENGTH_MEASURE_WITH_UNIT ( LENGTH_MEASURE( 0.02539999999999999897 ), #55 );
#261 = COLOUR_RGB ( '',1.000000000000000000, 0.000000000000000000, 0.000000000000000000 ) ;
#262 =( NAMED_UNIT ( * ) SI_UNIT ( $, .STERADIAN. ) SOLID_ANGLE_UNIT ( ) );
#263 =( NAMED_UNIT ( * ) PLANE_ANGLE_UNIT ( ) SI_UNIT ( $, .RADIAN. ) );
#264 =( NAMED_UNIT ( * ) SI_UNIT ( $, .STERADIAN. ) SOLID_ANGLE_UNIT ( ) );
#265 = CIRCLE ( 'NONE', #210, 0.3749999999999999445 ) ;
#266 = PRODUCT ( '49406', '49406', '', ( #119 ) ) ;
#267 =( GEOMETRIC_REPRESENTATION_CONTEXT ( 3 ) GLOBAL_UNCERTAINTY_ASSIGNED_CONTEXT ( ( #207 ) ) GLOBAL_UNIT_ASSIGNED_CONTEXT ( ( #2, #263, #264 ) ) REPRESENTATION_CONTEXT ( 'NONE', 'WORKASPACE' ) );
#268 = CARTESIAN_POINT ( 'NONE',  ( 4.592425496802572370E-17, 1.625000000000000000, 0.3749999999999998335 ) ) ;
#269 = CARTESIAN_POINT ( 'NONE',  ( 0.3749999999999996669, 4.000000000000000000, 4.592425496802572370E-17 ) ) ;
#270 = DIMENSIONAL_EXPONENTS ( 1.000000000000000000, 0.000000000000000000, 0.000000000000000000, 0.000000000000000000, 0.000000000000000000, 0.000000000000000000, 0.000000000000000000 ) ;
#271 = FACE_OUTER_BOUND ( 'NONE', #82, .T. ) ;
#272 = DIMENSIONAL_EXPONENTS ( 1.000000000000000000, 0.000000000000000000, 0.000000000000000000, 0.000000000000000000, 0.000000000000000000, 0.000000000000000000, 0.000000000000000000 ) ;
#273 = CARTESIAN_POINT ( 'NONE',  ( 0.000000000000000000, 0.3750000000000001110, 0.000000000000000000 ) ) ;
#274 = AXIS2_PLACEMENT_3D ( 'NONE', #77, #223, #101 ) ;
#275 = STYLED_ITEM ( 'NONE', ( #35 ), #335 ) ;
#276 = APPLICATION_CONTEXT ( 'automotive_design' ) ;
#277 = CARTESIAN_POINT ( 'NONE',  ( 0.3749999999999998335, 4.000000000000000000, 4.592425496802572986E-17 ) ) ;
#278 = UNCERTAINTY_MEASURE_WITH_UNIT (LENGTH_MEASURE( 1.000000000000000082E-05 ), #230, 'distance_accuracy_value', 'NONE');
#279 = CARTESIAN_POINT ( 'NONE',  ( 0.000000000000000000, 0.000000000000000000, 0.000000000000000000 ) ) ;
#280 = ORIENTED_EDGE ( 'NONE', *, *, #107, .T. ) ;
#281 = COLOUR_RGB ( '',0.7921568627450980005, 0.8196078431372548767, 0.9333333333333333481 ) ;
#282 = ORIENTED_EDGE ( 'NONE', *, *, #107, .F. ) ;
#283 = EDGE_CURVE ( 'NONE', #288, #159, #303, .T. ) ;
#284 = ORIENTED_EDGE ( 'NONE', *, *, #125, .F. ) ;
#285 = AXIS2_PLACEMENT_3D ( 'NONE', #279, #299, #246 ) ;
#286 = ORIENTED_EDGE ( 'NONE', *, *, #170, .F. ) ;
#287 = MECHANICAL_DESIGN_GEOMETRIC_PRESENTATION_REPRESENTATION (  '', ( #248 ), #267 ) ;
#288 = VERTEX_POINT ( 'NONE', #176 ) ;
#289 =( CONVERSION_BASED_UNIT ( 'INCH', #235 ) LENGTH_UNIT ( ) NAMED_UNIT ( #168 ) );
#290 = LENGTH_MEASURE_WITH_UNIT ( LENGTH_MEASURE( 0.02539999999999999897 ), #293 );
#291 = SURFACE_SIDE_STYLE ('',( #232 ) ) ;
#292 =( GEOMETRIC_REPRESENTATION_CONTEXT ( 3 ) GLOBAL_UNCERTAINTY_ASSIGNED_CONTEXT ( ( #278 ) ) GLOBAL_UNIT_ASSIGNED_CONTEXT ( ( #230, #350, #262 ) ) REPRESENTATION_CONTEXT ( 'NONE', 'WORKASPACE' ) );
#293 =( LENGTH_UNIT ( ) NAMED_UNIT ( * ) SI_UNIT ( $, .METRE. ) );
#294 = DIRECTION ( 'NONE',  ( -1.000000000000000000, -1.224646799147353207E-16, 0.000000000000000000 ) ) ;
#295 =( NAMED_UNIT ( * ) PLANE_ANGLE_UNIT ( ) SI_UNIT ( $, .RADIAN. ) );
#296 = AXIS2_PLACEMENT_3D ( 'NONE', #353, #306, #300 ) ;
#297 = CARTESIAN_POINT ( 'NONE',  ( -0.3749999999999995559, 1.625000000000000000, 0.000000000000000000 ) ) ;
#298 = LINE ( 'NONE', #241, #96 ) ;
#299 = DIRECTION ( 'NONE',  ( -0.000000000000000000, -1.000000000000000000, -0.000000000000000000 ) ) ;
#300 = DIRECTION ( 'NONE',  ( -1.000000000000000000, 0.000000000000000000, 0.000000000000000000 ) ) ;
#301 = SURFACE_SIDE_STYLE ('',( #307 ) ) ;
#302 = PRESENTATION_LAYER_ASSIGNMENT (  '', '', ( #142 ) ) ;
#303 = CIRCLE ( 'NONE', #355, 0.3749999999999998890 ) ;
#304 = ORIENTED_EDGE ( 'NONE', *, *, #156, .T. ) ;
#305 = ADVANCED_FACE ( 'NONE', ( #40 ), #214, .T. ) ;
#306 = DIRECTION ( 'NONE',  ( -1.224646799147353207E-16, 1.000000000000000000, -0.000000000000000000 ) ) ;
#307 = SURFACE_STYLE_FILL_AREA ( #244 ) ;
#308 = PRODUCT_DEFINITION_CONTEXT ( 'detailed design', #276, 'design' ) ;
#309 = CARTESIAN_POINT ( 'NONE',  ( -1.224646799147352714E-16, 4.000000000000000000, 0.000000000000000000 ) ) ;
#310 = SURFACE_SIDE_STYLE ('',( #155 ) ) ;
#311 = ORIENTED_EDGE ( 'NONE', *, *, #138, .T. ) ;
#312 = CIRCLE ( 'NONE', #274, 0.3749999999999999445 ) ;
#313 = ORIENTED_EDGE ( 'NONE', *, *, #329, .T. ) ;
#314 = SURFACE_STYLE_USAGE ( .BOTH. , #229 ) ;
#315 = ADVANCED_BREP_SHAPE_REPRESENTATION ( '49406', ( #330, #335, #88 ), #131 ) ;
#316 = DIRECTION ( 'NONE',  ( 0.000000000000000000, 0.000000000000000000, -1.000000000000000000 ) ) ;
#317 = MECHANICAL_DESIGN_GEOMETRIC_PRESENTATION_REPRESENTATION (  '', ( #275 ), #111 ) ;
#318 = DIRECTION ( 'NONE',  ( -1.224646799147353207E-16, 1.000000000000000000, 0.000000000000000000 ) ) ;
#319 = DIRECTION ( 'NONE',  ( -1.224646799147353207E-16, 1.000000000000000000, -0.000000000000000000 ) ) ;
#320 = PRESENTATION_STYLE_ASSIGNMENT (( #6 ) ) ;
#321 = DIRECTION ( 'NONE',  ( -1.224646799147353207E-16, 1.000000000000000000, -0.000000000000000000 ) ) ;
#322 = VECTOR ( 'NONE', #319, 39.37007874015748143 ) ;
#323 = CARTESIAN_POINT ( 'NONE',  ( 0.3749999999999998335, 4.000000000000000000, 0.000000000000000000 ) ) ;
#324 = CYLINDRICAL_SURFACE ( 'NONE', #285, 0.3749999999999998335 ) ;
#325 = FACE_OUTER_BOUND ( 'NONE', #219, .T. ) ;
#326 = VERTEX_POINT ( 'NONE', #90 ) ;
#327 = DIRECTION ( 'NONE',  ( -0.000000000000000000, -1.000000000000000000, -0.000000000000000000 ) ) ;
#328 = CARTESIAN_POINT ( 'NONE',  ( -4.592425496802575451E-17, 0.3750000000000000555, 0.000000000000000000 ) ) ;
#329 = EDGE_CURVE ( 'NONE', #193, #197, #298, .T. ) ;
#330 = MANIFOLD_SOLID_BREP ( 'Revolve - Cutting Edge', #64 ) ;
#331 = MECHANICAL_DESIGN_GEOMETRIC_PRESENTATION_REPRESENTATION (  '', ( #27 ), #9 ) ;
#332 = VECTOR ( 'NONE', #321, 39.37007874015748143 ) ;
#333 = LENGTH_MEASURE_WITH_UNIT ( LENGTH_MEASURE( 0.02539999999999999897 ), #68 );
#334 = ORIENTED_EDGE ( 'NONE', *, *, #373, .T. ) ;
#335 = MANIFOLD_SOLID_BREP ( 'Revolve - Tool Body (Straight Shanked)', #337 ) ;
#336 = FILL_AREA_STYLE ('',( #250 ) ) ;
#337 = CLOSED_SHELL ( 'NONE', ( #305, #183, #140, #226 ) ) ;
#338 = AXIS2_PLACEMENT_3D ( 'NONE', #73, #121, #209 ) ;
#339 = ORIENTED_EDGE ( 'NONE', *, *, #125, .T. ) ;
#340 =( LENGTH_UNIT ( ) NAMED_UNIT ( * ) SI_UNIT ( $, .METRE. ) );
#341 = ORIENTED_EDGE ( 'NONE', *, *, #54, .T. ) ;
#342 = DIRECTION ( 'NONE',  ( -1.000000000000000000, 0.000000000000000000, 0.000000000000000000 ) ) ;
#343 = AXIS2_PLACEMENT_3D ( 'NONE', #188, #158, #79 ) ;
#344 = DIRECTION ( 'NONE',  ( -1.224646799147353207E-16, 1.000000000000000000, -0.000000000000000000 ) ) ;
#345 = FILL_AREA_STYLE_COLOUR ( '', #147 ) ;
#346 = DIRECTION ( 'NONE',  ( -0.000000000000000000, -1.000000000000000000, -0.000000000000000000 ) ) ;
#347 = LENGTH_MEASURE_WITH_UNIT ( LENGTH_MEASURE( 0.02539999999999999897 ), #371 );
#348 = CIRCLE ( 'NONE', #118, 0.3749999999999998890 ) ;
#349 =( NAMED_UNIT ( * ) SI_UNIT ( $, .STERADIAN. ) SOLID_ANGLE_UNIT ( ) );
#350 =( NAMED_UNIT ( * ) PLANE_ANGLE_UNIT ( ) SI_UNIT ( $, .RADIAN. ) );
#351 = PRODUCT_RELATED_PRODUCT_CATEGORY ( 'part', '', ( #266 ) ) ;
#352 = CARTESIAN_POINT ( 'NONE',  ( -0.3749999999999999445, 4.000000000000000000, 0.000000000000000000 ) ) ;
#353 = CARTESIAN_POINT ( 'NONE',  ( -1.224646799147352714E-16, 4.000000000000000000, 0.000000000000000000 ) ) ;
#354 = CIRCLE ( 'NONE', #198, 0.3749999999999998890 ) ;
#355 = AXIS2_PLACEMENT_3D ( 'NONE', #273, #143, #7 ) ;
#356 = CARTESIAN_POINT ( 'NONE',  ( -0.3749999999999999445, 0.3750000000000001110, 4.592425496802572986E-17 ) ) ;
#357 = PRESENTATION_STYLE_ASSIGNMENT (( #240 ) ) ;
#358 = DIRECTION ( 'NONE',  ( 1.000000000000000000, 0.000000000000000000, -1.224646799147353207E-16 ) ) ;
#359 = EDGE_CURVE ( 'NONE', #100, #178, #23, .T. ) ;
#360 = ORIENTED_EDGE ( 'NONE', *, *, #98, .F. ) ;
#361 = CARTESIAN_POINT ( 'NONE',  ( 0.000000000000000000, 0.000000000000000000, 0.000000000000000000 ) ) ;
#362 = COLOUR_RGB ( '',1.000000000000000000, 0.000000000000000000, 0.000000000000000000 ) ;
#363 = PRESENTATION_LAYER_ASSIGNMENT (  '', '', ( #192 ) ) ;
#364 = FILL_AREA_STYLE_COLOUR ( '', #362 ) ;
#365 = DIRECTION ( 'NONE',  ( 1.000000000000000000, 0.000000000000000000, 0.000000000000000000 ) ) ;
#366 =( CONVERSION_BASED_UNIT ( 'INCH', #48 ) LENGTH_UNIT ( ) NAMED_UNIT ( #272 ) );
#367 = STYLED_ITEM ( 'NONE', ( #233 ), #152 ) ;
#368 = AXIS2_PLACEMENT_3D ( 'NONE', #171, #316, #26 ) ;
#369 = VERTEX_POINT ( 'NONE', #144 ) ;
#370 = EDGE_CURVE ( 'NONE', #193, #369, #148, .T. ) ;
#371 =( LENGTH_UNIT ( ) NAMED_UNIT ( * ) SI_UNIT ( $, .METRE. ) );
#372 = VERTEX_POINT ( 'NONE', #224 ) ;
#373 = EDGE_CURVE ( 'NONE', #326, #102, #65, .T. ) ;
ENDSEC;
END-ISO-10303-21;
