ISO-10303-21;
HEADER;
FILE_DESCRIPTION (( 'STEP AP214' ),
    '1' );
FILE_NAME ('81646.STEP',
    '2023-06-23T02:29:01',
    ( '' ),
    ( '' ),
    'SwSTEP 2.0',
    'SolidWorks 2023',
    '' );
FILE_SCHEMA (( 'AUTOMOTIVE_DESIGN' ));
ENDSEC;

DATA;
#1 =( NAMED_UNIT ( * ) PLANE_ANGLE_UNIT ( ) SI_UNIT ( $, .RADIAN. ) );
#2 = PRODUCT ( '81646', '81646', '', ( #12 ) ) ;
#3 =( NAMED_UNIT ( * ) SI_UNIT ( $, .STERADIAN. ) SOLID_ANGLE_UNIT ( ) );
#4 =( LENGTH_UNIT ( ) NAMED_UNIT ( * ) SI_UNIT ( $, .METRE. ) );
#5 = CYLINDRICAL_SURFACE ( 'NONE', #223, 0.2500000000000000555 ) ;
#6 = EDGE_CURVE ( 'NONE', #140, #289, #113, .T. ) ;
#7 = CARTESIAN_POINT ( 'NONE',  ( 3.061616997868383018E-17, 0.000000000000000000, 0.2500000000000000000 ) ) ;
#8 = AXIS2_PLACEMENT_3D ( 'NONE', #210, #300, #305 ) ;
#9 = SURFACE_STYLE_USAGE ( .BOTH. , #293 ) ;
#10 = DIRECTION ( 'NONE',  ( -4.898587196589412459E-17, 1.000000000000000000, -0.000000000000000000 ) ) ;
#11 = CARTESIAN_POINT ( 'NONE',  ( 0.000000000000000000, 2.500000000000000000, 0.000000000000000000 ) ) ;
#12 = PRODUCT_CONTEXT ( 'NONE', #286, 'mechanical' ) ;
#13 = FILL_AREA_STYLE ('',( #51 ) ) ;
#14 = VECTOR ( 'NONE', #136, 39.37007874015748143 ) ;
#15 = ORIENTED_EDGE ( 'NONE', *, *, #17, .F. ) ;
#16 =( NAMED_UNIT ( * ) PLANE_ANGLE_UNIT ( ) SI_UNIT ( $, .RADIAN. ) );
#17 = EDGE_CURVE ( 'NONE', #197, #59, #240, .T. ) ;
#18 = CIRCLE ( 'NONE', #8, 0.2500000000000000000 ) ;
#19 = DIRECTION ( 'NONE',  ( -1.000000000000000000, 0.000000000000000000, 0.000000000000000000 ) ) ;
#20 = ORIENTED_EDGE ( 'NONE', *, *, #99, .F. ) ;
#21 = FACE_OUTER_BOUND ( 'NONE', #304, .T. ) ;
#22 = DIRECTION ( 'NONE',  ( 0.000000000000000000, 0.000000000000000000, -1.000000000000000000 ) ) ;
#23 = CARTESIAN_POINT ( 'NONE',  ( 0.2499999999999999167, 5.000000000000000000, 3.061616997868383634E-17 ) ) ;
#24 = CARTESIAN_POINT ( 'NONE',  ( -0.2500000000000000000, 2.500000000000000000, 0.000000000000000000 ) ) ;
#25 = APPLICATION_PROTOCOL_DEFINITION ( 'draft international standard', 'automotive_design', 1998, #55 ) ;
#26 = FILL_AREA_STYLE_COLOUR ( '', #184 ) ;
#27 = AXIS2_PLACEMENT_3D ( 'NONE', #261, #84, #39 ) ;
#28 = PRESENTATION_STYLE_ASSIGNMENT (( #159 ) ) ;
#29 = ORIENTED_EDGE ( 'NONE', *, *, #259, .F. ) ;
#30 = DIRECTION ( 'NONE',  ( -0.000000000000000000, -1.000000000000000000, -0.000000000000000000 ) ) ;
#31 = CARTESIAN_POINT ( 'NONE',  ( 2.999519565323715729E-34, 2.500000000000000000, 0.000000000000000000 ) ) ;
#32 = CARTESIAN_POINT ( 'NONE',  ( -1.224646799147353207E-16, 5.000000000000000000, 0.000000000000000000 ) ) ;
#33 = FILL_AREA_STYLE ('',( #264 ) ) ;
#34 = VECTOR ( 'NONE', #222, 39.37007874015748143 ) ;
#35 = COLOUR_RGB ( '',0.7921568627450980005, 0.8196078431372548767, 0.9333333333333333481 ) ;
#36 = DIMENSIONAL_EXPONENTS ( 1.000000000000000000, 0.000000000000000000, 0.000000000000000000, 0.000000000000000000, 0.000000000000000000, 0.000000000000000000, 0.000000000000000000 ) ;
#37 = SURFACE_STYLE_USAGE ( .BOTH. , #255 ) ;
#38 = CIRCLE ( 'NONE', #102, 0.2500000000000000000 ) ;
#39 = DIRECTION ( 'NONE',  ( -1.000000000000000000, 0.000000000000000000, 0.000000000000000000 ) ) ;
#40 = STYLED_ITEM ( 'NONE', ( #213 ), #131 ) ;
#41 = PRODUCT_DEFINITION ( 'UNKNOWN', '', #257, #290 ) ;
#42 = ADVANCED_FACE ( 'NONE', ( #65 ), #187, .T. ) ;
#43 = SURFACE_SIDE_STYLE ('',( #292 ) ) ;
#44 = COLOUR_RGB ( '',1.000000000000000000, 0.000000000000000000, 0.000000000000000000 ) ;
#45 =( CONVERSION_BASED_UNIT ( 'INCH', #212 ) LENGTH_UNIT ( ) NAMED_UNIT ( #162 ) );
#46 = DIRECTION ( 'NONE',  ( -1.000000000000000000, 0.000000000000000000, 0.000000000000000000 ) ) ;
#47 = DIMENSIONAL_EXPONENTS ( 1.000000000000000000, 0.000000000000000000, 0.000000000000000000, 0.000000000000000000, 0.000000000000000000, 0.000000000000000000, 0.000000000000000000 ) ;
#48 = CARTESIAN_POINT ( 'NONE',  ( 0.000000000000000000, 0.000000000000000000, -0.2500000000000000000 ) ) ;
#49 =( NAMED_UNIT ( * ) PLANE_ANGLE_UNIT ( ) SI_UNIT ( $, .RADIAN. ) );
#50 = AXIS2_PLACEMENT_3D ( 'NONE', #126, #108, #22 ) ;
#51 = FILL_AREA_STYLE_COLOUR ( '', #44 ) ;
#52 = LENGTH_MEASURE_WITH_UNIT ( LENGTH_MEASURE( 0.02539999999999999897 ), #4 );
#53 = EDGE_CURVE ( 'NONE', #289, #140, #18, .T. ) ;
#54 = DIRECTION ( 'NONE',  ( -1.000000000000000000, -4.898587196589412459E-17, 0.000000000000000000 ) ) ;
#55 = APPLICATION_CONTEXT ( 'automotive_design' ) ;
#56 = CARTESIAN_POINT ( 'NONE',  ( 0.000000000000000000, 0.000000000000000000, 0.000000000000000000 ) ) ;
#57 =( GEOMETRIC_REPRESENTATION_CONTEXT ( 3 ) GLOBAL_UNCERTAINTY_ASSIGNED_CONTEXT ( ( #308 ) ) GLOBAL_UNIT_ASSIGNED_CONTEXT ( ( #97, #49, #137 ) ) REPRESENTATION_CONTEXT ( 'NONE', 'WORKASPACE' ) );
#58 = ORIENTED_EDGE ( 'NONE', *, *, #248, .T. ) ;
#59 = VERTEX_POINT ( 'NONE', #309 ) ;
#60 = CIRCLE ( 'NONE', #50, 0.2500000000000000000 ) ;
#61 = VECTOR ( 'NONE', #10, 39.37007874015748143 ) ;
#62 = PRESENTATION_LAYER_ASSIGNMENT (  '', '', ( #177 ) ) ;
#63 = ADVANCED_FACE ( 'NONE', ( #85 ), #231, .T. ) ;
#64 = ORIENTED_EDGE ( 'NONE', *, *, #17, .T. ) ;
#65 = FACE_OUTER_BOUND ( 'NONE', #87, .T. ) ;
#66 =( LENGTH_UNIT ( ) NAMED_UNIT ( * ) SI_UNIT ( $, .METRE. ) );
#67 = CLOSED_SHELL ( 'NONE', ( #119, #195, #63, #204 ) ) ;
#68 = MECHANICAL_DESIGN_GEOMETRIC_PRESENTATION_REPRESENTATION (  '', ( #177 ), #185 ) ;
#69 = DIMENSIONAL_EXPONENTS ( 1.000000000000000000, 0.000000000000000000, 0.000000000000000000, 0.000000000000000000, 0.000000000000000000, 0.000000000000000000, 0.000000000000000000 ) ;
#70 = DIRECTION ( 'NONE',  ( -4.898587196589412459E-17, 1.000000000000000000, 0.000000000000000000 ) ) ;
#71 =( NAMED_UNIT ( * ) PLANE_ANGLE_UNIT ( ) SI_UNIT ( $, .RADIAN. ) );
#72 = CARTESIAN_POINT ( 'NONE',  ( 1.516480271171051896E-32, 2.500000000000000000, 0.000000000000000000 ) ) ;
#73 = DIRECTION ( 'NONE',  ( 0.000000000000000000, 0.000000000000000000, -1.000000000000000000 ) ) ;
#74 = SHAPE_DEFINITION_REPRESENTATION ( #220, #265 ) ;
#75 = PRESENTATION_LAYER_ASSIGNMENT (  '', '', ( #196 ) ) ;
#76 = EDGE_LOOP ( 'NONE', ( #306, #29 ) ) ;
#77 = AXIS2_PLACEMENT_3D ( 'NONE', #245, #79, #190 ) ;
#78 = DIRECTION ( 'NONE',  ( -0.000000000000000000, -1.000000000000000000, -0.000000000000000000 ) ) ;
#79 = DIRECTION ( 'NONE',  ( 0.000000000000000000, 0.000000000000000000, 1.000000000000000000 ) ) ;
#80 = FILL_AREA_STYLE_COLOUR ( '', #35 ) ;
#81 = DIRECTION ( 'NONE',  ( 0.000000000000000000, 0.000000000000000000, -1.000000000000000000 ) ) ;
#82 = ORIENTED_EDGE ( 'NONE', *, *, #107, .T. ) ;
#83 = COLOUR_RGB ( '',0.7921568627450980005, 0.8196078431372548767, 0.9333333333333333481 ) ;
#84 = DIRECTION ( 'NONE',  ( -4.898587196589413075E-17, 1.000000000000000000, -0.000000000000000000 ) ) ;
#85 = FACE_OUTER_BOUND ( 'NONE', #203, .T. ) ;
#86 = ORIENTED_EDGE ( 'NONE', *, *, #188, .T. ) ;
#87 = EDGE_LOOP ( 'NONE', ( #88, #58, #86, #246 ) ) ;
#88 = ORIENTED_EDGE ( 'NONE', *, *, #194, .F. ) ;
#89 = COLOUR_RGB ( '',1.000000000000000000, 0.000000000000000000, 0.000000000000000000 ) ;
#90 = CARTESIAN_POINT ( 'NONE',  ( 0.000000000000000000, 2.500000000000000000, 0.000000000000000000 ) ) ;
#91 = FACE_OUTER_BOUND ( 'NONE', #226, .T. ) ;
#92 = LENGTH_MEASURE_WITH_UNIT ( LENGTH_MEASURE( 0.02539999999999999897 ), #180 );
#93 = CARTESIAN_POINT ( 'NONE',  ( 0.2500000000000000555, 2.500000000000000000, 3.061616997868384251E-17 ) ) ;
#94 = AXIS2_PLACEMENT_3D ( 'NONE', #191, #167, #111 ) ;
#95 = SURFACE_STYLE_FILL_AREA ( #116 ) ;
#96 = DIRECTION ( 'NONE',  ( 0.000000000000000000, -1.000000000000000000, -0.000000000000000000 ) ) ;
#97 =( CONVERSION_BASED_UNIT ( 'INCH', #211 ) LENGTH_UNIT ( ) NAMED_UNIT ( #47 ) );
#98 =( NAMED_UNIT ( * ) PLANE_ANGLE_UNIT ( ) SI_UNIT ( $, .RADIAN. ) );
#99 = EDGE_CURVE ( 'NONE', #59, #168, #277, .T. ) ;
#100 = SURFACE_STYLE_USAGE ( .BOTH. , #254 ) ;
#101 = PRESENTATION_STYLE_ASSIGNMENT (( #9 ) ) ;
#102 = AXIS2_PLACEMENT_3D ( 'NONE', #11, #30, #163 ) ;
#103 =( CONVERSION_BASED_UNIT ( 'INCH', #52 ) LENGTH_UNIT ( ) NAMED_UNIT ( #69 ) );
#104 = ORIENTED_EDGE ( 'NONE', *, *, #6, .T. ) ;
#105 = FILL_AREA_STYLE ('',( #80 ) ) ;
#106 = UNCERTAINTY_MEASURE_WITH_UNIT (LENGTH_MEASURE( 1.000000000000000082E-05 ), #202, 'distance_accuracy_value', 'NONE');
#107 = EDGE_CURVE ( 'NONE', #233, #287, #60, .T. ) ;
#108 = DIRECTION ( 'NONE',  ( -0.000000000000000000, -1.000000000000000000, -0.000000000000000000 ) ) ;
#109 = EDGE_LOOP ( 'NONE', ( #82, #272, #199, #263 ) ) ;
#110 = UNCERTAINTY_MEASURE_WITH_UNIT (LENGTH_MEASURE( 1.000000000000000082E-05 ), #45, 'distance_accuracy_value', 'NONE');
#111 = DIRECTION ( 'NONE',  ( 0.000000000000000000, 0.000000000000000000, -1.000000000000000000 ) ) ;
#112 =( NAMED_UNIT ( * ) SI_UNIT ( $, .STERADIAN. ) SOLID_ANGLE_UNIT ( ) );
#113 = CIRCLE ( 'NONE', #200, 0.2500000000000000000 ) ;
#114 = FILL_AREA_STYLE_COLOUR ( '', #89 ) ;
#115 = DIRECTION ( 'NONE',  ( -4.898587196589413075E-17, 1.000000000000000000, -0.000000000000000000 ) ) ;
#116 = FILL_AREA_STYLE ('',( #114 ) ) ;
#117 =( LENGTH_UNIT ( ) NAMED_UNIT ( * ) SI_UNIT ( $, .METRE. ) );
#118 = SURFACE_STYLE_USAGE ( .BOTH. , #43 ) ;
#119 = ADVANCED_FACE ( 'NONE', ( #21 ), #5, .T. ) ;
#120 = SURFACE_STYLE_FILL_AREA ( #13 ) ;
#121 = CARTESIAN_POINT ( 'NONE',  ( 3.061616997868383018E-17, 0.000000000000000000, 0.2500000000000000000 ) ) ;
#122 = MECHANICAL_DESIGN_GEOMETRIC_PRESENTATION_REPRESENTATION (  '', ( #218 ), #132 ) ;
#123 = PLANE ( 'NONE',  #172 ) ;
#124 = ORIENTED_EDGE ( 'NONE', *, *, #99, .T. ) ;
#125 = PRODUCT_RELATED_PRODUCT_CATEGORY ( 'part', '', ( #2 ) ) ;
#126 = CARTESIAN_POINT ( 'NONE',  ( 0.000000000000000000, 2.500000000000000000, 0.000000000000000000 ) ) ;
#127 = PRESENTATION_LAYER_ASSIGNMENT (  '', '', ( #138 ) ) ;
#128 = PRESENTATION_STYLE_ASSIGNMENT (( #118 ) ) ;
#129 = VECTOR ( 'NONE', #78, 39.37007874015748143 ) ;
#130 = FILL_AREA_STYLE ('',( #26 ) ) ;
#131 = ADVANCED_FACE ( 'NONE', ( #91 ), #236, .T. ) ;
#132 =( GEOMETRIC_REPRESENTATION_CONTEXT ( 3 ) GLOBAL_UNCERTAINTY_ASSIGNED_CONTEXT ( ( #234 ) ) GLOBAL_UNIT_ASSIGNED_CONTEXT ( ( #186, #98, #189 ) ) REPRESENTATION_CONTEXT ( 'NONE', 'WORKASPACE' ) );
#133 = ORIENTED_EDGE ( 'NONE', *, *, #248, .F. ) ;
#134 = DIRECTION ( 'NONE',  ( -0.000000000000000000, -1.000000000000000000, -0.000000000000000000 ) ) ;
#135 = EDGE_CURVE ( 'NONE', #232, #168, #270, .T. ) ;
#136 = DIRECTION ( 'NONE',  ( -0.000000000000000000, -1.000000000000000000, -0.000000000000000000 ) ) ;
#137 =( NAMED_UNIT ( * ) SI_UNIT ( $, .STERADIAN. ) SOLID_ANGLE_UNIT ( ) );
#138 = STYLED_ITEM ( 'NONE', ( #28 ), #42 ) ;
#139 = PLANE ( 'NONE',  #207 ) ;
#140 = VERTEX_POINT ( 'NONE', #256 ) ;
#141 = CYLINDRICAL_SURFACE ( 'NONE', #224, 0.2500000000000000000 ) ;
#142 = DIRECTION ( 'NONE',  ( -4.898587196589413075E-17, 1.000000000000000000, -0.000000000000000000 ) ) ;
#143 = AXIS2_PLACEMENT_3D ( 'NONE', #32, #225, #19 ) ;
#144 = DIMENSIONAL_EXPONENTS ( 1.000000000000000000, 0.000000000000000000, 0.000000000000000000, 0.000000000000000000, 0.000000000000000000, 0.000000000000000000, 0.000000000000000000 ) ;
#145 = FACE_OUTER_BOUND ( 'NONE', #109, .T. ) ;
#146 = EDGE_CURVE ( 'NONE', #168, #59, #209, .T. ) ;
#147 = CIRCLE ( 'NONE', #244, 0.2500000000000000000 ) ;
#148 =( NAMED_UNIT ( * ) PLANE_ANGLE_UNIT ( ) SI_UNIT ( $, .RADIAN. ) );
#149 = AXIS2_PLACEMENT_3D ( 'NONE', #174, #169, #258 ) ;
#150 = DIRECTION ( 'NONE',  ( 0.000000000000000000, -0.000000000000000000, 1.000000000000000000 ) ) ;
#151 = AXIS2_PLACEMENT_3D ( 'NONE', #276, #217, #215 ) ;
#152 = MANIFOLD_SOLID_BREP ( 'Revolve - Tool Body (Straight Shanked)', #67 ) ;
#153 = MECHANICAL_DESIGN_GEOMETRIC_PRESENTATION_REPRESENTATION (  '', ( #219 ), #201 ) ;
#154 = CARTESIAN_POINT ( 'NONE',  ( 0.000000000000000000, 0.000000000000000000, 0.000000000000000000 ) ) ;
#155 = DIRECTION ( 'NONE',  ( -1.000000000000000000, 0.000000000000000000, 0.000000000000000000 ) ) ;
#156 = CARTESIAN_POINT ( 'NONE',  ( 0.000000000000000000, 0.000000000000000000, 0.000000000000000000 ) ) ;
#157 = DIMENSIONAL_EXPONENTS ( 1.000000000000000000, 0.000000000000000000, 0.000000000000000000, 0.000000000000000000, 0.000000000000000000, 0.000000000000000000, 0.000000000000000000 ) ;
#158 = ORIENTED_EDGE ( 'NONE', *, *, #135, .T. ) ;
#159 = SURFACE_STYLE_USAGE ( .BOTH. , #237 ) ;
#160 = AXIS2_PLACEMENT_3D ( 'NONE', #90, #181, #150 ) ;
#161 =( GEOMETRIC_REPRESENTATION_CONTEXT ( 3 ) GLOBAL_UNCERTAINTY_ASSIGNED_CONTEXT ( ( #176 ) ) GLOBAL_UNIT_ASSIGNED_CONTEXT ( ( #103, #16, #252 ) ) REPRESENTATION_CONTEXT ( 'NONE', 'WORKASPACE' ) );
#162 = DIMENSIONAL_EXPONENTS ( 1.000000000000000000, 0.000000000000000000, 0.000000000000000000, 0.000000000000000000, 0.000000000000000000, 0.000000000000000000, 0.000000000000000000 ) ;
#163 = DIRECTION ( 'NONE',  ( 0.000000000000000000, 0.000000000000000000, -1.000000000000000000 ) ) ;
#164 = LENGTH_MEASURE_WITH_UNIT ( LENGTH_MEASURE( 0.02539999999999999897 ), #230 );
#165 = SURFACE_STYLE_USAGE ( .BOTH. , #241 ) ;
#166 =( NAMED_UNIT ( * ) SI_UNIT ( $, .STERADIAN. ) SOLID_ANGLE_UNIT ( ) );
#167 = DIRECTION ( 'NONE',  ( -0.000000000000000000, -1.000000000000000000, -0.000000000000000000 ) ) ;
#168 = VERTEX_POINT ( 'NONE', #171 ) ;
#169 = DIRECTION ( 'NONE',  ( -4.898587196589413075E-17, 1.000000000000000000, -0.000000000000000000 ) ) ;
#170 = UNCERTAINTY_MEASURE_WITH_UNIT (LENGTH_MEASURE( 1.000000000000000082E-05 ), #295, 'distance_accuracy_value', 'NONE');
#171 = CARTESIAN_POINT ( 'NONE',  ( 0.2500000000000000555, 5.000000000000000000, 3.061616997868384251E-17 ) ) ;
#172 = AXIS2_PLACEMENT_3D ( 'NONE', #31, #70, #54 ) ;
#173 = ORIENTED_EDGE ( 'NONE', *, *, #146, .F. ) ;
#174 = CARTESIAN_POINT ( 'NONE',  ( -1.224646799147353207E-16, 5.000000000000000000, 0.000000000000000000 ) ) ;
#175 = LINE ( 'NONE', #48, #129 ) ;
#176 = UNCERTAINTY_MEASURE_WITH_UNIT (LENGTH_MEASURE( 1.000000000000000082E-05 ), #103, 'distance_accuracy_value', 'NONE');
#177 = STYLED_ITEM ( 'NONE', ( #128 ), #275 ) ;
#178 = EDGE_CURVE ( 'NONE', #197, #232, #302, .T. ) ;
#179 = DIRECTION ( 'NONE',  ( -1.000000000000000000, 0.000000000000000000, 0.000000000000000000 ) ) ;
#180 =( LENGTH_UNIT ( ) NAMED_UNIT ( * ) SI_UNIT ( $, .METRE. ) );
#181 = DIRECTION ( 'NONE',  ( 0.000000000000000000, 1.000000000000000000, 0.000000000000000000 ) ) ;
#182 = SURFACE_STYLE_FILL_AREA ( #130 ) ;
#183 = FACE_OUTER_BOUND ( 'NONE', #294, .T. ) ;
#184 = COLOUR_RGB ( '',1.000000000000000000, 0.000000000000000000, 0.000000000000000000 ) ;
#185 =( GEOMETRIC_REPRESENTATION_CONTEXT ( 3 ) GLOBAL_UNCERTAINTY_ASSIGNED_CONTEXT ( ( #170 ) ) GLOBAL_UNIT_ASSIGNED_CONTEXT ( ( #295, #266, #268 ) ) REPRESENTATION_CONTEXT ( 'NONE', 'WORKASPACE' ) );
#186 =( CONVERSION_BASED_UNIT ( 'INCH', #250 ) LENGTH_UNIT ( ) NAMED_UNIT ( #157 ) );
#187 = CYLINDRICAL_SURFACE ( 'NONE', #94, 0.2500000000000000000 ) ;
#188 = EDGE_CURVE ( 'NONE', #233, #140, #175, .T. ) ;
#189 =( NAMED_UNIT ( * ) SI_UNIT ( $, .STERADIAN. ) SOLID_ANGLE_UNIT ( ) );
#190 = DIRECTION ( 'NONE',  ( 1.000000000000000000, 0.000000000000000000, 0.000000000000000000 ) ) ;
#191 = CARTESIAN_POINT ( 'NONE',  ( 0.000000000000000000, 0.000000000000000000, 0.000000000000000000 ) ) ;
#192 = FILL_AREA_STYLE_COLOUR ( '', #83 ) ;
#193 = DIMENSIONAL_EXPONENTS ( 1.000000000000000000, 0.000000000000000000, 0.000000000000000000, 0.000000000000000000, 0.000000000000000000, 0.000000000000000000, 0.000000000000000000 ) ;
#194 = EDGE_CURVE ( 'NONE', #287, #289, #291, .T. ) ;
#195 = ADVANCED_FACE ( 'NONE', ( #214 ), #123, .F. ) ;
#196 = STYLED_ITEM ( 'NONE', ( #303 ), #152 ) ;
#197 = VERTEX_POINT ( 'NONE', #24 ) ;
#198 = PRESENTATION_STYLE_ASSIGNMENT (( #165 ) ) ;
#199 = ORIENTED_EDGE ( 'NONE', *, *, #6, .F. ) ;
#200 = AXIS2_PLACEMENT_3D ( 'NONE', #156, #134, #73 ) ;
#201 =( GEOMETRIC_REPRESENTATION_CONTEXT ( 3 ) GLOBAL_UNCERTAINTY_ASSIGNED_CONTEXT ( ( #106 ) ) GLOBAL_UNIT_ASSIGNED_CONTEXT ( ( #202, #1, #3 ) ) REPRESENTATION_CONTEXT ( 'NONE', 'WORKASPACE' ) );
#202 =( CONVERSION_BASED_UNIT ( 'INCH', #164 ) LENGTH_UNIT ( ) NAMED_UNIT ( #144 ) );
#203 = EDGE_LOOP ( 'NONE', ( #278, #301, #64, #173 ) ) ;
#204 = ADVANCED_FACE ( 'NONE', ( #183 ), #273, .F. ) ;
#205 = DIRECTION ( 'NONE',  ( 0.000000000000000000, 0.000000000000000000, -1.000000000000000000 ) ) ;
#206 = MECHANICAL_DESIGN_GEOMETRIC_PRESENTATION_REPRESENTATION (  '', ( #40 ), #235 ) ;
#207 = AXIS2_PLACEMENT_3D ( 'NONE', #154, #96, #81 ) ;
#208 = EDGE_LOOP ( 'NONE', ( #104, #221 ) ) ;
#209 = CIRCLE ( 'NONE', #143, 0.2500000000000001110 ) ;
#210 = CARTESIAN_POINT ( 'NONE',  ( 0.000000000000000000, 0.000000000000000000, 0.000000000000000000 ) ) ;
#211 = LENGTH_MEASURE_WITH_UNIT ( LENGTH_MEASURE( 0.02539999999999999897 ), #117 );
#212 = LENGTH_MEASURE_WITH_UNIT ( LENGTH_MEASURE( 0.02539999999999999897 ), #66 );
#213 = PRESENTATION_STYLE_ASSIGNMENT (( #100 ) ) ;
#214 = FACE_OUTER_BOUND ( 'NONE', #76, .T. ) ;
#215 = DIRECTION ( 'NONE',  ( 1.000000000000000000, 4.898587196589412459E-17, 0.000000000000000000 ) ) ;
#216 = ADVANCED_FACE ( 'NONE', ( #242 ), #139, .T. ) ;
#217 = DIRECTION ( 'NONE',  ( 4.898587196589412459E-17, -1.000000000000000000, 0.000000000000000000 ) ) ;
#218 = STYLED_ITEM ( 'NONE', ( #101 ), #216 ) ;
#219 = STYLED_ITEM ( 'NONE', ( #198 ), #271 ) ;
#220 = PRODUCT_DEFINITION_SHAPE ( 'NONE', 'NONE',  #41 ) ;
#221 = ORIENTED_EDGE ( 'NONE', *, *, #53, .T. ) ;
#222 = DIRECTION ( 'NONE',  ( -4.898587196589412459E-17, 1.000000000000000000, -0.000000000000000000 ) ) ;
#223 = AXIS2_PLACEMENT_3D ( 'NONE', #238, #115, #179 ) ;
#224 = AXIS2_PLACEMENT_3D ( 'NONE', #56, #253, #205 ) ;
#225 = DIRECTION ( 'NONE',  ( -4.898587196589413075E-17, 1.000000000000000000, -0.000000000000000000 ) ) ;
#226 = EDGE_LOOP ( 'NONE', ( #285, #133 ) ) ;
#227 =( LENGTH_UNIT ( ) NAMED_UNIT ( * ) SI_UNIT ( $, .METRE. ) );
#228 = ORIENTED_EDGE ( 'NONE', *, *, #146, .T. ) ;
#229 =( CONVERSION_BASED_UNIT ( 'INCH', #260 ) LENGTH_UNIT ( ) NAMED_UNIT ( #36 ) );
#230 =( LENGTH_UNIT ( ) NAMED_UNIT ( * ) SI_UNIT ( $, .METRE. ) );
#231 = CYLINDRICAL_SURFACE ( 'NONE', #27, 0.2500000000000000555 ) ;
#232 = VERTEX_POINT ( 'NONE', #93 ) ;
#233 = VERTEX_POINT ( 'NONE', #247 ) ;
#234 = UNCERTAINTY_MEASURE_WITH_UNIT (LENGTH_MEASURE( 1.000000000000000082E-05 ), #186, 'distance_accuracy_value', 'NONE');
#235 =( GEOMETRIC_REPRESENTATION_CONTEXT ( 3 ) GLOBAL_UNCERTAINTY_ASSIGNED_CONTEXT ( ( #110 ) ) GLOBAL_UNIT_ASSIGNED_CONTEXT ( ( #45, #71, #166 ) ) REPRESENTATION_CONTEXT ( 'NONE', 'WORKASPACE' ) );
#236 = PLANE ( 'NONE',  #160 ) ;
#237 = SURFACE_SIDE_STYLE ('',( #182 ) ) ;
#238 = CARTESIAN_POINT ( 'NONE',  ( -1.224646799147353207E-16, 5.000000000000000000, 0.000000000000000000 ) ) ;
#239 = APPLICATION_PROTOCOL_DEFINITION ( 'draft international standard', 'automotive_design', 1998, #286 ) ;
#240 = LINE ( 'NONE', #297, #61 ) ;
#241 = SURFACE_SIDE_STYLE ('',( #282 ) ) ;
#242 = FACE_OUTER_BOUND ( 'NONE', #208, .T. ) ;
#243 = CLOSED_SHELL ( 'NONE', ( #271, #131, #42, #216 ) ) ;
#244 = AXIS2_PLACEMENT_3D ( 'NONE', #72, #142, #155 ) ;
#245 = CARTESIAN_POINT ( 'NONE',  ( 0.000000000000000000, 0.000000000000000000, 0.000000000000000000 ) ) ;
#246 = ORIENTED_EDGE ( 'NONE', *, *, #53, .F. ) ;
#247 = CARTESIAN_POINT ( 'NONE',  ( 0.000000000000000000, 2.500000000000000000, -0.2500000000000000000 ) ) ;
#248 = EDGE_CURVE ( 'NONE', #287, #233, #38, .T. ) ;
#249 = SURFACE_STYLE_FILL_AREA ( #279 ) ;
#250 = LENGTH_MEASURE_WITH_UNIT ( LENGTH_MEASURE( 0.02539999999999999897 ), #296 );
#251 = MECHANICAL_DESIGN_GEOMETRIC_PRESENTATION_REPRESENTATION (  '', ( #138 ), #57 ) ;
#252 =( NAMED_UNIT ( * ) SI_UNIT ( $, .STERADIAN. ) SOLID_ANGLE_UNIT ( ) );
#253 = DIRECTION ( 'NONE',  ( -0.000000000000000000, -1.000000000000000000, -0.000000000000000000 ) ) ;
#254 = SURFACE_SIDE_STYLE ('',( #95 ) ) ;
#255 = SURFACE_SIDE_STYLE ('',( #249 ) ) ;
#256 = CARTESIAN_POINT ( 'NONE',  ( 0.000000000000000000, 0.000000000000000000, -0.2500000000000000000 ) ) ;
#257 = PRODUCT_DEFINITION_FORMATION_WITH_SPECIFIED_SOURCE ( 'ANY', '', #2, .NOT_KNOWN. ) ;
#258 = DIRECTION ( 'NONE',  ( -1.000000000000000000, 0.000000000000000000, 0.000000000000000000 ) ) ;
#259 = EDGE_CURVE ( 'NONE', #232, #197, #147, .T. ) ;
#260 = LENGTH_MEASURE_WITH_UNIT ( LENGTH_MEASURE( 0.02539999999999999897 ), #227 );
#261 = CARTESIAN_POINT ( 'NONE',  ( -1.224646799147353207E-16, 5.000000000000000000, 0.000000000000000000 ) ) ;
#262 = MECHANICAL_DESIGN_GEOMETRIC_PRESENTATION_REPRESENTATION (  '', ( #196 ), #298 ) ;
#263 = ORIENTED_EDGE ( 'NONE', *, *, #188, .F. ) ;
#264 = FILL_AREA_STYLE_COLOUR ( '', #299 ) ;
#265 = ADVANCED_BREP_SHAPE_REPRESENTATION ( '81646', ( #275, #152, #77 ), #161 ) ;
#266 =( NAMED_UNIT ( * ) PLANE_ANGLE_UNIT ( ) SI_UNIT ( $, .RADIAN. ) );
#267 = DIRECTION ( 'NONE',  ( -4.898587196589413075E-17, 1.000000000000000000, -0.000000000000000000 ) ) ;
#268 =( NAMED_UNIT ( * ) SI_UNIT ( $, .STERADIAN. ) SOLID_ANGLE_UNIT ( ) );
#269 = PRESENTATION_LAYER_ASSIGNMENT (  '', '', ( #218 ) ) ;
#270 = LINE ( 'NONE', #23, #34 ) ;
#271 = ADVANCED_FACE ( 'NONE', ( #145 ), #141, .T. ) ;
#272 = ORIENTED_EDGE ( 'NONE', *, *, #194, .T. ) ;
#273 = PLANE ( 'NONE',  #151 ) ;
#274 = PRESENTATION_LAYER_ASSIGNMENT (  '', '', ( #40 ) ) ;
#275 = MANIFOLD_SOLID_BREP ( 'Revolve - Cutting Edge', #243 ) ;
#276 = CARTESIAN_POINT ( 'NONE',  ( 0.2500000000000000000, 5.000000000000000000, 0.000000000000000000 ) ) ;
#277 = CIRCLE ( 'NONE', #149, 0.2500000000000001110 ) ;
#278 = ORIENTED_EDGE ( 'NONE', *, *, #135, .F. ) ;
#279 = FILL_AREA_STYLE ('',( #192 ) ) ;
#280 = ORIENTED_EDGE ( 'NONE', *, *, #178, .T. ) ;
#281 = CARTESIAN_POINT ( 'NONE',  ( 1.516480271171051896E-32, 2.500000000000000000, 0.000000000000000000 ) ) ;
#282 = SURFACE_STYLE_FILL_AREA ( #33 ) ;
#283 = AXIS2_PLACEMENT_3D ( 'NONE', #281, #267, #46 ) ;
#284 = UNCERTAINTY_MEASURE_WITH_UNIT (LENGTH_MEASURE( 1.000000000000000082E-05 ), #229, 'distance_accuracy_value', 'NONE');
#285 = ORIENTED_EDGE ( 'NONE', *, *, #107, .F. ) ;
#286 = APPLICATION_CONTEXT ( 'automotive_design' ) ;
#287 = VERTEX_POINT ( 'NONE', #288 ) ;
#288 = CARTESIAN_POINT ( 'NONE',  ( 3.061616997868383018E-17, 2.500000000000000000, 0.2500000000000000000 ) ) ;
#289 = VERTEX_POINT ( 'NONE', #7 ) ;
#290 = PRODUCT_DEFINITION_CONTEXT ( 'detailed design', #55, 'design' ) ;
#291 = LINE ( 'NONE', #121, #14 ) ;
#292 = SURFACE_STYLE_FILL_AREA ( #105 ) ;
#293 = SURFACE_SIDE_STYLE ('',( #120 ) ) ;
#294 = EDGE_LOOP ( 'NONE', ( #124, #228 ) ) ;
#295 =( CONVERSION_BASED_UNIT ( 'INCH', #92 ) LENGTH_UNIT ( ) NAMED_UNIT ( #193 ) );
#296 =( LENGTH_UNIT ( ) NAMED_UNIT ( * ) SI_UNIT ( $, .METRE. ) );
#297 = CARTESIAN_POINT ( 'NONE',  ( -0.2500000000000002220, 5.000000000000000000, 0.000000000000000000 ) ) ;
#298 =( GEOMETRIC_REPRESENTATION_CONTEXT ( 3 ) GLOBAL_UNCERTAINTY_ASSIGNED_CONTEXT ( ( #284 ) ) GLOBAL_UNIT_ASSIGNED_CONTEXT ( ( #229, #148, #112 ) ) REPRESENTATION_CONTEXT ( 'NONE', 'WORKASPACE' ) );
#299 = COLOUR_RGB ( '',1.000000000000000000, 0.000000000000000000, 0.000000000000000000 ) ;
#300 = DIRECTION ( 'NONE',  ( -0.000000000000000000, -1.000000000000000000, -0.000000000000000000 ) ) ;
#301 = ORIENTED_EDGE ( 'NONE', *, *, #259, .T. ) ;
#302 = CIRCLE ( 'NONE', #283, 0.2500000000000000000 ) ;
#303 = PRESENTATION_STYLE_ASSIGNMENT (( #37 ) ) ;
#304 = EDGE_LOOP ( 'NONE', ( #280, #158, #20, #15 ) ) ;
#305 = DIRECTION ( 'NONE',  ( 0.000000000000000000, 0.000000000000000000, -1.000000000000000000 ) ) ;
#306 = ORIENTED_EDGE ( 'NONE', *, *, #178, .F. ) ;
#307 = PRESENTATION_LAYER_ASSIGNMENT (  '', '', ( #219 ) ) ;
#308 = UNCERTAINTY_MEASURE_WITH_UNIT (LENGTH_MEASURE( 1.000000000000000082E-05 ), #97, 'distance_accuracy_value', 'NONE');
#309 = CARTESIAN_POINT ( 'NONE',  ( -0.2500000000000002776, 5.000000000000000000, 0.000000000000000000 ) ) ;
ENDSEC;
END-ISO-10303-21;
