ISO-10303-21;
HEADER;
FILE_DESCRIPTION (( 'STEP AP214' ),
    '1' );
FILE_NAME ('Micro_CREM-060-100X.STEP',
    '2021-09-02T15:20:14',
    ( '' ),
    ( '' ),
    'SwSTEP 2.0',
    'SolidWorks 2020',
    '' );
FILE_SCHEMA (( 'AUTOMOTIVE_DESIGN' ));
ENDSEC;

DATA;
#1 = DIRECTION ( 'NONE',  ( -1.250499981774462892E-16, -0.0000000000000000000, -1.000000000000000000 ) ) ;
#2 = EDGE_CURVE ( 'NONE', #135, #113, #195, .T. ) ;
#3 = FACE_BOUND ( 'NONE', #46, .T. ) ;
#4 = PRESENTATION_LAYER_ASSIGNMENT (  '', '', ( #204 ) ) ;
#5 =( CONVERSION_BASED_UNIT ( 'INCH', #233 ) LENGTH_UNIT ( ) NAMED_UNIT ( #272 ) );
#6 = EDGE_CURVE ( 'NONE', #324, #316, #281, .T. ) ;
#7 = CARTESIAN_POINT ( 'NONE',  ( 0.0000000000000000000, 0.0000000000000000000, 2.244094000000000033 ) ) ;
#8 = CARTESIAN_POINT ( 'NONE',  ( -0.1181100000000000344, 0.0000000000000000000, 0.04448799879175271976 ) ) ;
#9 = CIRCLE ( 'NONE', #196, 0.1031100000000002709 ) ;
#10 = CARTESIAN_POINT ( 'NONE',  ( 0.0000000000000000000, 0.0000000000000000000, 2.229093999999999465 ) ) ;
#11 = EDGE_CURVE ( 'NONE', #323, #212, #259, .T. ) ;
#12 = CARTESIAN_POINT ( 'NONE',  ( 0.1031100000000002709, 1.354581824536889030E-17, 2.244094000000000033 ) ) ;
#13 = FACE_OUTER_BOUND ( 'NONE', #43, .T. ) ;
#14 =( CONVERSION_BASED_UNIT ( 'INCH', #171 ) LENGTH_UNIT ( ) NAMED_UNIT ( #62 ) );
#15 = ORIENTED_EDGE ( 'NONE', *, *, #294, .T. ) ;
#16 = COLOUR_RGB ( '',0.7921568627450980005, 0.8196078431372548767, 0.9333333333333333481 ) ;
#17 = EDGE_CURVE ( 'NONE', #192, #324, #9, .T. ) ;
#18 = ORIENTED_EDGE ( 'NONE', *, *, #214, .F. ) ;
#19 = ORIENTED_EDGE ( 'NONE', *, *, #32, .F. ) ;
#20 = DIRECTION ( 'NONE',  ( 0.0000000000000000000, 0.0000000000000000000, 1.000000000000000000 ) ) ;
#21 = DIRECTION ( 'NONE',  ( 0.0000000000000000000, 0.0000000000000000000, 1.000000000000000000 ) ) ;
#22 = ORIENTED_EDGE ( 'NONE', *, *, #148, .F. ) ;
#23 = DIRECTION ( 'NONE',  ( -1.000000000000000000, 0.0000000000000000000, 1.250499981774462892E-16 ) ) ;
#24 = FACE_OUTER_BOUND ( 'NONE', #306, .T. ) ;
#25 = CIRCLE ( 'NONE', #331, 0.06889398323758126608 ) ;
#26 = DIRECTION ( 'NONE',  ( 0.0000000000000000000, 0.0000000000000000000, -1.000000000000000000 ) ) ;
#27 = DIRECTION ( 'NONE',  ( -1.250499981774462892E-16, -0.0000000000000000000, -1.000000000000000000 ) ) ;
#28 = AXIS2_PLACEMENT_3D ( 'NONE', #159, #99, #315 ) ;
#29 = DIRECTION ( 'NONE',  ( -1.000000000000000000, 0.0000000000000000000, 1.250499981774462892E-16 ) ) ;
#30 = LINE ( 'NONE', #160, #322 ) ;
#31 = CARTESIAN_POINT ( 'NONE',  ( 8.537024980200822558E-18, 0.0000000000000000000, 0.005117998791752702802 ) ) ;
#32 = EDGE_CURVE ( 'NONE', #135, #328, #47, .T. ) ;
#33 = PRESENTATION_LAYER_ASSIGNMENT (  '', '', ( #88 ) ) ;
#34 = FACE_OUTER_BOUND ( 'NONE', #256, .T. ) ;
#35 = DIRECTION ( 'NONE',  ( 0.0000000000000000000, 0.0000000000000000000, -1.000000000000000000 ) ) ;
#36 = VERTEX_POINT ( 'NONE', #172 ) ;
#37 =( NAMED_UNIT ( * ) SI_UNIT ( $, .STERADIAN. ) SOLID_ANGLE_UNIT ( ) );
#38 = ORIENTED_EDGE ( 'NONE', *, *, #129, .F. ) ;
#39 = AXIS2_PLACEMENT_3D ( 'NONE', #187, #58, #240 ) ;
#40 = PRODUCT_CONTEXT ( 'NONE', #291, 'mechanical' ) ;
#41 = ORIENTED_EDGE ( 'NONE', *, *, #17, .F. ) ;
#42 =( CONVERSION_BASED_UNIT ( 'INCH', #68 ) LENGTH_UNIT ( ) NAMED_UNIT ( #89 ) );
#43 = EDGE_LOOP ( 'NONE', ( #174, #305 ) ) ;
#44 = ORIENTED_EDGE ( 'NONE', *, *, #188, .T. ) ;
#45 = CARTESIAN_POINT ( 'NONE',  ( 0.0000000000000000000, 0.0000000000000000000, 0.0000000000000000000 ) ) ;
#46 = EDGE_LOOP ( 'NONE', ( #18, #275 ) ) ;
#47 = CIRCLE ( 'NONE', #105, 0.02952398323758125345 ) ;
#48 = CARTESIAN_POINT ( 'NONE',  ( 0.02952398323758127080, 3.615645156998400008E-18, 0.0000000000000000000 ) ) ;
#49 = UNCERTAINTY_MEASURE_WITH_UNIT (LENGTH_MEASURE( 1.000000000000000082E-05 ), #5, 'distance_accuracy_value', 'NONE');
#50 = CARTESIAN_POINT ( 'NONE',  ( -0.02952398323758125345, 0.0000000000000000000, 0.0000000000000000000 ) ) ;
#51 = DIRECTION ( 'NONE',  ( -1.000000000000000000, 0.0000000000000000000, 0.0000000000000000000 ) ) ;
#52 =( GEOMETRIC_REPRESENTATION_CONTEXT ( 3 ) GLOBAL_UNCERTAINTY_ASSIGNED_CONTEXT ( ( #49 ) ) GLOBAL_UNIT_ASSIGNED_CONTEXT ( ( #5, #77, #157 ) ) REPRESENTATION_CONTEXT ( 'NONE', 'WORKASPACE' ) );
#53 = MECHANICAL_DESIGN_GEOMETRIC_PRESENTATION_REPRESENTATION (  '', ( #204 ), #327 ) ;
#54 = DIRECTION ( 'NONE',  ( -1.000000000000000000, 0.0000000000000000000, 1.250499981774462892E-16 ) ) ;
#55 = EDGE_CURVE ( 'NONE', #113, #112, #326, .T. ) ;
#56 = DIRECTION ( 'NONE',  ( 1.000000000000000000, 0.0000000000000000000, 0.0000000000000000000 ) ) ;
#57 = AXIS2_PLACEMENT_3D ( 'NONE', #242, #102, #317 ) ;
#58 = DIRECTION ( 'NONE',  ( -0.0000000000000000000, -0.0000000000000000000, -1.000000000000000000 ) ) ;
#59 = EDGE_CURVE ( 'NONE', #328, #112, #234, .T. ) ;
#60 = CIRCLE ( 'NONE', #231, 0.02952398323758125345 ) ;
#61 = DIRECTION ( 'NONE',  ( -1.000000000000000000, 0.0000000000000000000, 1.250499981774462892E-16 ) ) ;
#62 = DIMENSIONAL_EXPONENTS ( 1.000000000000000000, 0.0000000000000000000, 0.0000000000000000000, 0.0000000000000000000, 0.0000000000000000000, 0.0000000000000000000, 0.0000000000000000000 ) ;
#63 = ORIENTED_EDGE ( 'NONE', *, *, #214, .T. ) ;
#64 = AXIS2_PLACEMENT_3D ( 'NONE', #203, #72, #274 ) ;
#65 = VECTOR ( 'NONE', #277, 39.37007874015748854 ) ;
#66 = ORIENTED_EDGE ( 'NONE', *, *, #148, .T. ) ;
#67 = AXIS2_PLACEMENT_3D ( 'NONE', #108, #87, #163 ) ;
#68 = LENGTH_MEASURE_WITH_UNIT ( LENGTH_MEASURE( 0.02539999999999999897 ), #299 );
#69 = DIRECTION ( 'NONE',  ( -1.000000000000000000, 0.0000000000000000000, 1.084333486377355478E-16 ) ) ;
#70 = ADVANCED_FACE ( 'NONE', ( #3, #205 ), #76, .T. ) ;
#71 = ORIENTED_EDGE ( 'NONE', *, *, #115, .F. ) ;
#72 = DIRECTION ( 'NONE',  ( -1.250499981774462892E-16, -0.0000000000000000000, -1.000000000000000000 ) ) ;
#73 = VERTEX_POINT ( 'NONE', #207 ) ;
#74 = CONICAL_SURFACE ( 'NONE', #314, 0.1031100000000002709, 0.7853981633974318477 ) ;
#75 = SURFACE_SIDE_STYLE ('',( #261 ) ) ;
#76 = PLANE ( 'NONE',  #149 ) ;
#77 =( NAMED_UNIT ( * ) PLANE_ANGLE_UNIT ( ) SI_UNIT ( $, .RADIAN. ) );
#78 = CLOSED_SHELL ( 'NONE', ( #210, #82, #162, #227, #143, #264, #310, #70, #283, #252, #218 ) ) ;
#79 = TOROIDAL_SURFACE ( 'NONE', #319, 0.06889398323758126608, 0.03937000000000000915 ) ;
#80 = APPLICATION_CONTEXT ( 'automotive_design' ) ;
#81 = DIRECTION ( 'NONE',  ( -1.000000000000000000, 0.0000000000000000000, 1.084333486377355478E-16 ) ) ;
#82 = ADVANCED_FACE ( 'NONE', ( #179 ), #206, .T. ) ;
#83 = CARTESIAN_POINT ( 'NONE',  ( 8.537024980200822558E-18, 0.0000000000000000000, 0.005117998791752702802 ) ) ;
#84 = DIRECTION ( 'NONE',  ( 0.0000000000000000000, 0.0000000000000000000, -1.000000000000000000 ) ) ;
#85 = PLANE ( 'NONE',  #276 ) ;
#86 = DIRECTION ( 'NONE',  ( 1.000000000000000000, 0.0000000000000000000, 0.0000000000000000000 ) ) ;
#87 = DIRECTION ( 'NONE',  ( -1.250499981774462892E-16, -0.0000000000000000000, -1.000000000000000000 ) ) ;
#88 = STYLED_ITEM ( 'NONE', ( #313 ), #158 ) ;
#89 = DIMENSIONAL_EXPONENTS ( 1.000000000000000000, 0.0000000000000000000, 0.0000000000000000000, 0.0000000000000000000, 0.0000000000000000000, 0.0000000000000000000, 0.0000000000000000000 ) ;
#90 =( LENGTH_UNIT ( ) NAMED_UNIT ( * ) SI_UNIT ( $, .METRE. ) );
#91 = ORIENTED_EDGE ( 'NONE', *, *, #269, .F. ) ;
#92 = ORIENTED_EDGE ( 'NONE', *, *, #2, .F. ) ;
#93 = FILL_AREA_STYLE ('',( #198 ) ) ;
#94 = TOROIDAL_SURFACE ( 'NONE', #236, 0.06889398323758126608, 0.03937000000000000915 ) ;
#95 = EDGE_LOOP ( 'NONE', ( #220, #38 ) ) ;
#96 = ORIENTED_EDGE ( 'NONE', *, *, #177, .T. ) ;
#97 = EDGE_LOOP ( 'NONE', ( #246, #66, #209, #308 ) ) ;
#98 = CARTESIAN_POINT ( 'NONE',  ( 1.410024914802773420E-17, 0.0000000000000000000, 0.04448799879175271282 ) ) ;
#99 = DIRECTION ( 'NONE',  ( -0.0000000000000000000, -0.0000000000000000000, -1.000000000000000000 ) ) ;
#100 = CARTESIAN_POINT ( 'NONE',  ( 0.0000000000000000000, 0.0000000000000000000, 0.04448799879175270588 ) ) ;
#101 = DIRECTION ( 'NONE',  ( -1.250499981774462892E-16, -0.0000000000000000000, -1.000000000000000000 ) ) ;
#102 = DIRECTION ( 'NONE',  ( -1.224646799147353207E-16, 1.000000000000000000, 1.531420800013919374E-32 ) ) ;
#103 = CARTESIAN_POINT ( 'NONE',  ( -0.1031100000000002709, 0.0000000000000000000, 2.244094000000000033 ) ) ;
#104 = AXIS2_PLACEMENT_3D ( 'NONE', #10, #273, #86 ) ;
#105 = AXIS2_PLACEMENT_3D ( 'NONE', #145, #199, #69 ) ;
#106 = CARTESIAN_POINT ( 'NONE',  ( 0.1181100000000000344, 1.446430334472939084E-17, 2.244094000000000033 ) ) ;
#107 = FACE_OUTER_BOUND ( 'NONE', #97, .T. ) ;
#108 = CARTESIAN_POINT ( 'NONE',  ( 8.537024980200822558E-18, 0.0000000000000000000, -5.510910596163092637E-18 ) ) ;
#109 = ORIENTED_EDGE ( 'NONE', *, *, #59, .T. ) ;
#110 =( GEOMETRIC_REPRESENTATION_CONTEXT ( 3 ) GLOBAL_UNCERTAINTY_ASSIGNED_CONTEXT ( ( #151 ) ) GLOBAL_UNIT_ASSIGNED_CONTEXT ( ( #14, #279, #117 ) ) REPRESENTATION_CONTEXT ( 'NONE', 'WORKASPACE' ) );
#111 = CARTESIAN_POINT ( 'NONE',  ( 0.02952398323758126386, 3.615645156998400008E-18, 0.005117998791752707138 ) ) ;
#112 = VERTEX_POINT ( 'NONE', #48 ) ;
#113 = VERTEX_POINT ( 'NONE', #50 ) ;
#114 = ORIENTED_EDGE ( 'NONE', *, *, #188, .F. ) ;
#115 = EDGE_CURVE ( 'NONE', #212, #323, #180, .T. ) ;
#116 = ORIENTED_EDGE ( 'NONE', *, *, #193, .F. ) ;
#117 =( NAMED_UNIT ( * ) SI_UNIT ( $, .STERADIAN. ) SOLID_ANGLE_UNIT ( ) );
#118 = DIRECTION ( 'NONE',  ( 1.000000000000000000, 0.0000000000000000000, 0.0000000000000000000 ) ) ;
#119 = EDGE_LOOP ( 'NONE', ( #168, #109, #142, #92 ) ) ;
#120 = DIRECTION ( 'NONE',  ( -0.0000000000000000000, -0.0000000000000000000, -1.000000000000000000 ) ) ;
#121 = CARTESIAN_POINT ( 'NONE',  ( 9.177030719781672087E-18, 0.0000000000000000000, 0.005117998791752709740 ) ) ;
#122 = VECTOR ( 'NONE', #120, 39.37007874015748143 ) ;
#123 = DIRECTION ( 'NONE',  ( -1.250499981774462892E-16, -0.0000000000000000000, -1.000000000000000000 ) ) ;
#124 = SURFACE_STYLE_USAGE ( .BOTH. , #75 ) ;
#125 = AXIS2_PLACEMENT_3D ( 'NONE', #253, #21, #118 ) ;
#126 = DIRECTION ( 'NONE',  ( 0.0000000000000000000, 0.0000000000000000000, -1.000000000000000000 ) ) ;
#127 = EDGE_CURVE ( 'NONE', #316, #323, #182, .T. ) ;
#128 = DIRECTION ( 'NONE',  ( -1.000000000000000000, 0.0000000000000000000, 0.0000000000000000000 ) ) ;
#129 = EDGE_CURVE ( 'NONE', #112, #113, #197, .T. ) ;
#130 = VERTEX_POINT ( 'NONE', #155 ) ;
#131 = DIRECTION ( 'NONE',  ( 0.0000000000000000000, 0.0000000000000000000, 1.000000000000000000 ) ) ;
#132 = CIRCLE ( 'NONE', #104, 0.1181100000000000344 ) ;
#133 = AXIS2_PLACEMENT_3D ( 'NONE', #45, #20, #194 ) ;
#134 = DIRECTION ( 'NONE',  ( 1.000000000000000000, 0.0000000000000000000, -0.0000000000000000000 ) ) ;
#135 = VERTEX_POINT ( 'NONE', #178 ) ;
#136 = PRODUCT_RELATED_PRODUCT_CATEGORY ( 'part', '', ( #301 ) ) ;
#137 = FACE_OUTER_BOUND ( 'NONE', #244, .T. ) ;
#138 = DIRECTION ( 'NONE',  ( 0.0000000000000000000, 0.0000000000000000000, 1.000000000000000000 ) ) ;
#139 = VECTOR ( 'NONE', #27, 39.37007874015748143 ) ;
#140 = APPLICATION_PROTOCOL_DEFINITION ( 'draft international standard', 'automotive_design', 1998, #291 ) ;
#141 = CARTESIAN_POINT ( 'NONE',  ( 0.0000000000000000000, 0.0000000000000000000, 2.244094000000000033 ) ) ;
#142 = ORIENTED_EDGE ( 'NONE', *, *, #129, .T. ) ;
#143 = ADVANCED_FACE ( 'NONE', ( #24 ), #288, .T. ) ;
#144 = SURFACE_STYLE_FILL_AREA ( #93 ) ;
#145 = CARTESIAN_POINT ( 'NONE',  ( 9.177030719781672087E-18, 0.0000000000000000000, 0.005117998791752709740 ) ) ;
#146 = EDGE_LOOP ( 'NONE', ( #223, #147, #251, #150 ) ) ;
#147 = ORIENTED_EDGE ( 'NONE', *, *, #193, .T. ) ;
#148 = EDGE_CURVE ( 'NONE', #328, #135, #60, .T. ) ;
#149 = AXIS2_PLACEMENT_3D ( 'NONE', #153, #285, #23 ) ;
#150 = ORIENTED_EDGE ( 'NONE', *, *, #127, .F. ) ;
#151 = UNCERTAINTY_MEASURE_WITH_UNIT (LENGTH_MEASURE( 1.000000000000000082E-05 ), #14, 'distance_accuracy_value', 'NONE');
#152 = CARTESIAN_POINT ( 'NONE',  ( 0.0000000000000000000, 0.0000000000000000000, 2.244094000000000033 ) ) ;
#153 = CARTESIAN_POINT ( 'NONE',  ( -0.06889398323758125220, 0.0000000000000000000, 0.04448799879175271976 ) ) ;
#154 = VECTOR ( 'NONE', #325, 39.37007874015748143 ) ;
#155 = CARTESIAN_POINT ( 'NONE',  ( -0.06889398323758125220, 0.0000000000000000000, 0.04448799879175271976 ) ) ;
#156 = AXIS2_PLACEMENT_3D ( 'NONE', #98, #1, #184 ) ;
#157 =( NAMED_UNIT ( * ) SI_UNIT ( $, .STERADIAN. ) SOLID_ANGLE_UNIT ( ) );
#158 = MANIFOLD_SOLID_BREP ( 'Cut-Revolve1', #78 ) ;
#159 = CARTESIAN_POINT ( 'NONE',  ( 0.0000000000000000000, 0.0000000000000000000, 2.244094000000000033 ) ) ;
#160 = CARTESIAN_POINT ( 'NONE',  ( 0.1031100000000002709, 1.262733314600839129E-17, 2.244094000000000033 ) ) ;
#161 = AXIS2_PLACEMENT_3D ( 'NONE', #318, #189, #134 ) ;
#162 = ADVANCED_FACE ( 'NONE', ( #263 ), #304, .T. ) ;
#163 = DIRECTION ( 'NONE',  ( -1.000000000000000000, 0.0000000000000000000, 1.250499981774462892E-16 ) ) ;
#164 = CARTESIAN_POINT ( 'NONE',  ( 0.0000000000000000000, 0.0000000000000000000, 0.0000000000000000000 ) ) ;
#165 = DIRECTION ( 'NONE',  ( -1.250499981774462892E-16, -0.0000000000000000000, -1.000000000000000000 ) ) ;
#166 = CIRCLE ( 'NONE', #57, 0.03937000000000000915 ) ;
#167 = DIRECTION ( 'NONE',  ( -1.000000000000000000, 0.0000000000000000000, 1.239153925932958097E-16 ) ) ;
#168 = ORIENTED_EDGE ( 'NONE', *, *, #32, .T. ) ;
#169 = AXIS2_PLACEMENT_3D ( 'NONE', #296, #211, #35 ) ;
#170 = EDGE_LOOP ( 'NONE', ( #41, #15, #221, #262 ) ) ;
#171 = LENGTH_MEASURE_WITH_UNIT ( LENGTH_MEASURE( 0.02539999999999999897 ), #90 );
#172 = CARTESIAN_POINT ( 'NONE',  ( 0.06889398323758127995, 8.437079605241529263E-18, 0.04448799879175270588 ) ) ;
#173 = ORIENTED_EDGE ( 'NONE', *, *, #11, .T. ) ;
#174 = ORIENTED_EDGE ( 'NONE', *, *, #289, .T. ) ;
#175 = PRODUCT_DEFINITION_SHAPE ( 'NONE', 'NONE',  #202 ) ;
#176 = AXIS2_PLACEMENT_3D ( 'NONE', #312, #123, #54 ) ;
#177 = EDGE_CURVE ( 'NONE', #36, #130, #287, .T. ) ;
#178 = CARTESIAN_POINT ( 'NONE',  ( -0.02952398323758124651, 0.0000000000000000000, 0.005117998791752713210 ) ) ;
#179 = FACE_OUTER_BOUND ( 'NONE', #119, .T. ) ;
#180 = CIRCLE ( 'NONE', #303, 0.1181100000000000344 ) ;
#181 = PRODUCT_DEFINITION_FORMATION_WITH_SPECIFIED_SOURCE ( 'ANY', '', #301, .NOT_KNOWN. ) ;
#182 = LINE ( 'NONE', #230, #122 ) ;
#183 = DIRECTION ( 'NONE',  ( -1.250499981774462892E-16, -0.0000000000000000000, -1.000000000000000000 ) ) ;
#184 = DIRECTION ( 'NONE',  ( -1.000000000000000000, 0.0000000000000000000, 1.239153925932958097E-16 ) ) ;
#185 = CIRCLE ( 'NONE', #169, 0.03937000000000000915 ) ;
#186 = CARTESIAN_POINT ( 'NONE',  ( 0.0000000000000000000, 0.0000000000000000000, 2.229093999999999465 ) ) ;
#187 = CARTESIAN_POINT ( 'NONE',  ( 0.0000000000000000000, 0.0000000000000000000, 2.244094000000000033 ) ) ;
#188 = EDGE_CURVE ( 'NONE', #73, #316, #190, .T. ) ;
#189 = DIRECTION ( 'NONE',  ( 0.0000000000000000000, 0.0000000000000000000, 1.000000000000000000 ) ) ;
#190 = CIRCLE ( 'NONE', #247, 0.1181100000000000344 ) ;
#191 = SHAPE_DEFINITION_REPRESENTATION ( #175, #237 ) ;
#192 = VERTEX_POINT ( 'NONE', #12 ) ;
#193 = EDGE_CURVE ( 'NONE', #73, #212, #321, .T. ) ;
#194 = DIRECTION ( 'NONE',  ( 1.000000000000000000, 0.0000000000000000000, 0.0000000000000000000 ) ) ;
#195 = LINE ( 'NONE', #229, #154 ) ;
#196 = AXIS2_PLACEMENT_3D ( 'NONE', #141, #138, #249 ) ;
#197 = CIRCLE ( 'NONE', #267, 0.02952398323758126386 ) ;
#198 = FILL_AREA_STYLE_COLOUR ( '', #16 ) ;
#199 = DIRECTION ( 'NONE',  ( -1.250499981774462892E-16, -0.0000000000000000000, -1.000000000000000000 ) ) ;
#200 = SURFACE_SIDE_STYLE ('',( #144 ) ) ;
#201 = EDGE_LOOP ( 'NONE', ( #225, #255, #300, #114 ) ) ;
#202 = PRODUCT_DEFINITION ( 'UNKNOWN', '', #181, #224 ) ;
#203 = CARTESIAN_POINT ( 'NONE',  ( 0.0000000000000000000, 0.0000000000000000000, 0.04448799879175270588 ) ) ;
#204 = STYLED_ITEM ( 'NONE', ( #248 ), #237 ) ;
#205 = FACE_OUTER_BOUND ( 'NONE', #309, .T. ) ;
#206 = CYLINDRICAL_SURFACE ( 'NONE', #176, 0.02952398323758126386 ) ;
#207 = CARTESIAN_POINT ( 'NONE',  ( 0.1181100000000000344, 1.446430334472939084E-17, 2.229093999999999465 ) ) ;
#208 = DIRECTION ( 'NONE',  ( -1.000000000000000000, 0.0000000000000000000, 1.445605787858914658E-16 ) ) ;
#209 = ORIENTED_EDGE ( 'NONE', *, *, #2, .T. ) ;
#210 = ADVANCED_FACE ( 'NONE', ( #34 ), #79, .F. ) ;
#211 = DIRECTION ( 'NONE',  ( 0.0000000000000000000, -1.000000000000000000, 0.0000000000000000000 ) ) ;
#212 = VERTEX_POINT ( 'NONE', #238 ) ;
#213 = DIRECTION ( 'NONE',  ( 0.7071067811865358044, 8.659560562354788645E-17, -0.7071067811865590080 ) ) ;
#214 = EDGE_CURVE ( 'NONE', #130, #36, #25, .T. ) ;
#215 = DIRECTION ( 'NONE',  ( -1.250499981774462892E-16, -0.0000000000000000000, -1.000000000000000000 ) ) ;
#216 = CYLINDRICAL_SURFACE ( 'NONE', #67, 0.02952398323758126386 ) ;
#217 = DIRECTION ( 'NONE',  ( -0.0000000000000000000, -0.0000000000000000000, -1.000000000000000000 ) ) ;
#218 = ADVANCED_FACE ( 'NONE', ( #243 ), #85, .F. ) ;
#219 = CIRCLE ( 'NONE', #282, 0.1031100000000002709 ) ;
#220 = ORIENTED_EDGE ( 'NONE', *, *, #55, .F. ) ;
#221 = ORIENTED_EDGE ( 'NONE', *, *, #245, .F. ) ;
#222 =( NAMED_UNIT ( * ) PLANE_ANGLE_UNIT ( ) SI_UNIT ( $, .RADIAN. ) );
#223 = ORIENTED_EDGE ( 'NONE', *, *, #245, .T. ) ;
#224 = PRODUCT_DEFINITION_CONTEXT ( 'detailed design', #80, 'design' ) ;
#225 = ORIENTED_EDGE ( 'NONE', *, *, #294, .F. ) ;
#226 = APPLICATION_PROTOCOL_DEFINITION ( 'draft international standard', 'automotive_design', 1998, #80 ) ;
#227 = ADVANCED_FACE ( 'NONE', ( #293 ), #270, .T. ) ;
#228 = ORIENTED_EDGE ( 'NONE', *, *, #269, .T. ) ;
#229 = CARTESIAN_POINT ( 'NONE',  ( -0.02952398323758125345, 0.0000000000000000000, -1.818936546112600652E-18 ) ) ;
#230 = CARTESIAN_POINT ( 'NONE',  ( -0.1181100000000000344, 0.0000000000000000000, 2.244094000000000033 ) ) ;
#231 = AXIS2_PLACEMENT_3D ( 'NONE', #121, #290, #81 ) ;
#232 = FILL_AREA_STYLE ('',( #330 ) ) ;
#233 = LENGTH_MEASURE_WITH_UNIT ( LENGTH_MEASURE( 0.02539999999999999897 ), #284 );
#234 = LINE ( 'NONE', #265, #139 ) ;
#235 = ORIENTED_EDGE ( 'NONE', *, *, #115, .T. ) ;
#236 = AXIS2_PLACEMENT_3D ( 'NONE', #83, #165, #29 ) ;
#237 = ADVANCED_BREP_SHAPE_REPRESENTATION ( 'Micro_CREM-060-100X', ( #158, #133 ), #110 ) ;
#238 = CARTESIAN_POINT ( 'NONE',  ( 0.1181100000000000344, 1.446430334472939084E-17, 0.04448799879175268507 ) ) ;
#239 = CARTESIAN_POINT ( 'NONE',  ( -0.1181100000000000344, 0.0000000000000000000, 2.229093999999999465 ) ) ;
#240 = DIRECTION ( 'NONE',  ( -1.000000000000000000, 0.0000000000000000000, 0.0000000000000000000 ) ) ;
#241 = VECTOR ( 'NONE', #217, 39.37007874015748143 ) ;
#242 = CARTESIAN_POINT ( 'NONE',  ( 0.06889398323758126608, 8.437079605241529263E-18, 0.005117998791752694128 ) ) ;
#243 = FACE_OUTER_BOUND ( 'NONE', #95, .T. ) ;
#244 = EDGE_LOOP ( 'NONE', ( #91, #19, #280, #63 ) ) ;
#245 = EDGE_CURVE ( 'NONE', #316, #73, #132, .T. ) ;
#246 = ORIENTED_EDGE ( 'NONE', *, *, #59, .F. ) ;
#247 = AXIS2_PLACEMENT_3D ( 'NONE', #186, #126, #295 ) ;
#248 = PRESENTATION_STYLE_ASSIGNMENT (( #250 ) ) ;
#249 = DIRECTION ( 'NONE',  ( 1.000000000000000000, 0.0000000000000000000, 0.0000000000000000000 ) ) ;
#250 = SURFACE_STYLE_USAGE ( .BOTH. , #200 ) ;
#251 = ORIENTED_EDGE ( 'NONE', *, *, #11, .F. ) ;
#252 = ADVANCED_FACE ( 'NONE', ( #137 ), #94, .F. ) ;
#253 = CARTESIAN_POINT ( 'NONE',  ( 8.537024980200822558E-18, 0.0000000000000000000, 0.0000000000000000000 ) ) ;
#254 = COLOUR_RGB ( '',0.7921568627450980005, 0.8196078431372548767, 0.9333333333333333481 ) ;
#255 = ORIENTED_EDGE ( 'NONE', *, *, #289, .F. ) ;
#256 = EDGE_LOOP ( 'NONE', ( #22, #228, #96, #302 ) ) ;
#257 = EDGE_CURVE ( 'NONE', #135, #130, #185, .T. ) ;
#258 = CARTESIAN_POINT ( 'NONE',  ( 8.537024980200822558E-18, 0.0000000000000000000, 0.0000000000000000000 ) ) ;
#259 = CIRCLE ( 'NONE', #64, 0.1181100000000000344 ) ;
#260 = MECHANICAL_DESIGN_GEOMETRIC_PRESENTATION_REPRESENTATION (  '', ( #88 ), #52 ) ;
#261 = SURFACE_STYLE_FILL_AREA ( #232 ) ;
#262 = ORIENTED_EDGE ( 'NONE', *, *, #6, .F. ) ;
#263 = FACE_OUTER_BOUND ( 'NONE', #170, .T. ) ;
#264 = ADVANCED_FACE ( 'NONE', ( #13 ), #271, .T. ) ;
#265 = CARTESIAN_POINT ( 'NONE',  ( 0.02952398323758127080, 3.615645156998400008E-18, -9.202884646213584237E-18 ) ) ;
#266 = FACE_OUTER_BOUND ( 'NONE', #201, .T. ) ;
#267 = AXIS2_PLACEMENT_3D ( 'NONE', #258, #286, #311 ) ;
#268 = DIRECTION ( 'NONE',  ( 0.0000000000000000000, 0.0000000000000000000, 1.000000000000000000 ) ) ;
#269 = EDGE_CURVE ( 'NONE', #328, #36, #166, .T. ) ;
#270 = CYLINDRICAL_SURFACE ( 'NONE', #39, 0.1181100000000000344 ) ;
#271 = PLANE ( 'NONE',  #161 ) ;
#272 = DIMENSIONAL_EXPONENTS ( 1.000000000000000000, 0.0000000000000000000, 0.0000000000000000000, 0.0000000000000000000, 0.0000000000000000000, 0.0000000000000000000, 0.0000000000000000000 ) ;
#273 = DIRECTION ( 'NONE',  ( 0.0000000000000000000, 0.0000000000000000000, -1.000000000000000000 ) ) ;
#274 = DIRECTION ( 'NONE',  ( -1.000000000000000000, 0.0000000000000000000, 1.445605787858914658E-16 ) ) ;
#275 = ORIENTED_EDGE ( 'NONE', *, *, #177, .F. ) ;
#276 = AXIS2_PLACEMENT_3D ( 'NONE', #164, #131, #320 ) ;
#277 = DIRECTION ( 'NONE',  ( -0.7071067811865358044, 0.0000000000000000000, -0.7071067811865590080 ) ) ;
#278 = UNCERTAINTY_MEASURE_WITH_UNIT (LENGTH_MEASURE( 1.000000000000000082E-05 ), #42, 'distance_accuracy_value', 'NONE');
#279 =( NAMED_UNIT ( * ) PLANE_ANGLE_UNIT ( ) SI_UNIT ( $, .RADIAN. ) );
#280 = ORIENTED_EDGE ( 'NONE', *, *, #257, .T. ) ;
#281 = LINE ( 'NONE', #329, #65 ) ;
#282 = AXIS2_PLACEMENT_3D ( 'NONE', #297, #268, #56 ) ;
#283 = ADVANCED_FACE ( 'NONE', ( #107 ), #216, .T. ) ;
#284 =( LENGTH_UNIT ( ) NAMED_UNIT ( * ) SI_UNIT ( $, .METRE. ) );
#285 = DIRECTION ( 'NONE',  ( -1.250499981774462892E-16, 0.0000000000000000000, -1.000000000000000000 ) ) ;
#286 = DIRECTION ( 'NONE',  ( 0.0000000000000000000, 0.0000000000000000000, 1.000000000000000000 ) ) ;
#287 = CIRCLE ( 'NONE', #156, 0.06889398323758126608 ) ;
#288 = CYLINDRICAL_SURFACE ( 'NONE', #28, 0.1181100000000000344 ) ;
#289 = EDGE_CURVE ( 'NONE', #324, #192, #219, .T. ) ;
#290 = DIRECTION ( 'NONE',  ( -1.250499981774462892E-16, -0.0000000000000000000, -1.000000000000000000 ) ) ;
#291 = APPLICATION_CONTEXT ( 'automotive_design' ) ;
#292 = CARTESIAN_POINT ( 'NONE',  ( 1.410024914802773420E-17, 0.0000000000000000000, 0.04448799879175271282 ) ) ;
#293 = FACE_OUTER_BOUND ( 'NONE', #146, .T. ) ;
#294 = EDGE_CURVE ( 'NONE', #192, #73, #30, .T. ) ;
#295 = DIRECTION ( 'NONE',  ( 1.000000000000000000, 0.0000000000000000000, 0.0000000000000000000 ) ) ;
#296 = CARTESIAN_POINT ( 'NONE',  ( -0.06889398323758125220, 0.0000000000000000000, 0.005117998791752711475 ) ) ;
#297 = CARTESIAN_POINT ( 'NONE',  ( 0.0000000000000000000, 0.0000000000000000000, 2.244094000000000033 ) ) ;
#298 = AXIS2_PLACEMENT_3D ( 'NONE', #152, #26, #51 ) ;
#299 =( LENGTH_UNIT ( ) NAMED_UNIT ( * ) SI_UNIT ( $, .METRE. ) );
#300 = ORIENTED_EDGE ( 'NONE', *, *, #6, .T. ) ;
#301 = PRODUCT ( 'Micro_CREM-060-100X', 'Micro_CREM-060-100X', '', ( #40 ) ) ;
#302 = ORIENTED_EDGE ( 'NONE', *, *, #257, .F. ) ;
#303 = AXIS2_PLACEMENT_3D ( 'NONE', #100, #101, #208 ) ;
#304 = CONICAL_SURFACE ( 'NONE', #298, 0.1031100000000002709, 0.7853981633974318477 ) ;
#305 = ORIENTED_EDGE ( 'NONE', *, *, #17, .T. ) ;
#306 = EDGE_LOOP ( 'NONE', ( #116, #44, #307, #71 ) ) ;
#307 = ORIENTED_EDGE ( 'NONE', *, *, #127, .T. ) ;
#308 = ORIENTED_EDGE ( 'NONE', *, *, #55, .T. ) ;
#309 = EDGE_LOOP ( 'NONE', ( #173, #235 ) ) ;
#310 = ADVANCED_FACE ( 'NONE', ( #266 ), #74, .T. ) ;
#311 = DIRECTION ( 'NONE',  ( 1.000000000000000000, 0.0000000000000000000, 0.0000000000000000000 ) ) ;
#312 = CARTESIAN_POINT ( 'NONE',  ( 8.537024980200822558E-18, 0.0000000000000000000, -5.510910596163092637E-18 ) ) ;
#313 = PRESENTATION_STYLE_ASSIGNMENT (( #124 ) ) ;
#314 = AXIS2_PLACEMENT_3D ( 'NONE', #7, #84, #128 ) ;
#315 = DIRECTION ( 'NONE',  ( -1.000000000000000000, 0.0000000000000000000, 0.0000000000000000000 ) ) ;
#316 = VERTEX_POINT ( 'NONE', #239 ) ;
#317 = DIRECTION ( 'NONE',  ( -1.000000000000000000, -1.224646799147352961E-16, 0.0000000000000000000 ) ) ;
#318 = CARTESIAN_POINT ( 'NONE',  ( 0.0000000000000000000, 0.0000000000000000000, 2.244094000000000033 ) ) ;
#319 = AXIS2_PLACEMENT_3D ( 'NONE', #31, #183, #61 ) ;
#320 = DIRECTION ( 'NONE',  ( 1.000000000000000000, 0.0000000000000000000, -0.0000000000000000000 ) ) ;
#321 = LINE ( 'NONE', #106, #241 ) ;
#322 = VECTOR ( 'NONE', #213, 39.37007874015748854 ) ;
#323 = VERTEX_POINT ( 'NONE', #8 ) ;
#324 = VERTEX_POINT ( 'NONE', #103 ) ;
#325 = DIRECTION ( 'NONE',  ( -1.250499981774462892E-16, -0.0000000000000000000, -1.000000000000000000 ) ) ;
#326 = CIRCLE ( 'NONE', #125, 0.02952398323758126386 ) ;
#327 =( GEOMETRIC_REPRESENTATION_CONTEXT ( 3 ) GLOBAL_UNCERTAINTY_ASSIGNED_CONTEXT ( ( #278 ) ) GLOBAL_UNIT_ASSIGNED_CONTEXT ( ( #42, #222, #37 ) ) REPRESENTATION_CONTEXT ( 'NONE', 'WORKASPACE' ) );
#328 = VERTEX_POINT ( 'NONE', #111 ) ;
#329 = CARTESIAN_POINT ( 'NONE',  ( -0.1031100000000002709, 0.0000000000000000000, 2.244094000000000033 ) ) ;
#330 = FILL_AREA_STYLE_COLOUR ( '', #254 ) ;
#331 = AXIS2_PLACEMENT_3D ( 'NONE', #292, #215, #167 ) ;
ENDSEC;
END-ISO-10303-21;
