ISO-10303-21;
HEADER;
FILE_DESCRIPTION (( 'STEP AP214' ),
    '1' );
FILE_NAME ('Micro_SHRM-160-4X.STEP',
    '2021-09-02T09:23:25',
    ( '' ),
    ( '' ),
    'SwSTEP 2.0',
    'SolidWorks 2020',
    '' );
FILE_SCHEMA (( 'AUTOMOTIVE_DESIGN' ));
ENDSEC;

DATA;
#1 = EDGE_CURVE ( 'NONE', #91, #69, #180, .T. ) ;
#2 = STYLED_ITEM ( 'NONE', ( #264 ), #57 ) ;
#3 = DIRECTION ( 'NONE',  ( -1.224646799147353207E-16, -0.0000000000000000000, -1.000000000000000000 ) ) ;
#4 = CYLINDRICAL_SURFACE ( 'NONE', #165, 0.3146455394999999600 ) ;
#5 = CARTESIAN_POINT ( 'NONE',  ( 0.0000000000000000000, 0.0000000000000000000, 0.0000000000000000000 ) ) ;
#6 = CARTESIAN_POINT ( 'NONE',  ( 1.689693231380615506E-16, 0.0000000000000000000, 1.379739229757547481 ) ) ;
#7 = CARTESIAN_POINT ( 'NONE',  ( -0.3149604999999999766, 0.0000000000000000000, 3.607046999999999226 ) ) ;
#8 = APPLICATION_PROTOCOL_DEFINITION ( 'draft international standard', 'automotive_design', 1998, #273 ) ;
#9 = CLOSED_SHELL ( 'NONE', ( #249, #113, #13, #294, #269, #148, #103, #151, #247, #167 ) ) ;
#10 = CIRCLE ( 'NONE', #181, 0.3146455394999999600 ) ;
#11 = CARTESIAN_POINT ( 'NONE',  ( 0.0000000000000000000, 0.0000000000000000000, 3.622047000000000239 ) ) ;
#12 = DIRECTION ( 'NONE',  ( 0.0000000000000000000, 0.0000000000000000000, -1.000000000000000000 ) ) ;
#13 = ADVANCED_FACE ( 'NONE', ( #245 ), #60, .T. ) ;
#14 = CONICAL_SURFACE ( 'NONE', #24, 0.2999604999999996857, 0.7853981633974324028 ) ;
#15 =( NAMED_UNIT ( * ) SI_UNIT ( $, .STERADIAN. ) SOLID_ANGLE_UNIT ( ) );
#16 = PLANE ( 'NONE',  #270 ) ;
#17 = CIRCLE ( 'NONE', #127, 0.3146455394999999600 ) ;
#18 = DIRECTION ( 'NONE',  ( -1.224646799147353207E-16, -0.0000000000000000000, -1.000000000000000000 ) ) ;
#19 = DIRECTION ( 'NONE',  ( -1.224646799147353207E-16, -0.0000000000000000000, -1.000000000000000000 ) ) ;
#20 = DIRECTION ( 'NONE',  ( 0.7071067811865362485, 8.659560562354796040E-17, -0.7071067811865587860 ) ) ;
#21 = SURFACE_SIDE_STYLE ('',( #211 ) ) ;
#22 = ORIENTED_EDGE ( 'NONE', *, *, #268, .F. ) ;
#23 = ORIENTED_EDGE ( 'NONE', *, *, #219, .F. ) ;
#24 = AXIS2_PLACEMENT_3D ( 'NONE', #160, #179, #86 ) ;
#25 = ADVANCED_BREP_SHAPE_REPRESENTATION ( 'Micro_SHRM-160-4X', ( #57, #139 ), #278 ) ;
#26 = ORIENTED_EDGE ( 'NONE', *, *, #215, .F. ) ;
#27 = ORIENTED_EDGE ( 'NONE', *, *, #178, .T. ) ;
#28 = DIRECTION ( 'NONE',  ( -0.0000000000000000000, -0.0000000000000000000, -1.000000000000000000 ) ) ;
#29 = AXIS2_PLACEMENT_3D ( 'NONE', #228, #67, #108 ) ;
#30 = DIRECTION ( 'NONE',  ( -0.0000000000000000000, -0.0000000000000000000, -1.000000000000000000 ) ) ;
#31 = DIRECTION ( 'NONE',  ( -1.000000000000000000, 0.0000000000000000000, 0.0000000000000000000 ) ) ;
#32 = UNCERTAINTY_MEASURE_WITH_UNIT (LENGTH_MEASURE( 1.000000000000000082E-05 ), #119, 'distance_accuracy_value', 'NONE');
#33 =( CONVERSION_BASED_UNIT ( 'INCH', #242 ) LENGTH_UNIT ( ) NAMED_UNIT ( #118 ) );
#34 = CARTESIAN_POINT ( 'NONE',  ( 0.0000000000000000000, 0.0000000000000000000, 3.622047000000000239 ) ) ;
#35 = ORIENTED_EDGE ( 'NONE', *, *, #268, .T. ) ;
#36 = DIRECTION ( 'NONE',  ( 0.1736481776669313859, 0.0000000000000000000, 0.9848077530122077983 ) ) ;
#37 = DIRECTION ( 'NONE',  ( 0.0000000000000000000, 0.0000000000000000000, 1.000000000000000000 ) ) ;
#38 = COLOUR_RGB ( '',0.7921568627450980005, 0.8196078431372548767, 0.9333333333333333481 ) ;
#39 = DIRECTION ( 'NONE',  ( 0.0000000000000000000, 0.0000000000000000000, 1.000000000000000000 ) ) ;
#40 = LINE ( 'NONE', #135, #145 ) ;
#41 = AXIS2_PLACEMENT_3D ( 'NONE', #106, #37, #104 ) ;
#42 = ORIENTED_EDGE ( 'NONE', *, *, #124, .F. ) ;
#43 = CARTESIAN_POINT ( 'NONE',  ( 1.687505730825492758E-16, 0.0000000000000000000, 1.377952999999999983 ) ) ;
#44 = EDGE_LOOP ( 'NONE', ( #79, #112 ) ) ;
#45 = DIRECTION ( 'NONE',  ( 1.000000000000000000, 0.0000000000000000000, 0.0000000000000000000 ) ) ;
#46 = CARTESIAN_POINT ( 'NONE',  ( 0.3149605000000001431, 3.857153681828500963E-17, 1.379739229757547481 ) ) ;
#47 = VECTOR ( 'NONE', #20, 39.37007874015748143 ) ;
#48 = DIRECTION ( 'NONE',  ( -1.000000000000000000, 0.0000000000000000000, 0.0000000000000000000 ) ) ;
#49 = VERTEX_POINT ( 'NONE', #7 ) ;
#50 = DIRECTION ( 'NONE',  ( -1.224646799147353207E-16, -0.0000000000000000000, -1.000000000000000000 ) ) ;
#51 = DIRECTION ( 'NONE',  ( -1.000000000000000000, 0.0000000000000000000, 1.224646799147353207E-16 ) ) ;
#52 = DIRECTION ( 'NONE',  ( 0.0000000000000000000, 0.0000000000000000000, 1.000000000000000000 ) ) ;
#53 = CARTESIAN_POINT ( 'NONE',  ( 0.0000000000000000000, 0.0000000000000000000, 0.0000000000000000000 ) ) ;
#54 = APPLICATION_PROTOCOL_DEFINITION ( 'draft international standard', 'automotive_design', 1998, #289 ) ;
#55 = ORIENTED_EDGE ( 'NONE', *, *, #202, .F. ) ;
#56 = PRODUCT_DEFINITION ( 'UNKNOWN', '', #209, #196 ) ;
#57 = MANIFOLD_SOLID_BREP ( 'Cut-Revolve1', #9 ) ;
#58 = ORIENTED_EDGE ( 'NONE', *, *, #84, .T. ) ;
#59 = EDGE_CURVE ( 'NONE', #114, #265, #252, .T. ) ;
#60 = CONICAL_SURFACE ( 'NONE', #109, 0.2999604999999996857, 0.7853981633974324028 ) ;
#61 = CARTESIAN_POINT ( 'NONE',  ( 1.687505730825492758E-16, 0.0000000000000000000, 1.377952999999999983 ) ) ;
#62 = COLOUR_RGB ( '',0.7921568627450980005, 0.8196078431372548767, 0.9333333333333333481 ) ;
#63 = CARTESIAN_POINT ( 'NONE',  ( 0.0000000000000000000, 0.0000000000000000000, 0.0000000000000000000 ) ) ;
#64 = DIRECTION ( 'NONE',  ( 1.000000000000000000, 0.0000000000000000000, 0.0000000000000000000 ) ) ;
#65 = VECTOR ( 'NONE', #28, 39.37007874015748143 ) ;
#66 = EDGE_LOOP ( 'NONE', ( #136, #183, #176, #229 ) ) ;
#67 = DIRECTION ( 'NONE',  ( 1.224646799147353207E-16, 0.0000000000000000000, 1.000000000000000000 ) ) ;
#68 = EDGE_CURVE ( 'NONE', #163, #265, #40, .T. ) ;
#69 = VERTEX_POINT ( 'NONE', #230 ) ;
#70 = CARTESIAN_POINT ( 'NONE',  ( -0.3149604999999998656, 0.0000000000000000000, 1.379739229757547481 ) ) ;
#71 = DIRECTION ( 'NONE',  ( 0.0000000000000000000, 0.0000000000000000000, -1.000000000000000000 ) ) ;
#72 = ORIENTED_EDGE ( 'NONE', *, *, #68, .T. ) ;
#73 = CIRCLE ( 'NONE', #287, 0.2999604999999996857 ) ;
#74 = FACE_OUTER_BOUND ( 'NONE', #254, .T. ) ;
#75 = DIRECTION ( 'NONE',  ( -0.7071067811865362485, 0.0000000000000000000, -0.7071067811865587860 ) ) ;
#76 = LINE ( 'NONE', #140, #272 ) ;
#77 = CIRCLE ( 'NONE', #285, 0.3149604999999999766 ) ;
#78 = DIMENSIONAL_EXPONENTS ( 1.000000000000000000, 0.0000000000000000000, 0.0000000000000000000, 0.0000000000000000000, 0.0000000000000000000, 0.0000000000000000000, 0.0000000000000000000 ) ;
#79 = ORIENTED_EDGE ( 'NONE', *, *, #208, .T. ) ;
#80 = EDGE_CURVE ( 'NONE', #69, #134, #291, .T. ) ;
#81 = PLANE ( 'NONE',  #41 ) ;
#82 = LINE ( 'NONE', #173, #153 ) ;
#83 = CARTESIAN_POINT ( 'NONE',  ( -0.3146455394999999600, 0.0000000000000000000, 3.853296528146670183E-17 ) ) ;
#84 = EDGE_CURVE ( 'NONE', #265, #114, #224, .T. ) ;
#85 = ORIENTED_EDGE ( 'NONE', *, *, #161, .T. ) ;
#86 = DIRECTION ( 'NONE',  ( -1.000000000000000000, 0.0000000000000000000, 0.0000000000000000000 ) ) ;
#87 = VERTEX_POINT ( 'NONE', #250 ) ;
#88 = PRESENTATION_LAYER_ASSIGNMENT (  '', '', ( #205 ) ) ;
#89 = FACE_OUTER_BOUND ( 'NONE', #185, .T. ) ;
#90 = SURFACE_STYLE_USAGE ( .BOTH. , #21 ) ;
#91 = VERTEX_POINT ( 'NONE', #297 ) ;
#92 = DIRECTION ( 'NONE',  ( -1.000000000000000000, 0.0000000000000000000, 0.0000000000000000000 ) ) ;
#93 = EDGE_LOOP ( 'NONE', ( #231, #233, #235, #277 ) ) ;
#94 = DIRECTION ( 'NONE',  ( -1.224646799147353207E-16, -0.0000000000000000000, -1.000000000000000000 ) ) ;
#95 = FILL_AREA_STYLE ('',( #122 ) ) ;
#96 = CYLINDRICAL_SURFACE ( 'NONE', #255, 0.3149604999999999766 ) ;
#97 = ORIENTED_EDGE ( 'NONE', *, *, #215, .T. ) ;
#98 = CARTESIAN_POINT ( 'NONE',  ( 0.0000000000000000000, 0.0000000000000000000, 0.0000000000000000000 ) ) ;
#99 = SURFACE_SIDE_STYLE ('',( #221 ) ) ;
#100 = UNCERTAINTY_MEASURE_WITH_UNIT (LENGTH_MEASURE( 1.000000000000000082E-05 ), #283, 'distance_accuracy_value', 'NONE');
#101 = CYLINDRICAL_SURFACE ( 'NONE', #262, 0.3146455394999999600 ) ;
#102 = AXIS2_PLACEMENT_3D ( 'NONE', #295, #71, #246 ) ;
#103 = ADVANCED_FACE ( 'NONE', ( #292 ), #14, .T. ) ;
#104 = DIRECTION ( 'NONE',  ( 1.000000000000000000, 0.0000000000000000000, -0.0000000000000000000 ) ) ;
#105 = EDGE_CURVE ( 'NONE', #69, #91, #73, .T. ) ;
#106 = CARTESIAN_POINT ( 'NONE',  ( 0.0000000000000000000, 0.0000000000000000000, 3.622047000000000239 ) ) ;
#107 = DIRECTION ( 'NONE',  ( -1.000000000000000000, 0.0000000000000000000, 0.0000000000000000000 ) ) ;
#108 = DIRECTION ( 'NONE',  ( 1.000000000000000000, 0.0000000000000000000, 0.0000000000000000000 ) ) ;
#109 = AXIS2_PLACEMENT_3D ( 'NONE', #34, #149, #31 ) ;
#110 = ORIENTED_EDGE ( 'NONE', *, *, #80, .F. ) ;
#111 = CARTESIAN_POINT ( 'NONE',  ( 1.689693231380615506E-16, 0.0000000000000000000, 1.379739229757547481 ) ) ;
#112 = ORIENTED_EDGE ( 'NONE', *, *, #219, .T. ) ;
#113 = ADVANCED_FACE ( 'NONE', ( #89 ), #121, .T. ) ;
#114 = VERTEX_POINT ( 'NONE', #46 ) ;
#115 = CARTESIAN_POINT ( 'NONE',  ( 0.0000000000000000000, 0.0000000000000000000, 3.622047000000000239 ) ) ;
#116 = EDGE_CURVE ( 'NONE', #49, #134, #232, .T. ) ;
#117 = MECHANICAL_DESIGN_GEOMETRIC_PRESENTATION_REPRESENTATION (  '', ( #2 ), #172 ) ;
#118 = DIMENSIONAL_EXPONENTS ( 1.000000000000000000, 0.0000000000000000000, 0.0000000000000000000, 0.0000000000000000000, 0.0000000000000000000, 0.0000000000000000000, 0.0000000000000000000 ) ;
#119 =( CONVERSION_BASED_UNIT ( 'INCH', #142 ) LENGTH_UNIT ( ) NAMED_UNIT ( #144 ) );
#120 = ORIENTED_EDGE ( 'NONE', *, *, #68, .F. ) ;
#121 = CONICAL_SURFACE ( 'NONE', #29, 0.3146455394999999600, 0.1745329251994338915 ) ;
#122 = FILL_AREA_STYLE_COLOUR ( '', #62 ) ;
#123 = FACE_OUTER_BOUND ( 'NONE', #166, .T. ) ;
#124 = EDGE_CURVE ( 'NONE', #134, #49, #77, .T. ) ;
#125 = CARTESIAN_POINT ( 'NONE',  ( 0.3146455394999999600, 3.853296528146670183E-17, 0.0000000000000000000 ) ) ;
#126 =( NAMED_UNIT ( * ) PLANE_ANGLE_UNIT ( ) SI_UNIT ( $, .RADIAN. ) );
#127 = AXIS2_PLACEMENT_3D ( 'NONE', #261, #234, #92 ) ;
#128 = DIRECTION ( 'NONE',  ( 1.000000000000000000, 0.0000000000000000000, 0.0000000000000000000 ) ) ;
#129 = DIRECTION ( 'NONE',  ( 1.000000000000000000, 0.0000000000000000000, -0.0000000000000000000 ) ) ;
#130 = CIRCLE ( 'NONE', #137, 0.3146455394999999600 ) ;
#131 = EDGE_LOOP ( 'NONE', ( #55, #171, #159, #194 ) ) ;
#132 = DIRECTION ( 'NONE',  ( 1.000000000000000000, 0.0000000000000000000, 0.0000000000000000000 ) ) ;
#133 = PRODUCT ( 'Micro_SHRM-160-4X', 'Micro_SHRM-160-4X', '', ( #298 ) ) ;
#134 = VERTEX_POINT ( 'NONE', #286 ) ;
#135 = CARTESIAN_POINT ( 'NONE',  ( -0.3146455394999998489, 3.853296528146670183E-17, 1.377952999999999983 ) ) ;
#136 = ORIENTED_EDGE ( 'NONE', *, *, #116, .T. ) ;
#137 = AXIS2_PLACEMENT_3D ( 'NONE', #258, #50, #193 ) ;
#138 = EDGE_LOOP ( 'NONE', ( #26, #35, #85, #23 ) ) ;
#139 = AXIS2_PLACEMENT_3D ( 'NONE', #5, #197, #263 ) ;
#140 = CARTESIAN_POINT ( 'NONE',  ( 0.3146455394999999600, 3.853296528146670183E-17, -3.853296528146670183E-17 ) ) ;
#141 = ORIENTED_EDGE ( 'NONE', *, *, #1, .F. ) ;
#142 = LENGTH_MEASURE_WITH_UNIT ( LENGTH_MEASURE( 0.02539999999999999897 ), #217 );
#143 = DIRECTION ( 'NONE',  ( -1.000000000000000000, 0.0000000000000000000, 1.224646799147353207E-16 ) ) ;
#144 = DIMENSIONAL_EXPONENTS ( 1.000000000000000000, 0.0000000000000000000, 0.0000000000000000000, 0.0000000000000000000, 0.0000000000000000000, 0.0000000000000000000, 0.0000000000000000000 ) ;
#145 = VECTOR ( 'NONE', #226, 39.37007874015747433 ) ;
#146 = CYLINDRICAL_SURFACE ( 'NONE', #244, 0.3149604999999999766 ) ;
#147 = SHAPE_DEFINITION_REPRESENTATION ( #155, #25 ) ;
#148 = ADVANCED_FACE ( 'NONE', ( #123 ), #81, .T. ) ;
#149 = DIRECTION ( 'NONE',  ( 0.0000000000000000000, 0.0000000000000000000, -1.000000000000000000 ) ) ;
#150 = AXIS2_PLACEMENT_3D ( 'NONE', #111, #18, #64 ) ;
#151 = ADVANCED_FACE ( 'NONE', ( #204 ), #225, .T. ) ;
#152 = CARTESIAN_POINT ( 'NONE',  ( -0.3146455394999998489, 3.855225104987584957E-17, 1.377952999999999983 ) ) ;
#153 = VECTOR ( 'NONE', #36, 39.37007874015748143 ) ;
#154 = EDGE_CURVE ( 'NONE', #87, #114, #82, .T. ) ;
#155 = PRODUCT_DEFINITION_SHAPE ( 'NONE', 'NONE',  #56 ) ;
#156 = CARTESIAN_POINT ( 'NONE',  ( 0.2999604999999996857, 3.673456661956392842E-17, 3.622047000000000239 ) ) ;
#157 = VERTEX_POINT ( 'NONE', #125 ) ;
#158 = AXIS2_PLACEMENT_3D ( 'NONE', #61, #201, #128 ) ;
#159 = ORIENTED_EDGE ( 'NONE', *, *, #189, .T. ) ;
#160 = CARTESIAN_POINT ( 'NONE',  ( 0.0000000000000000000, 0.0000000000000000000, 3.622047000000000239 ) ) ;
#161 = EDGE_CURVE ( 'NONE', #163, #227, #288, .T. ) ;
#162 =( LENGTH_UNIT ( ) NAMED_UNIT ( * ) SI_UNIT ( $, .METRE. ) );
#163 = VERTEX_POINT ( 'NONE', #152 ) ;
#164 = DIRECTION ( 'NONE',  ( -1.000000000000000000, 0.0000000000000000000, 0.0000000000000000000 ) ) ;
#165 = AXIS2_PLACEMENT_3D ( 'NONE', #53, #220, #143 ) ;
#166 = EDGE_LOOP ( 'NONE', ( #214, #212 ) ) ;
#167 = ADVANCED_FACE ( 'NONE', ( #248 ), #16, .F. ) ;
#168 = CARTESIAN_POINT ( 'NONE',  ( 4.718927259360429440E-33, 0.0000000000000000000, 3.853296528146670183E-17 ) ) ;
#169 = LINE ( 'NONE', #282, #65 ) ;
#170 = FILL_AREA_STYLE_COLOUR ( '', #38 ) ;
#171 = ORIENTED_EDGE ( 'NONE', *, *, #124, .T. ) ;
#172 =( GEOMETRIC_REPRESENTATION_CONTEXT ( 3 ) GLOBAL_UNCERTAINTY_ASSIGNED_CONTEXT ( ( #260 ) ) GLOBAL_UNIT_ASSIGNED_CONTEXT ( ( #33, #126, #15 ) ) REPRESENTATION_CONTEXT ( 'NONE', 'WORKASPACE' ) );
#173 = CARTESIAN_POINT ( 'NONE',  ( 0.3146455395000001265, 0.0000000000000000000, 1.377952999999999983 ) ) ;
#174 = DIRECTION ( 'NONE',  ( -1.224646799147353207E-16, -0.0000000000000000000, -1.000000000000000000 ) ) ;
#175 = MECHANICAL_DESIGN_GEOMETRIC_PRESENTATION_REPRESENTATION (  '', ( #205 ), #192 ) ;
#176 = ORIENTED_EDGE ( 'NONE', *, *, #84, .F. ) ;
#177 = EDGE_CURVE ( 'NONE', #163, #87, #290, .T. ) ;
#178 = EDGE_CURVE ( 'NONE', #91, #49, #210, .T. ) ;
#179 = DIRECTION ( 'NONE',  ( 0.0000000000000000000, 0.0000000000000000000, -1.000000000000000000 ) ) ;
#180 = CIRCLE ( 'NONE', #182, 0.2999604999999996857 ) ;
#181 = AXIS2_PLACEMENT_3D ( 'NONE', #168, #3, #51 ) ;
#182 = AXIS2_PLACEMENT_3D ( 'NONE', #11, #52, #239 ) ;
#183 = ORIENTED_EDGE ( 'NONE', *, *, #202, .T. ) ;
#184 = PRESENTATION_STYLE_ASSIGNMENT (( #90 ) ) ;
#185 = EDGE_LOOP ( 'NONE', ( #293, #72, #58, #257 ) ) ;
#186 = LINE ( 'NONE', #218, #238 ) ;
#187 = CARTESIAN_POINT ( 'NONE',  ( 0.0000000000000000000, 0.0000000000000000000, 3.622047000000000239 ) ) ;
#188 =( NAMED_UNIT ( * ) PLANE_ANGLE_UNIT ( ) SI_UNIT ( $, .RADIAN. ) );
#189 = EDGE_CURVE ( 'NONE', #49, #265, #169, .T. ) ;
#190 = ORIENTED_EDGE ( 'NONE', *, *, #161, .F. ) ;
#191 = CARTESIAN_POINT ( 'NONE',  ( -0.3146455394999999600, 0.0000000000000000000, 7.706593056293340367E-17 ) ) ;
#192 =( GEOMETRIC_REPRESENTATION_CONTEXT ( 3 ) GLOBAL_UNCERTAINTY_ASSIGNED_CONTEXT ( ( #100 ) ) GLOBAL_UNIT_ASSIGNED_CONTEXT ( ( #283, #188, #281 ) ) REPRESENTATION_CONTEXT ( 'NONE', 'WORKASPACE' ) );
#193 = DIRECTION ( 'NONE',  ( -1.000000000000000000, 0.0000000000000000000, 1.224646799147353207E-16 ) ) ;
#194 = ORIENTED_EDGE ( 'NONE', *, *, #59, .F. ) ;
#195 = FACE_OUTER_BOUND ( 'NONE', #66, .T. ) ;
#196 = PRODUCT_DEFINITION_CONTEXT ( 'detailed design', #289, 'design' ) ;
#197 = DIRECTION ( 'NONE',  ( 0.0000000000000000000, 0.0000000000000000000, 1.000000000000000000 ) ) ;
#198 = DIRECTION ( 'NONE',  ( -1.000000000000000000, 0.0000000000000000000, 1.224646799147353207E-16 ) ) ;
#199 = PRESENTATION_LAYER_ASSIGNMENT (  '', '', ( #2 ) ) ;
#200 = PRODUCT_RELATED_PRODUCT_CATEGORY ( 'part', '', ( #133 ) ) ;
#201 = DIRECTION ( 'NONE',  ( 1.224646799147353207E-16, 0.0000000000000000000, 1.000000000000000000 ) ) ;
#202 = EDGE_CURVE ( 'NONE', #134, #114, #186, .T. ) ;
#203 = AXIS2_PLACEMENT_3D ( 'NONE', #43, #19, #107 ) ;
#204 = FACE_OUTER_BOUND ( 'NONE', #296, .T. ) ;
#205 = STYLED_ITEM ( 'NONE', ( #184 ), #25 ) ;
#206 = FILL_AREA_STYLE ('',( #170 ) ) ;
#207 = VECTOR ( 'NONE', #75, 39.37007874015748143 ) ;
#208 = EDGE_CURVE ( 'NONE', #227, #157, #130, .T. ) ;
#209 = PRODUCT_DEFINITION_FORMATION_WITH_SPECIFIED_SOURCE ( 'ANY', '', #133, .NOT_KNOWN. ) ;
#210 = LINE ( 'NONE', #279, #207 ) ;
#211 = SURFACE_STYLE_FILL_AREA ( #206 ) ;
#212 = ORIENTED_EDGE ( 'NONE', *, *, #105, .T. ) ;
#213 = AXIS2_PLACEMENT_3D ( 'NONE', #6, #274, #45 ) ;
#214 = ORIENTED_EDGE ( 'NONE', *, *, #1, .T. ) ;
#215 = EDGE_CURVE ( 'NONE', #87, #157, #76, .T. ) ;
#216 = ORIENTED_EDGE ( 'NONE', *, *, #59, .T. ) ;
#217 =( LENGTH_UNIT ( ) NAMED_UNIT ( * ) SI_UNIT ( $, .METRE. ) );
#218 = CARTESIAN_POINT ( 'NONE',  ( 0.3149604999999999766, 3.857153681828499730E-17, 3.622047000000000239 ) ) ;
#219 = EDGE_CURVE ( 'NONE', #157, #227, #10, .T. ) ;
#220 = DIRECTION ( 'NONE',  ( -1.224646799147353207E-16, -0.0000000000000000000, -1.000000000000000000 ) ) ;
#221 = SURFACE_STYLE_FILL_AREA ( #95 ) ;
#222 =( NAMED_UNIT ( * ) PLANE_ANGLE_UNIT ( ) SI_UNIT ( $, .RADIAN. ) );
#223 =( LENGTH_UNIT ( ) NAMED_UNIT ( * ) SI_UNIT ( $, .METRE. ) );
#224 = CIRCLE ( 'NONE', #150, 0.3149604999999999766 ) ;
#225 = CONICAL_SURFACE ( 'NONE', #158, 0.3146455394999999600, 0.1745329251994338915 ) ;
#226 = DIRECTION ( 'NONE',  ( -0.1736481776669311916, 2.126576849575783316E-17, 0.9848077530122080203 ) ) ;
#227 = VERTEX_POINT ( 'NONE', #191 ) ;
#228 = CARTESIAN_POINT ( 'NONE',  ( 1.687505730825492758E-16, 0.0000000000000000000, 1.377952999999999983 ) ) ;
#229 = ORIENTED_EDGE ( 'NONE', *, *, #189, .F. ) ;
#230 = CARTESIAN_POINT ( 'NONE',  ( 0.2999604999999996857, 3.765305171892445978E-17, 3.622047000000000239 ) ) ;
#231 = ORIENTED_EDGE ( 'NONE', *, *, #105, .F. ) ;
#232 = CIRCLE ( 'NONE', #102, 0.3149604999999999766 ) ;
#233 = ORIENTED_EDGE ( 'NONE', *, *, #80, .T. ) ;
#234 = DIRECTION ( 'NONE',  ( -1.224646799147353207E-16, -0.0000000000000000000, -1.000000000000000000 ) ) ;
#235 = ORIENTED_EDGE ( 'NONE', *, *, #116, .F. ) ;
#236 = FACE_OUTER_BOUND ( 'NONE', #131, .T. ) ;
#237 = CARTESIAN_POINT ( 'NONE',  ( 0.0000000000000000000, 0.0000000000000000000, 3.622047000000000239 ) ) ;
#238 = VECTOR ( 'NONE', #280, 39.37007874015748143 ) ;
#239 = DIRECTION ( 'NONE',  ( 1.000000000000000000, 0.0000000000000000000, 0.0000000000000000000 ) ) ;
#240 =( NAMED_UNIT ( * ) SI_UNIT ( $, .STERADIAN. ) SOLID_ANGLE_UNIT ( ) );
#241 = LENGTH_MEASURE_WITH_UNIT ( LENGTH_MEASURE( 0.02539999999999999897 ), #162 );
#242 = LENGTH_MEASURE_WITH_UNIT ( LENGTH_MEASURE( 0.02539999999999999897 ), #223 );
#243 = CARTESIAN_POINT ( 'NONE',  ( 0.0000000000000000000, 0.0000000000000000000, 3.607046999999999226 ) ) ;
#244 = AXIS2_PLACEMENT_3D ( 'NONE', #115, #256, #164 ) ;
#245 = FACE_OUTER_BOUND ( 'NONE', #93, .T. ) ;
#246 = DIRECTION ( 'NONE',  ( 1.000000000000000000, 0.0000000000000000000, 0.0000000000000000000 ) ) ;
#247 = ADVANCED_FACE ( 'NONE', ( #259 ), #4, .T. ) ;
#248 = FACE_OUTER_BOUND ( 'NONE', #44, .T. ) ;
#249 = ADVANCED_FACE ( 'NONE', ( #74 ), #101, .T. ) ;
#250 = CARTESIAN_POINT ( 'NONE',  ( 0.3146455395000001265, 0.0000000000000000000, 1.377952999999999983 ) ) ;
#251 = ORIENTED_EDGE ( 'NONE', *, *, #208, .F. ) ;
#252 = CIRCLE ( 'NONE', #213, 0.3149604999999999766 ) ;
#253 = DIRECTION ( 'NONE',  ( 0.0000000000000000000, 0.0000000000000000000, 1.000000000000000000 ) ) ;
#254 = EDGE_LOOP ( 'NONE', ( #271, #97, #251, #190 ) ) ;
#255 = AXIS2_PLACEMENT_3D ( 'NONE', #237, #30, #48 ) ;
#256 = DIRECTION ( 'NONE',  ( -0.0000000000000000000, -0.0000000000000000000, -1.000000000000000000 ) ) ;
#257 = ORIENTED_EDGE ( 'NONE', *, *, #154, .F. ) ;
#258 = CARTESIAN_POINT ( 'NONE',  ( 4.718927259360429440E-33, 0.0000000000000000000, 3.853296528146670183E-17 ) ) ;
#259 = FACE_OUTER_BOUND ( 'NONE', #138, .T. ) ;
#260 = UNCERTAINTY_MEASURE_WITH_UNIT (LENGTH_MEASURE( 1.000000000000000082E-05 ), #33, 'distance_accuracy_value', 'NONE');
#261 = CARTESIAN_POINT ( 'NONE',  ( 1.687505730825492758E-16, 0.0000000000000000000, 1.377952999999999983 ) ) ;
#262 = AXIS2_PLACEMENT_3D ( 'NONE', #98, #276, #198 ) ;
#263 = DIRECTION ( 'NONE',  ( 1.000000000000000000, 0.0000000000000000000, 0.0000000000000000000 ) ) ;
#264 = PRESENTATION_STYLE_ASSIGNMENT (( #284 ) ) ;
#265 = VERTEX_POINT ( 'NONE', #70 ) ;
#266 = DIRECTION ( 'NONE',  ( 1.000000000000000000, 0.0000000000000000000, 0.0000000000000000000 ) ) ;
#267 = VECTOR ( 'NONE', #174, 39.37007874015748143 ) ;
#268 = EDGE_CURVE ( 'NONE', #87, #163, #17, .T. ) ;
#269 = ADVANCED_FACE ( 'NONE', ( #236 ), #146, .T. ) ;
#270 = AXIS2_PLACEMENT_3D ( 'NONE', #63, #39, #129 ) ;
#271 = ORIENTED_EDGE ( 'NONE', *, *, #177, .T. ) ;
#272 = VECTOR ( 'NONE', #94, 39.37007874015748143 ) ;
#273 = APPLICATION_CONTEXT ( 'automotive_design' ) ;
#274 = DIRECTION ( 'NONE',  ( -1.224646799147353207E-16, -0.0000000000000000000, -1.000000000000000000 ) ) ;
#275 = ORIENTED_EDGE ( 'NONE', *, *, #154, .T. ) ;
#276 = DIRECTION ( 'NONE',  ( -1.224646799147353207E-16, -0.0000000000000000000, -1.000000000000000000 ) ) ;
#277 = ORIENTED_EDGE ( 'NONE', *, *, #178, .F. ) ;
#278 =( GEOMETRIC_REPRESENTATION_CONTEXT ( 3 ) GLOBAL_UNCERTAINTY_ASSIGNED_CONTEXT ( ( #32 ) ) GLOBAL_UNIT_ASSIGNED_CONTEXT ( ( #119, #222, #240 ) ) REPRESENTATION_CONTEXT ( 'NONE', 'WORKASPACE' ) );
#279 = CARTESIAN_POINT ( 'NONE',  ( -0.2999604999999996857, 0.0000000000000000000, 3.622047000000000239 ) ) ;
#280 = DIRECTION ( 'NONE',  ( -0.0000000000000000000, -0.0000000000000000000, -1.000000000000000000 ) ) ;
#281 =( NAMED_UNIT ( * ) SI_UNIT ( $, .STERADIAN. ) SOLID_ANGLE_UNIT ( ) );
#282 = CARTESIAN_POINT ( 'NONE',  ( -0.3149604999999999766, 0.0000000000000000000, 3.622047000000000239 ) ) ;
#283 =( CONVERSION_BASED_UNIT ( 'INCH', #241 ) LENGTH_UNIT ( ) NAMED_UNIT ( #78 ) );
#284 = SURFACE_STYLE_USAGE ( .BOTH. , #99 ) ;
#285 = AXIS2_PLACEMENT_3D ( 'NONE', #243, #12, #266 ) ;
#286 = CARTESIAN_POINT ( 'NONE',  ( 0.3149604999999999766, 3.857153681828499730E-17, 3.607046999999999226 ) ) ;
#287 = AXIS2_PLACEMENT_3D ( 'NONE', #187, #253, #132 ) ;
#288 = LINE ( 'NONE', #83, #267 ) ;
#289 = APPLICATION_CONTEXT ( 'automotive_design' ) ;
#290 = CIRCLE ( 'NONE', #203, 0.3146455394999999600 ) ;
#291 = LINE ( 'NONE', #156, #47 ) ;
#292 = FACE_OUTER_BOUND ( 'NONE', #299, .T. ) ;
#293 = ORIENTED_EDGE ( 'NONE', *, *, #177, .F. ) ;
#294 = ADVANCED_FACE ( 'NONE', ( #195 ), #96, .T. ) ;
#295 = CARTESIAN_POINT ( 'NONE',  ( 0.0000000000000000000, 0.0000000000000000000, 3.607046999999999226 ) ) ;
#296 = EDGE_LOOP ( 'NONE', ( #120, #22, #275, #216 ) ) ;
#297 = CARTESIAN_POINT ( 'NONE',  ( -0.2999604999999996857, 0.0000000000000000000, 3.622047000000000239 ) ) ;
#298 = PRODUCT_CONTEXT ( 'NONE', #273, 'mechanical' ) ;
#299 = EDGE_LOOP ( 'NONE', ( #110, #141, #27, #42 ) ) ;
ENDSEC;
END-ISO-10303-21;
