ISO-10303-21;
HEADER;
FILE_DESCRIPTION (( 'STEP AP214' ),
    '1' );
FILE_NAME ('07005.STEP',
    '2023-07-12T13:04:51',
    ( '' ),
    ( '' ),
    'SwSTEP 2.0',
    'SolidWorks 2023',
    '' );
FILE_SCHEMA (( 'AUTOMOTIVE_DESIGN' ));
ENDSEC;

DATA;
#1 = STYLED_ITEM ( 'NONE', ( #182 ), #234 ) ;
#2 = MECHANICAL_DESIGN_GEOMETRIC_PRESENTATION_REPRESENTATION (  '', ( #172 ), #291 ) ;
#3 = CARTESIAN_POINT ( 'NONE',  ( -0.3749999999999993894, 0.5629165124598835002, 0.000000000000000000 ) ) ;
#4 = ADVANCED_FACE ( 'NONE', ( #119 ), #21, .T. ) ;
#5 = LINE ( 'NONE', #94, #279 ) ;
#6 = AXIS2_PLACEMENT_3D ( 'NONE', #83, #178, #19 ) ;
#7 = LENGTH_MEASURE_WITH_UNIT ( LENGTH_MEASURE( 0.02539999999999999897 ), #106 );
#8 = ORIENTED_EDGE ( 'NONE', *, *, #122, .F. ) ;
#9 = EDGE_CURVE ( 'NONE', #173, #76, #265, .T. ) ;
#10 = VERTEX_POINT ( 'NONE', #152 ) ;
#11 = PRODUCT ( '07005', '07005', '', ( #86 ) ) ;
#12 = ORIENTED_EDGE ( 'NONE', *, *, #198, .T. ) ;
#13 = SURFACE_STYLE_FILL_AREA ( #168 ) ;
#14 = LENGTH_MEASURE_WITH_UNIT ( LENGTH_MEASURE( 0.02539999999999999897 ), #79 );
#15 =( GEOMETRIC_REPRESENTATION_CONTEXT ( 3 ) GLOBAL_UNCERTAINTY_ASSIGNED_CONTEXT ( ( #290 ) ) GLOBAL_UNIT_ASSIGNED_CONTEXT ( ( #188, #49, #166 ) ) REPRESENTATION_CONTEXT ( 'NONE', 'WORKASPACE' ) );
#16 = PLANE ( 'NONE',  #95 ) ;
#17 = CARTESIAN_POINT ( 'NONE',  ( 0.000000000000000000, 0.5629165124598836112, 0.000000000000000000 ) ) ;
#18 = CARTESIAN_POINT ( 'NONE',  ( 2.987958743070287834E-16, 0.5629165124598836112, 0.000000000000000000 ) ) ;
#19 = DIRECTION ( 'NONE',  ( -1.000000000000000000, -1.477291262712517609E-16, 0.000000000000000000 ) ) ;
#20 = FACE_OUTER_BOUND ( 'NONE', #170, .T. ) ;
#21 = CONICAL_SURFACE ( 'NONE', #250, 0.05000000000000000278, 0.5235987755983000369 ) ;
#22 = DIRECTION ( 'NONE',  ( -1.000000000000000000, -1.821231995776177205E-16, 0.000000000000000000 ) ) ;
#23 = APPLICATION_PROTOCOL_DEFINITION ( 'draft international standard', 'automotive_design', 1998, #75 ) ;
#24 = DIRECTION ( 'NONE',  ( -1.477291262712517609E-16, 1.000000000000000000, -0.000000000000000000 ) ) ;
#25 = PRESENTATION_LAYER_ASSIGNMENT (  '', '', ( #102 ) ) ;
#26 = AXIS2_PLACEMENT_3D ( 'NONE', #65, #157, #131 ) ;
#27 = DIRECTION ( 'NONE',  ( -1.000000000000000000, 0.000000000000000000, 0.000000000000000000 ) ) ;
#28 = ADVANCED_BREP_SHAPE_REPRESENTATION ( '07005', ( #44, #147, #116 ), #220 ) ;
#29 = FACE_OUTER_BOUND ( 'NONE', #243, .T. ) ;
#30 = VECTOR ( 'NONE', #135, 39.37007874015748143 ) ;
#31 = VERTEX_POINT ( 'NONE', #300 ) ;
#32 = ORIENTED_EDGE ( 'NONE', *, *, #197, .T. ) ;
#33 = LENGTH_MEASURE_WITH_UNIT ( LENGTH_MEASURE( 0.02539999999999999897 ), #57 );
#34 = CIRCLE ( 'NONE', #87, 0.3749999999999999445 ) ;
#35 = ORIENTED_EDGE ( 'NONE', *, *, #133, .T. ) ;
#36 = UNCERTAINTY_MEASURE_WITH_UNIT (LENGTH_MEASURE( 1.000000000000000082E-05 ), #272, 'distance_accuracy_value', 'NONE');
#37 = EDGE_LOOP ( 'NONE', ( #192, #244 ) ) ;
#38 = CARTESIAN_POINT ( 'NONE',  ( 0.000000000000000000, 0.5629165124598835002, 0.000000000000000000 ) ) ;
#39 = CARTESIAN_POINT ( 'NONE',  ( -0.3750000000000001110, 3.000000000000000444, 0.000000000000000000 ) ) ;
#40 = FACE_OUTER_BOUND ( 'NONE', #179, .T. ) ;
#41 = ADVANCED_FACE ( 'NONE', ( #20 ), #155, .T. ) ;
#42 = DIRECTION ( 'NONE',  ( -1.477291262712517609E-16, 1.000000000000000000, -0.000000000000000000 ) ) ;
#43 = LENGTH_MEASURE_WITH_UNIT ( LENGTH_MEASURE( 0.02539999999999999897 ), #143 );
#44 = MANIFOLD_SOLID_BREP ( 'Revolve - Cutting Edge', #212 ) ;
#45 = DIMENSIONAL_EXPONENTS ( 1.000000000000000000, 0.000000000000000000, 0.000000000000000000, 0.000000000000000000, 0.000000000000000000, 0.000000000000000000, 0.000000000000000000 ) ;
#46 = SHAPE_DEFINITION_REPRESENTATION ( #245, #28 ) ;
#47 = CARTESIAN_POINT ( 'NONE',  ( 6.123233995736766344E-18, 0.000000000000000000, -0.05000000000000000278 ) ) ;
#48 = DIRECTION ( 'NONE',  ( -1.477291262712517609E-16, 1.000000000000000000, -0.000000000000000000 ) ) ;
#49 =( NAMED_UNIT ( * ) PLANE_ANGLE_UNIT ( ) SI_UNIT ( $, .RADIAN. ) );
#50 = PRESENTATION_STYLE_ASSIGNMENT (( #283 ) ) ;
#51 = PRESENTATION_STYLE_ASSIGNMENT (( #222 ) ) ;
#52 = EDGE_LOOP ( 'NONE', ( #175, #82, #58, #144 ) ) ;
#53 = ORIENTED_EDGE ( 'NONE', *, *, #9, .T. ) ;
#54 = SURFACE_SIDE_STYLE ('',( #77 ) ) ;
#55 = SURFACE_STYLE_USAGE ( .BOTH. , #54 ) ;
#56 = PRODUCT_DEFINITION ( 'UNKNOWN', '', #288, #171 ) ;
#57 =( LENGTH_UNIT ( ) NAMED_UNIT ( * ) SI_UNIT ( $, .METRE. ) );
#58 = ORIENTED_EDGE ( 'NONE', *, *, #151, .T. ) ;
#59 = SURFACE_STYLE_FILL_AREA ( #292 ) ;
#60 = AXIS2_PLACEMENT_3D ( 'NONE', #139, #48, #27 ) ;
#61 =( NAMED_UNIT ( * ) PLANE_ANGLE_UNIT ( ) SI_UNIT ( $, .RADIAN. ) );
#62 =( NAMED_UNIT ( * ) SI_UNIT ( $, .STERADIAN. ) SOLID_ANGLE_UNIT ( ) );
#63 =( NAMED_UNIT ( * ) SI_UNIT ( $, .STERADIAN. ) SOLID_ANGLE_UNIT ( ) );
#64 = DIRECTION ( 'NONE',  ( 0.000000000000000000, 0.000000000000000000, -1.000000000000000000 ) ) ;
#65 = CARTESIAN_POINT ( 'NONE',  ( 0.000000000000000000, 0.000000000000000000, 0.000000000000000000 ) ) ;
#66 = CARTESIAN_POINT ( 'NONE',  ( 4.592425496802573602E-17, 0.5629165124598833891, -0.3749999999999999445 ) ) ;
#67 = VECTOR ( 'NONE', #140, 39.37007874015748143 ) ;
#68 = DIRECTION ( 'NONE',  ( 0.000000000000000000, 1.000000000000000000, 0.000000000000000000 ) ) ;
#69 = CARTESIAN_POINT ( 'NONE',  ( 0.3749999999999999445, 3.000000000000000444, 0.000000000000000000 ) ) ;
#70 = DIRECTION ( 'NONE',  ( 1.000000000000000000, 0.000000000000000000, 0.000000000000000000 ) ) ;
#71 = FACE_OUTER_BOUND ( 'NONE', #217, .T. ) ;
#72 = PRESENTATION_LAYER_ASSIGNMENT (  '', '', ( #196 ) ) ;
#73 = CARTESIAN_POINT ( 'NONE',  ( 0.000000000000000000, 0.5629165124598835002, 0.000000000000000000 ) ) ;
#74 =( NAMED_UNIT ( * ) SI_UNIT ( $, .STERADIAN. ) SOLID_ANGLE_UNIT ( ) );
#75 = APPLICATION_CONTEXT ( 'automotive_design' ) ;
#76 = VERTEX_POINT ( 'NONE', #39 ) ;
#77 = SURFACE_STYLE_FILL_AREA ( #286 ) ;
#78 = MECHANICAL_DESIGN_GEOMETRIC_PRESENTATION_REPRESENTATION (  '', ( #132 ), #218 ) ;
#79 =( LENGTH_UNIT ( ) NAMED_UNIT ( * ) SI_UNIT ( $, .METRE. ) );
#80 = ORIENTED_EDGE ( 'NONE', *, *, #151, .F. ) ;
#81 = FACE_OUTER_BOUND ( 'NONE', #193, .T. ) ;
#82 = ORIENTED_EDGE ( 'NONE', *, *, #133, .F. ) ;
#83 = CARTESIAN_POINT ( 'NONE',  ( 2.987958743070287834E-16, 0.5629165124598835002, 0.000000000000000000 ) ) ;
#84 =( LENGTH_UNIT ( ) NAMED_UNIT ( * ) SI_UNIT ( $, .METRE. ) );
#85 = FILL_AREA_STYLE_COLOUR ( '', #274 ) ;
#86 = PRODUCT_CONTEXT ( 'NONE', #75, 'mechanical' ) ;
#87 = AXIS2_PLACEMENT_3D ( 'NONE', #38, #180, #154 ) ;
#88 = FILL_AREA_STYLE ('',( #302 ) ) ;
#89 =( GEOMETRIC_REPRESENTATION_CONTEXT ( 3 ) GLOBAL_UNCERTAINTY_ASSIGNED_CONTEXT ( ( #149 ) ) GLOBAL_UNIT_ASSIGNED_CONTEXT ( ( #201, #61, #127 ) ) REPRESENTATION_CONTEXT ( 'NONE', 'WORKASPACE' ) );
#90 = APPLICATION_CONTEXT ( 'automotive_design' ) ;
#91 = DIRECTION ( 'NONE',  ( -1.477291262712517609E-16, 1.000000000000000000, -0.000000000000000000 ) ) ;
#92 = DIRECTION ( 'NONE',  ( 1.000000000000000000, 1.477291262712517609E-16, 0.000000000000000000 ) ) ;
#93 = CIRCLE ( 'NONE', #26, 0.05000000000000000278 ) ;
#94 = CARTESIAN_POINT ( 'NONE',  ( 0.3749999999999997780, 3.000000000000000444, 4.592425496802572370E-17 ) ) ;
#95 = AXIS2_PLACEMENT_3D ( 'NONE', #17, #295, #103 ) ;
#96 =( NAMED_UNIT ( * ) PLANE_ANGLE_UNIT ( ) SI_UNIT ( $, .RADIAN. ) );
#97 = AXIS2_PLACEMENT_3D ( 'NONE', #254, #281, #142 ) ;
#98 = CARTESIAN_POINT ( 'NONE',  ( 0.000000000000000000, 0.000000000000000000, 0.000000000000000000 ) ) ;
#99 = VERTEX_POINT ( 'NONE', #184 ) ;
#100 = ORIENTED_EDGE ( 'NONE', *, *, #230, .T. ) ;
#101 = STYLED_ITEM ( 'NONE', ( #51 ), #246 ) ;
#102 = STYLED_ITEM ( 'NONE', ( #148 ), #4 ) ;
#103 = DIRECTION ( 'NONE',  ( 0.000000000000000000, -0.000000000000000000, 1.000000000000000000 ) ) ;
#104 = ORIENTED_EDGE ( 'NONE', *, *, #230, .F. ) ;
#105 = SURFACE_SIDE_STYLE ('',( #59 ) ) ;
#106 =( LENGTH_UNIT ( ) NAMED_UNIT ( * ) SI_UNIT ( $, .METRE. ) );
#107 = CARTESIAN_POINT ( 'NONE',  ( -6.123233995736772199E-17, 3.000000000000000444, 0.000000000000000000 ) ) ;
#108 = DIRECTION ( 'NONE',  ( -1.477291262712517609E-16, 1.000000000000000000, -0.000000000000000000 ) ) ;
#109 =( LENGTH_UNIT ( ) NAMED_UNIT ( * ) SI_UNIT ( $, .METRE. ) );
#110 = EDGE_CURVE ( 'NONE', #99, #76, #159, .T. ) ;
#111 = PRESENTATION_STYLE_ASSIGNMENT (( #248 ) ) ;
#112 = DIRECTION ( 'NONE',  ( -1.000000000000000000, 0.000000000000000000, 0.000000000000000000 ) ) ;
#113 = PRESENTATION_LAYER_ASSIGNMENT (  '', '', ( #1 ) ) ;
#114 = LENGTH_MEASURE_WITH_UNIT ( LENGTH_MEASURE( 0.02539999999999999897 ), #282 );
#115 = APPLICATION_PROTOCOL_DEFINITION ( 'draft international standard', 'automotive_design', 1998, #90 ) ;
#116 = AXIS2_PLACEMENT_3D ( 'NONE', #255, #253, #70 ) ;
#117 = CIRCLE ( 'NONE', #216, 0.05000000000000000278 ) ;
#118 = CARTESIAN_POINT ( 'NONE',  ( 0.3749999999999999445, 0.5629165124598836112, 4.592425496802574219E-17 ) ) ;
#119 = FACE_OUTER_BOUND ( 'NONE', #223, .T. ) ;
#120 = CONICAL_SURFACE ( 'NONE', #97, 0.05000000000000000278, 0.5235987755983000369 ) ;
#121 = ORIENTED_EDGE ( 'NONE', *, *, #110, .T. ) ;
#122 = EDGE_CURVE ( 'NONE', #173, #199, #204, .T. ) ;
#123 = VERTEX_POINT ( 'NONE', #205 ) ;
#124 = SURFACE_SIDE_STYLE ('',( #13 ) ) ;
#125 = MECHANICAL_DESIGN_GEOMETRIC_PRESENTATION_REPRESENTATION (  '', ( #1 ), #278 ) ;
#126 = CARTESIAN_POINT ( 'NONE',  ( 0.000000000000000000, 0.000000000000000000, 0.000000000000000000 ) ) ;
#127 =( NAMED_UNIT ( * ) SI_UNIT ( $, .STERADIAN. ) SOLID_ANGLE_UNIT ( ) );
#128 =( CONVERSION_BASED_UNIT ( 'INCH', #43 ) LENGTH_UNIT ( ) NAMED_UNIT ( #45 ) );
#129 = COLOUR_RGB ( '',1.000000000000000000, 0.000000000000000000, 0.000000000000000000 ) ;
#130 = AXIS2_PLACEMENT_3D ( 'NONE', #69, #309, #92 ) ;
#131 = DIRECTION ( 'NONE',  ( 0.000000000000000000, 0.000000000000000000, -1.000000000000000000 ) ) ;
#132 = STYLED_ITEM ( 'NONE', ( #50 ), #167 ) ;
#133 = EDGE_CURVE ( 'NONE', #31, #10, #93, .T. ) ;
#134 = DIRECTION ( 'NONE',  ( -1.000000000000000000, 0.000000000000000000, 0.000000000000000000 ) ) ;
#135 = DIRECTION ( 'NONE',  ( 6.123233995736778362E-17, 0.8660254037844380415, -0.5000000000000009992 ) ) ;
#136 = CIRCLE ( 'NONE', #60, 0.3750000000000000555 ) ;
#137 = DIRECTION ( 'NONE',  ( -1.477291262712517609E-16, 1.000000000000000000, -0.000000000000000000 ) ) ;
#138 = LENGTH_MEASURE_WITH_UNIT ( LENGTH_MEASURE( 0.02539999999999999897 ), #109 );
#139 = CARTESIAN_POINT ( 'NONE',  ( -6.123233995736770966E-17, 3.000000000000000444, 0.000000000000000000 ) ) ;
#140 = DIRECTION ( 'NONE',  ( 0.000000000000000000, 0.8660254037844380415, 0.5000000000000009992 ) ) ;
#141 = AXIS2_PLACEMENT_3D ( 'NONE', #297, #208, #134 ) ;
#142 = DIRECTION ( 'NONE',  ( 0.000000000000000000, 0.000000000000000000, 1.000000000000000000 ) ) ;
#143 =( LENGTH_UNIT ( ) NAMED_UNIT ( * ) SI_UNIT ( $, .METRE. ) );
#144 = ORIENTED_EDGE ( 'NONE', *, *, #284, .T. ) ;
#145 = ORIENTED_EDGE ( 'NONE', *, *, #110, .F. ) ;
#146 = COLOUR_RGB ( '',1.000000000000000000, 0.000000000000000000, 0.000000000000000000 ) ;
#147 = MANIFOLD_SOLID_BREP ( 'Revolve - Tool Body (Tipped Off)', #158 ) ;
#148 = PRESENTATION_STYLE_ASSIGNMENT (( #55 ) ) ;
#149 = UNCERTAINTY_MEASURE_WITH_UNIT (LENGTH_MEASURE( 1.000000000000000082E-05 ), #201, 'distance_accuracy_value', 'NONE');
#150 = ORIENTED_EDGE ( 'NONE', *, *, #176, .F. ) ;
#151 = EDGE_CURVE ( 'NONE', #31, #123, #206, .T. ) ;
#152 = CARTESIAN_POINT ( 'NONE',  ( 2.602374448188125350E-17, 0.000000000000000000, -0.05000000000000000278 ) ) ;
#153 = UNCERTAINTY_MEASURE_WITH_UNIT (LENGTH_MEASURE( 1.000000000000000082E-05 ), #276, 'distance_accuracy_value', 'NONE');
#154 = DIRECTION ( 'NONE',  ( 0.000000000000000000, 0.000000000000000000, -1.000000000000000000 ) ) ;
#155 = CYLINDRICAL_SURFACE ( 'NONE', #141, 0.3749999999999998335 ) ;
#156 = PLANE ( 'NONE',  #6 ) ;
#157 = DIRECTION ( 'NONE',  ( -0.000000000000000000, -1.000000000000000000, -0.000000000000000000 ) ) ;
#158 = CLOSED_SHELL ( 'NONE', ( #41, #259, #287, #183 ) ) ;
#159 = CIRCLE ( 'NONE', #226, 0.3750000000000000555 ) ;
#160 = PRESENTATION_STYLE_ASSIGNMENT (( #275 ) ) ;
#161 = DIMENSIONAL_EXPONENTS ( 1.000000000000000000, 0.000000000000000000, 0.000000000000000000, 0.000000000000000000, 0.000000000000000000, 0.000000000000000000, 0.000000000000000000 ) ;
#162 =( CONVERSION_BASED_UNIT ( 'INCH', #138 ) LENGTH_UNIT ( ) NAMED_UNIT ( #209 ) );
#163 = CARTESIAN_POINT ( 'NONE',  ( 2.987958743070287834E-16, 0.5629165124598836112, 0.000000000000000000 ) ) ;
#164 = PLANE ( 'NONE',  #130 ) ;
#165 = AXIS2_PLACEMENT_3D ( 'NONE', #18, #269, #22 ) ;
#166 =( NAMED_UNIT ( * ) SI_UNIT ( $, .STERADIAN. ) SOLID_ANGLE_UNIT ( ) );
#167 = ADVANCED_FACE ( 'NONE', ( #306 ), #120, .T. ) ;
#168 = FILL_AREA_STYLE ('',( #299 ) ) ;
#169 = ORIENTED_EDGE ( 'NONE', *, *, #197, .F. ) ;
#170 = EDGE_LOOP ( 'NONE', ( #194, #100, #150, #293 ) ) ;
#171 = PRODUCT_DEFINITION_CONTEXT ( 'detailed design', #90, 'design' ) ;
#172 = STYLED_ITEM ( 'NONE', ( #111 ), #44 ) ;
#173 = VERTEX_POINT ( 'NONE', #3 ) ;
#174 = FILL_AREA_STYLE_COLOUR ( '', #146 ) ;
#175 = ORIENTED_EDGE ( 'NONE', *, *, #207, .F. ) ;
#176 = EDGE_CURVE ( 'NONE', #76, #99, #136, .T. ) ;
#177 = UNCERTAINTY_MEASURE_WITH_UNIT (LENGTH_MEASURE( 1.000000000000000082E-05 ), #162, 'distance_accuracy_value', 'NONE');
#178 = DIRECTION ( 'NONE',  ( -1.477291262712517609E-16, 1.000000000000000000, 0.000000000000000000 ) ) ;
#179 = EDGE_LOOP ( 'NONE', ( #104, #32, #53, #145 ) ) ;
#180 = DIRECTION ( 'NONE',  ( -0.000000000000000000, -1.000000000000000000, -0.000000000000000000 ) ) ;
#181 = CIRCLE ( 'NONE', #266, 0.3749999999999996669 ) ;
#182 = PRESENTATION_STYLE_ASSIGNMENT (( #225 ) ) ;
#183 = ADVANCED_FACE ( 'NONE', ( #71 ), #164, .F. ) ;
#184 = CARTESIAN_POINT ( 'NONE',  ( 0.3749999999999999445, 3.000000000000000444, 4.592425496802574219E-17 ) ) ;
#185 = LENGTH_MEASURE_WITH_UNIT ( LENGTH_MEASURE( 0.02539999999999999897 ), #84 );
#186 = SURFACE_SIDE_STYLE ('',( #231 ) ) ;
#187 = DIRECTION ( 'NONE',  ( 0.000000000000000000, 0.000000000000000000, -1.000000000000000000 ) ) ;
#188 =( CONVERSION_BASED_UNIT ( 'INCH', #7 ) LENGTH_UNIT ( ) NAMED_UNIT ( #270 ) );
#189 = DIRECTION ( 'NONE',  ( -0.000000000000000000, -1.000000000000000000, -0.000000000000000000 ) ) ;
#190 = DIMENSIONAL_EXPONENTS ( 1.000000000000000000, 0.000000000000000000, 0.000000000000000000, 0.000000000000000000, 0.000000000000000000, 0.000000000000000000, 0.000000000000000000 ) ;
#191 =( NAMED_UNIT ( * ) PLANE_ANGLE_UNIT ( ) SI_UNIT ( $, .RADIAN. ) );
#192 = ORIENTED_EDGE ( 'NONE', *, *, #284, .F. ) ;
#193 = EDGE_LOOP ( 'NONE', ( #8, #169 ) ) ;
#194 = ORIENTED_EDGE ( 'NONE', *, *, #122, .T. ) ;
#195 = MECHANICAL_DESIGN_GEOMETRIC_PRESENTATION_REPRESENTATION (  '', ( #102 ), #89 ) ;
#196 = STYLED_ITEM ( 'NONE', ( #160 ), #147 ) ;
#197 = EDGE_CURVE ( 'NONE', #199, #173, #181, .T. ) ;
#198 = EDGE_CURVE ( 'NONE', #289, #123, #203, .T. ) ;
#199 = VERTEX_POINT ( 'NONE', #118 ) ;
#200 = DIRECTION ( 'NONE',  ( 0.000000000000000000, -1.000000000000000000, -0.000000000000000000 ) ) ;
#201 =( CONVERSION_BASED_UNIT ( 'INCH', #14 ) LENGTH_UNIT ( ) NAMED_UNIT ( #190 ) );
#202 = SURFACE_STYLE_FILL_AREA ( #247 ) ;
#203 = CIRCLE ( 'NONE', #241, 0.3749999999999999445 ) ;
#204 = CIRCLE ( 'NONE', #165, 0.3749999999999996669 ) ;
#205 = CARTESIAN_POINT ( 'NONE',  ( 0.000000000000000000, 0.5629165124598833891, 0.3749999999999999445 ) ) ;
#206 = LINE ( 'NONE', #235, #67 ) ;
#207 = EDGE_CURVE ( 'NONE', #10, #289, #214, .T. ) ;
#208 = DIRECTION ( 'NONE',  ( -1.477291262712517609E-16, 1.000000000000000000, -0.000000000000000000 ) ) ;
#209 = DIMENSIONAL_EXPONENTS ( 1.000000000000000000, 0.000000000000000000, 0.000000000000000000, 0.000000000000000000, 0.000000000000000000, 0.000000000000000000, 0.000000000000000000 ) ;
#210 =( NAMED_UNIT ( * ) PLANE_ANGLE_UNIT ( ) SI_UNIT ( $, .RADIAN. ) );
#211 = PRODUCT_RELATED_PRODUCT_CATEGORY ( 'part', '', ( #11 ) ) ;
#212 = CLOSED_SHELL ( 'NONE', ( #4, #246, #167, #234 ) ) ;
#213 = PRESENTATION_LAYER_ASSIGNMENT (  '', '', ( #132 ) ) ;
#214 = LINE ( 'NONE', #47, #30 ) ;
#215 = FILL_AREA_STYLE ('',( #232 ) ) ;
#216 = AXIS2_PLACEMENT_3D ( 'NONE', #249, #304, #187 ) ;
#217 = EDGE_LOOP ( 'NONE', ( #260, #121 ) ) ;
#218 =( GEOMETRIC_REPRESENTATION_CONTEXT ( 3 ) GLOBAL_UNCERTAINTY_ASSIGNED_CONTEXT ( ( #153 ) ) GLOBAL_UNIT_ASSIGNED_CONTEXT ( ( #276, #191, #74 ) ) REPRESENTATION_CONTEXT ( 'NONE', 'WORKASPACE' ) );
#219 = ORIENTED_EDGE ( 'NONE', *, *, #307, .F. ) ;
#220 =( GEOMETRIC_REPRESENTATION_CONTEXT ( 3 ) GLOBAL_UNCERTAINTY_ASSIGNED_CONTEXT ( ( #177 ) ) GLOBAL_UNIT_ASSIGNED_CONTEXT ( ( #162, #210, #229 ) ) REPRESENTATION_CONTEXT ( 'NONE', 'WORKASPACE' ) );
#221 =( NAMED_UNIT ( * ) PLANE_ANGLE_UNIT ( ) SI_UNIT ( $, .RADIAN. ) );
#222 = SURFACE_STYLE_USAGE ( .BOTH. , #124 ) ;
#223 = EDGE_LOOP ( 'NONE', ( #219, #258, #12, #80 ) ) ;
#224 = CYLINDRICAL_SURFACE ( 'NONE', #239, 0.3749999999999998335 ) ;
#225 = SURFACE_STYLE_USAGE ( .BOTH. , #105 ) ;
#226 = AXIS2_PLACEMENT_3D ( 'NONE', #251, #108, #112 ) ;
#227 = DIMENSIONAL_EXPONENTS ( 1.000000000000000000, 0.000000000000000000, 0.000000000000000000, 0.000000000000000000, 0.000000000000000000, 0.000000000000000000, 0.000000000000000000 ) ;
#228 = DIRECTION ( 'NONE',  ( 0.000000000000000000, 0.000000000000000000, 1.000000000000000000 ) ) ;
#229 =( NAMED_UNIT ( * ) SI_UNIT ( $, .STERADIAN. ) SOLID_ANGLE_UNIT ( ) );
#230 = EDGE_CURVE ( 'NONE', #199, #99, #5, .T. ) ;
#231 = SURFACE_STYLE_FILL_AREA ( #88 ) ;
#232 = FILL_AREA_STYLE_COLOUR ( '', #238 ) ;
#233 = DIRECTION ( 'NONE',  ( -1.000000000000000000, -1.821231995776177205E-16, 0.000000000000000000 ) ) ;
#234 = ADVANCED_FACE ( 'NONE', ( #29 ), #296, .T. ) ;
#235 = CARTESIAN_POINT ( 'NONE',  ( 0.000000000000000000, 0.000000000000000000, 0.05000000000000000278 ) ) ;
#236 = SURFACE_SIDE_STYLE ('',( #256 ) ) ;
#237 = DIMENSIONAL_EXPONENTS ( 1.000000000000000000, 0.000000000000000000, 0.000000000000000000, 0.000000000000000000, 0.000000000000000000, 0.000000000000000000, 0.000000000000000000 ) ;
#238 = COLOUR_RGB ( '',1.000000000000000000, 0.000000000000000000, 0.000000000000000000 ) ;
#239 = AXIS2_PLACEMENT_3D ( 'NONE', #107, #91, #277 ) ;
#240 = ORIENTED_EDGE ( 'NONE', *, *, #307, .T. ) ;
#241 = AXIS2_PLACEMENT_3D ( 'NONE', #73, #189, #252 ) ;
#242 = MECHANICAL_DESIGN_GEOMETRIC_PRESENTATION_REPRESENTATION (  '', ( #196 ), #15 ) ;
#243 = EDGE_LOOP ( 'NONE', ( #35, #240 ) ) ;
#244 = ORIENTED_EDGE ( 'NONE', *, *, #198, .F. ) ;
#245 = PRODUCT_DEFINITION_SHAPE ( 'NONE', 'NONE',  #56 ) ;
#246 = ADVANCED_FACE ( 'NONE', ( #263 ), #16, .T. ) ;
#247 = FILL_AREA_STYLE ('',( #85 ) ) ;
#248 = SURFACE_STYLE_USAGE ( .BOTH. , #305 ) ;
#249 = CARTESIAN_POINT ( 'NONE',  ( 0.000000000000000000, 0.000000000000000000, 0.000000000000000000 ) ) ;
#250 = AXIS2_PLACEMENT_3D ( 'NONE', #98, #68, #228 ) ;
#251 = CARTESIAN_POINT ( 'NONE',  ( -6.123233995736770966E-17, 3.000000000000000444, 0.000000000000000000 ) ) ;
#252 = DIRECTION ( 'NONE',  ( 0.000000000000000000, 0.000000000000000000, -1.000000000000000000 ) ) ;
#253 = DIRECTION ( 'NONE',  ( 0.000000000000000000, 0.000000000000000000, 1.000000000000000000 ) ) ;
#254 = CARTESIAN_POINT ( 'NONE',  ( 0.000000000000000000, 0.000000000000000000, 0.000000000000000000 ) ) ;
#255 = CARTESIAN_POINT ( 'NONE',  ( 0.000000000000000000, 0.000000000000000000, 0.000000000000000000 ) ) ;
#256 = SURFACE_STYLE_FILL_AREA ( #215 ) ;
#257 = COLOUR_RGB ( '',1.000000000000000000, 0.000000000000000000, 0.000000000000000000 ) ;
#258 = ORIENTED_EDGE ( 'NONE', *, *, #207, .T. ) ;
#259 = ADVANCED_FACE ( 'NONE', ( #81 ), #156, .F. ) ;
#260 = ORIENTED_EDGE ( 'NONE', *, *, #176, .T. ) ;
#261 = COLOUR_RGB ( '',0.7921568627450980005, 0.8196078431372548767, 0.9333333333333333481 ) ;
#262 = FILL_AREA_STYLE_COLOUR ( '', #257 ) ;
#263 = FACE_OUTER_BOUND ( 'NONE', #37, .T. ) ;
#264 =( NAMED_UNIT ( * ) SI_UNIT ( $, .STERADIAN. ) SOLID_ANGLE_UNIT ( ) );
#265 = LINE ( 'NONE', #301, #280 ) ;
#266 = AXIS2_PLACEMENT_3D ( 'NONE', #163, #137, #233 ) ;
#267 =( NAMED_UNIT ( * ) PLANE_ANGLE_UNIT ( ) SI_UNIT ( $, .RADIAN. ) );
#268 =( CONVERSION_BASED_UNIT ( 'INCH', #33 ) LENGTH_UNIT ( ) NAMED_UNIT ( #161 ) );
#269 = DIRECTION ( 'NONE',  ( -1.477291262712517609E-16, 1.000000000000000000, -0.000000000000000000 ) ) ;
#270 = DIMENSIONAL_EXPONENTS ( 1.000000000000000000, 0.000000000000000000, 0.000000000000000000, 0.000000000000000000, 0.000000000000000000, 0.000000000000000000, 0.000000000000000000 ) ;
#271 = UNCERTAINTY_MEASURE_WITH_UNIT (LENGTH_MEASURE( 1.000000000000000082E-05 ), #268, 'distance_accuracy_value', 'NONE');
#272 =( CONVERSION_BASED_UNIT ( 'INCH', #185 ) LENGTH_UNIT ( ) NAMED_UNIT ( #237 ) );
#273 = MECHANICAL_DESIGN_GEOMETRIC_PRESENTATION_REPRESENTATION (  '', ( #101 ), #308 ) ;
#274 = COLOUR_RGB ( '',0.7921568627450980005, 0.8196078431372548767, 0.9333333333333333481 ) ;
#275 = SURFACE_STYLE_USAGE ( .BOTH. , #186 ) ;
#276 =( CONVERSION_BASED_UNIT ( 'INCH', #114 ) LENGTH_UNIT ( ) NAMED_UNIT ( #227 ) );
#277 = DIRECTION ( 'NONE',  ( -1.000000000000000000, 0.000000000000000000, 0.000000000000000000 ) ) ;
#278 =( GEOMETRIC_REPRESENTATION_CONTEXT ( 3 ) GLOBAL_UNCERTAINTY_ASSIGNED_CONTEXT ( ( #294 ) ) GLOBAL_UNIT_ASSIGNED_CONTEXT ( ( #128, #96, #264 ) ) REPRESENTATION_CONTEXT ( 'NONE', 'WORKASPACE' ) );
#279 = VECTOR ( 'NONE', #24, 39.37007874015748143 ) ;
#280 = VECTOR ( 'NONE', #42, 39.37007874015748143 ) ;
#281 = DIRECTION ( 'NONE',  ( 0.000000000000000000, 1.000000000000000000, 0.000000000000000000 ) ) ;
#282 =( LENGTH_UNIT ( ) NAMED_UNIT ( * ) SI_UNIT ( $, .METRE. ) );
#283 = SURFACE_STYLE_USAGE ( .BOTH. , #236 ) ;
#284 = EDGE_CURVE ( 'NONE', #123, #289, #34, .T. ) ;
#285 = AXIS2_PLACEMENT_3D ( 'NONE', #126, #200, #64 ) ;
#286 = FILL_AREA_STYLE ('',( #262 ) ) ;
#287 = ADVANCED_FACE ( 'NONE', ( #40 ), #224, .T. ) ;
#288 = PRODUCT_DEFINITION_FORMATION_WITH_SPECIFIED_SOURCE ( 'ANY', '', #11, .NOT_KNOWN. ) ;
#289 = VERTEX_POINT ( 'NONE', #66 ) ;
#290 = UNCERTAINTY_MEASURE_WITH_UNIT (LENGTH_MEASURE( 1.000000000000000082E-05 ), #188, 'distance_accuracy_value', 'NONE');
#291 =( GEOMETRIC_REPRESENTATION_CONTEXT ( 3 ) GLOBAL_UNCERTAINTY_ASSIGNED_CONTEXT ( ( #36 ) ) GLOBAL_UNIT_ASSIGNED_CONTEXT ( ( #272, #267, #63 ) ) REPRESENTATION_CONTEXT ( 'NONE', 'WORKASPACE' ) );
#292 = FILL_AREA_STYLE ('',( #174 ) ) ;
#293 = ORIENTED_EDGE ( 'NONE', *, *, #9, .F. ) ;
#294 = UNCERTAINTY_MEASURE_WITH_UNIT (LENGTH_MEASURE( 1.000000000000000082E-05 ), #128, 'distance_accuracy_value', 'NONE');
#295 = DIRECTION ( 'NONE',  ( 0.000000000000000000, 1.000000000000000000, 0.000000000000000000 ) ) ;
#296 = PLANE ( 'NONE',  #285 ) ;
#297 = CARTESIAN_POINT ( 'NONE',  ( -6.123233995736772199E-17, 3.000000000000000444, 0.000000000000000000 ) ) ;
#298 = PRESENTATION_LAYER_ASSIGNMENT (  '', '', ( #172 ) ) ;
#299 = FILL_AREA_STYLE_COLOUR ( '', #129 ) ;
#300 = CARTESIAN_POINT ( 'NONE',  ( 0.000000000000000000, 0.000000000000000000, 0.05000000000000000278 ) ) ;
#301 = CARTESIAN_POINT ( 'NONE',  ( -0.3749999999999998890, 3.000000000000000444, 0.000000000000000000 ) ) ;
#302 = FILL_AREA_STYLE_COLOUR ( '', #261 ) ;
#303 = PRESENTATION_LAYER_ASSIGNMENT (  '', '', ( #101 ) ) ;
#304 = DIRECTION ( 'NONE',  ( -0.000000000000000000, -1.000000000000000000, -0.000000000000000000 ) ) ;
#305 = SURFACE_SIDE_STYLE ('',( #202 ) ) ;
#306 = FACE_OUTER_BOUND ( 'NONE', #52, .T. ) ;
#307 = EDGE_CURVE ( 'NONE', #10, #31, #117, .T. ) ;
#308 =( GEOMETRIC_REPRESENTATION_CONTEXT ( 3 ) GLOBAL_UNCERTAINTY_ASSIGNED_CONTEXT ( ( #271 ) ) GLOBAL_UNIT_ASSIGNED_CONTEXT ( ( #268, #221, #62 ) ) REPRESENTATION_CONTEXT ( 'NONE', 'WORKASPACE' ) );
#309 = DIRECTION ( 'NONE',  ( 1.477291262712517609E-16, -1.000000000000000000, 0.000000000000000000 ) ) ;
ENDSEC;
END-ISO-10303-21;
