ISO-10303-21;
HEADER;
FILE_DESCRIPTION (( 'STEP AP214' ),
    '1' );
FILE_NAME ('Micro_SBMM-120-472X.STEP',
    '2021-09-02T17:26:15',
    ( '' ),
    ( '' ),
    'SwSTEP 2.0',
    'SolidWorks 2020',
    '' );
FILE_SCHEMA (( 'AUTOMOTIVE_DESIGN' ));
ENDSEC;

DATA;
#1 = LINE ( 'NONE', #267, #168 ) ;
#2 = CIRCLE ( 'NONE', #73, 0.2362199999999999578 ) ;
#3 = AXIS2_PLACEMENT_3D ( 'NONE', #33, #139, #5 ) ;
#4 = DIMENSIONAL_EXPONENTS ( 1.000000000000000000, 0.0000000000000000000, 0.0000000000000000000, 0.0000000000000000000, 0.0000000000000000000, 0.0000000000000000000, 0.0000000000000000000 ) ;
#5 = DIRECTION ( 'NONE',  ( 0.0000000000000000000, 1.000000000000000000, 0.0000000000000000000 ) ) ;
#6 = ORIENTED_EDGE ( 'NONE', *, *, #312, .F. ) ;
#7 = FACE_OUTER_BOUND ( 'NONE', #280, .T. ) ;
#8 = DIRECTION ( 'NONE',  ( -0.0000000000000000000, -0.0000000000000000000, -1.000000000000000000 ) ) ;
#9 = ORIENTED_EDGE ( 'NONE', *, *, #36, .T. ) ;
#10 = DIRECTION ( 'NONE',  ( -1.000000000000000000, 0.0000000000000000000, 0.0000000000000000000 ) ) ;
#11 = PRODUCT_DEFINITION_SHAPE ( 'NONE', 'NONE',  #89 ) ;
#12 = DIRECTION ( 'NONE',  ( -0.7071067811865540120, 0.0000000000000000000, -0.7071067811865410224 ) ) ;
#13 = FILL_AREA_STYLE ('',( #301 ) ) ;
#14 = ORIENTED_EDGE ( 'NONE', *, *, #42, .F. ) ;
#15 = EDGE_CURVE ( 'NONE', #206, #51, #44, .T. ) ;
#16 = CIRCLE ( 'NONE', #307, 0.2212204999999994870 ) ;
#17 = SURFACE_SIDE_STYLE ('',( #156 ) ) ;
#18 = EDGE_LOOP ( 'NONE', ( #208, #119, #78, #14 ) ) ;
#19 = CARTESIAN_POINT ( 'NONE',  ( 0.1574804999999999122, 1.928579902531246179E-17, 0.4122875453334601259 ) ) ;
#20 = APPLICATION_PROTOCOL_DEFINITION ( 'draft international standard', 'automotive_design', 1998, #281 ) ;
#21 = VERTEX_POINT ( 'NONE', #251 ) ;
#22 = LENGTH_MEASURE_WITH_UNIT ( LENGTH_MEASURE( 0.02539999999999999897 ), #132 );
#23 = VERTEX_POINT ( 'NONE', #203 ) ;
#24 = AXIS2_PLACEMENT_3D ( 'NONE', #71, #273, #123 ) ;
#25 = CARTESIAN_POINT ( 'NONE',  ( 0.0000000000000000000, 0.0000000000000000000, 0.2362200000000000133 ) ) ;
#26 = SPHERICAL_SURFACE ( 'NONE', #34, 0.2362199999999999855 ) ;
#27 = EDGE_CURVE ( 'NONE', #182, #79, #16, .T. ) ;
#28 = PRESENTATION_STYLE_ASSIGNMENT (( #265 ) ) ;
#29 = CIRCLE ( 'NONE', #212, 0.1574804999999997457 ) ;
#30 = AXIS2_PLACEMENT_3D ( 'NONE', #323, #299, #293 ) ;
#31 =( LENGTH_UNIT ( ) NAMED_UNIT ( * ) SI_UNIT ( $, .METRE. ) );
#32 = CARTESIAN_POINT ( 'NONE',  ( 0.0000000000000000000, 0.0000000000000000000, 3.937007999999999619 ) ) ;
#33 = CARTESIAN_POINT ( 'NONE',  ( 0.0000000000000000000, 0.0000000000000000000, 0.2362200000000000133 ) ) ;
#34 = AXIS2_PLACEMENT_3D ( 'NONE', #241, #112, #163 ) ;
#35 = CARTESIAN_POINT ( 'NONE',  ( -0.2212204999999994870, 0.0000000000000000000, 3.937007999999999619 ) ) ;
#36 = EDGE_CURVE ( 'NONE', #255, #144, #2, .T. ) ;
#37 = CARTESIAN_POINT ( 'NONE',  ( 0.2362204999999999999, 2.892866792179873879E-17, 2.677164999999999573 ) ) ;
#38 = ORIENTED_EDGE ( 'NONE', *, *, #114, .T. ) ;
#39 = DIRECTION ( 'NONE',  ( 0.0000000000000000000, 0.0000000000000000000, 1.000000000000000000 ) ) ;
#40 = COLOUR_RGB ( '',0.7921568627450980005, 0.8196078431372548767, 0.9333333333333333481 ) ;
#41 = CARTESIAN_POINT ( 'NONE',  ( 0.0000000000000000000, 0.0000000000000000000, 3.937007999999999619 ) ) ;
#42 = EDGE_CURVE ( 'NONE', #21, #279, #252, .T. ) ;
#43 =( CONVERSION_BASED_UNIT ( 'INCH', #149 ) LENGTH_UNIT ( ) NAMED_UNIT ( #4 ) );
#44 = LINE ( 'NONE', #304, #314 ) ;
#45 =( CONVERSION_BASED_UNIT ( 'INCH', #22 ) LENGTH_UNIT ( ) NAMED_UNIT ( #72 ) );
#46 = ORIENTED_EDGE ( 'NONE', *, *, #27, .F. ) ;
#47 = PRESENTATION_LAYER_ASSIGNMENT (  '', '', ( #196 ) ) ;
#48 = VECTOR ( 'NONE', #179, 39.37007874015748143 ) ;
#49 = CARTESIAN_POINT ( 'NONE',  ( 0.0000000000000000000, 0.0000000000000000000, 3.937007999999999619 ) ) ;
#50 = CARTESIAN_POINT ( 'NONE',  ( 0.0000000000000000000, 0.0000000000000000000, 0.0000000000000000000 ) ) ;
#51 = VERTEX_POINT ( 'NONE', #19 ) ;
#52 = ORIENTED_EDGE ( 'NONE', *, *, #209, .F. ) ;
#53 = CONICAL_SURFACE ( 'NONE', #242, 0.2212204999999994870, 0.7853981633974573828 ) ;
#54 = DIRECTION ( 'NONE',  ( 0.0000000000000000000, 0.0000000000000000000, 1.000000000000000000 ) ) ;
#55 = ADVANCED_FACE ( 'NONE', ( #80 ), #260, .T. ) ;
#56 = DIRECTION ( 'NONE',  ( -0.0000000000000000000, -0.0000000000000000000, -1.000000000000000000 ) ) ;
#57 = ADVANCED_FACE ( 'NONE', ( #240 ), #318, .T. ) ;
#58 = SURFACE_SIDE_STYLE ('',( #289 ) ) ;
#59 = UNCERTAINTY_MEASURE_WITH_UNIT (LENGTH_MEASURE( 1.000000000000000082E-05 ), #43, 'distance_accuracy_value', 'NONE');
#60 =( CONVERSION_BASED_UNIT ( 'INCH', #215 ) LENGTH_UNIT ( ) NAMED_UNIT ( #194 ) );
#61 = CIRCLE ( 'NONE', #162, 0.1574804999999997457 ) ;
#62 = DIRECTION ( 'NONE',  ( 0.7071067811865540120, 8.659560562355011744E-17, -0.7071067811865410224 ) ) ;
#63 = DIRECTION ( 'NONE',  ( -1.000000000000000000, 0.0000000000000000000, 0.0000000000000000000 ) ) ;
#64 = DIRECTION ( 'NONE',  ( 0.0000000000000000000, 0.0000000000000000000, 1.000000000000000000 ) ) ;
#65 = VERTEX_POINT ( 'NONE', #165 ) ;
#66 = CIRCLE ( 'NONE', #110, 0.1574804999999999122 ) ;
#67 =( GEOMETRIC_REPRESENTATION_CONTEXT ( 3 ) GLOBAL_UNCERTAINTY_ASSIGNED_CONTEXT ( ( #285 ) ) GLOBAL_UNIT_ASSIGNED_CONTEXT ( ( #45, #335, #76 ) ) REPRESENTATION_CONTEXT ( 'NONE', 'WORKASPACE' ) );
#68 = ADVANCED_FACE ( 'NONE', ( #217 ), #26, .T. ) ;
#69 = CARTESIAN_POINT ( 'NONE',  ( 0.0000000000000000000, 0.0000000000000000000, 0.4122875453334601259 ) ) ;
#70 = ORIENTED_EDGE ( 'NONE', *, *, #254, .F. ) ;
#71 = CARTESIAN_POINT ( 'NONE',  ( 0.0000000000000000000, 0.0000000000000000000, 2.677164999999999573 ) ) ;
#72 = DIMENSIONAL_EXPONENTS ( 1.000000000000000000, 0.0000000000000000000, 0.0000000000000000000, 0.0000000000000000000, 0.0000000000000000000, 0.0000000000000000000, 0.0000000000000000000 ) ;
#73 = AXIS2_PLACEMENT_3D ( 'NONE', #104, #228, #75 ) ;
#74 = ORIENTED_EDGE ( 'NONE', *, *, #120, .F. ) ;
#75 = DIRECTION ( 'NONE',  ( 0.0000000000000000000, 0.0000000000000000000, 1.000000000000000000 ) ) ;
#76 =( NAMED_UNIT ( * ) SI_UNIT ( $, .STERADIAN. ) SOLID_ANGLE_UNIT ( ) );
#77 = ORIENTED_EDGE ( 'NONE', *, *, #294, .F. ) ;
#78 = ORIENTED_EDGE ( 'NONE', *, *, #209, .T. ) ;
#79 = VERTEX_POINT ( 'NONE', #342 ) ;
#80 = FACE_OUTER_BOUND ( 'NONE', #308, .T. ) ;
#81 = DIRECTION ( 'NONE',  ( 1.000000000000000000, 1.224646799147353207E-16, -0.0000000000000000000 ) ) ;
#82 = STYLED_ITEM ( 'NONE', ( #201 ), #204 ) ;
#83 = UNCERTAINTY_MEASURE_WITH_UNIT (LENGTH_MEASURE( 1.000000000000000082E-05 ), #60, 'distance_accuracy_value', 'NONE');
#84 = FILL_AREA_STYLE ('',( #317 ) ) ;
#85 = CARTESIAN_POINT ( 'NONE',  ( -0.1574804999999999122, 0.0000000000000000000, 0.4122875453334601259 ) ) ;
#86 = CARTESIAN_POINT ( 'NONE',  ( 0.0000000000000000000, 0.0000000000000000000, 3.937007999999999619 ) ) ;
#87 = VECTOR ( 'NONE', #137, 39.37007874015748854 ) ;
#88 = CIRCLE ( 'NONE', #24, 0.2362204999999999999 ) ;
#89 = PRODUCT_DEFINITION ( 'UNKNOWN', '', #117, #266 ) ;
#90 = FACE_OUTER_BOUND ( 'NONE', #235, .T. ) ;
#91 = EDGE_CURVE ( 'NONE', #181, #279, #192, .T. ) ;
#92 = SPHERICAL_SURFACE ( 'NONE', #3, 0.2362199999999999855 ) ;
#93 = VERTEX_POINT ( 'NONE', #85 ) ;
#94 = DIRECTION ( 'NONE',  ( -1.000000000000000000, 0.0000000000000000000, 0.0000000000000000000 ) ) ;
#95 = EDGE_CURVE ( 'NONE', #181, #93, #1, .T. ) ;
#96 = DIRECTION ( 'NONE',  ( -0.0000000000000000000, -0.0000000000000000000, -1.000000000000000000 ) ) ;
#97 = DIRECTION ( 'NONE',  ( -1.000000000000000000, 0.0000000000000000000, 0.0000000000000000000 ) ) ;
#98 = ORIENTED_EDGE ( 'NONE', *, *, #152, .T. ) ;
#99 = CIRCLE ( 'NONE', #140, 0.2362204999999999999 ) ;
#100 = AXIS2_PLACEMENT_3D ( 'NONE', #220, #247, #10 ) ;
#101 = EDGE_CURVE ( 'NONE', #23, #144, #134, .T. ) ;
#102 = LINE ( 'NONE', #227, #48 ) ;
#103 = EDGE_LOOP ( 'NONE', ( #219, #225, #276, #98 ) ) ;
#104 = CARTESIAN_POINT ( 'NONE',  ( 0.0000000000000000000, 0.0000000000000000000, 0.2362200000000000133 ) ) ;
#105 = CARTESIAN_POINT ( 'NONE',  ( 0.0000000000000000000, 0.0000000000000000000, 2.830708625000631695 ) ) ;
#106 = ORIENTED_EDGE ( 'NONE', *, *, #120, .T. ) ;
#107 = ORIENTED_EDGE ( 'NONE', *, *, #298, .F. ) ;
#108 = ORIENTED_EDGE ( 'NONE', *, *, #254, .T. ) ;
#109 = DIRECTION ( 'NONE',  ( -0.0000000000000000000, -0.0000000000000000000, -1.000000000000000000 ) ) ;
#110 = AXIS2_PLACEMENT_3D ( 'NONE', #236, #109, #313 ) ;
#111 = PRESENTATION_LAYER_ASSIGNMENT (  '', '', ( #82 ) ) ;
#112 = DIRECTION ( 'NONE',  ( 1.000000000000000000, 0.0000000000000000000, 0.0000000000000000000 ) ) ;
#113 = DIRECTION ( 'NONE',  ( -0.0000000000000000000, -0.0000000000000000000, -1.000000000000000000 ) ) ;
#114 = EDGE_CURVE ( 'NONE', #79, #65, #160, .T. ) ;
#115 = CARTESIAN_POINT ( 'NONE',  ( 0.0000000000000000000, 1.446430334472938776E-17, 3.414809992080329023E-17 ) ) ;
#116 = AXIS2_PLACEMENT_3D ( 'NONE', #25, #81, #189 ) ;
#117 = PRODUCT_DEFINITION_FORMATION_WITH_SPECIFIED_SOURCE ( 'ANY', '', #164, .NOT_KNOWN. ) ;
#118 = CARTESIAN_POINT ( 'NONE',  ( -0.1574804999999997457, 2.410723347355558489E-17, 2.165353999999999779 ) ) ;
#119 = ORIENTED_EDGE ( 'NONE', *, *, #330, .T. ) ;
#120 = EDGE_CURVE ( 'NONE', #206, #181, #29, .T. ) ;
#121 = DIRECTION ( 'NONE',  ( 1.000000000000000000, 0.0000000000000000000, 0.0000000000000000000 ) ) ;
#122 = AXIS2_PLACEMENT_3D ( 'NONE', #32, #138, #188 ) ;
#123 = DIRECTION ( 'NONE',  ( 1.000000000000000000, 0.0000000000000000000, 0.0000000000000000000 ) ) ;
#124 = DIRECTION ( 'NONE',  ( 0.1520568940268436087, 0.0000000000000000000, 0.9883717423008963054 ) ) ;
#125 = ADVANCED_FACE ( 'NONE', ( #211 ), #53, .T. ) ;
#126 = DIRECTION ( 'NONE',  ( 1.000000000000000000, 0.0000000000000000000, 0.0000000000000000000 ) ) ;
#127 = DIRECTION ( 'NONE',  ( 0.0000000000000000000, 0.0000000000000000000, 1.000000000000000000 ) ) ;
#128 = AXIS2_PLACEMENT_3D ( 'NONE', #327, #96, #63 ) ;
#129 = MECHANICAL_DESIGN_GEOMETRIC_PRESENTATION_REPRESENTATION (  '', ( #82 ), #67 ) ;
#130 = ORIENTED_EDGE ( 'NONE', *, *, #114, .F. ) ;
#131 = ORIENTED_EDGE ( 'NONE', *, *, #298, .T. ) ;
#132 =( LENGTH_UNIT ( ) NAMED_UNIT ( * ) SI_UNIT ( $, .METRE. ) );
#133 = ORIENTED_EDGE ( 'NONE', *, *, #101, .T. ) ;
#134 = CIRCLE ( 'NONE', #116, 0.2362199999999999855 ) ;
#135 = ORIENTED_EDGE ( 'NONE', *, *, #306, .T. ) ;
#136 = DIRECTION ( 'NONE',  ( -1.000000000000000000, 0.0000000000000000000, 0.0000000000000000000 ) ) ;
#137 = DIRECTION ( 'NONE',  ( -0.1520568940268436087, 1.862159885582623258E-17, 0.9883717423008963054 ) ) ;
#138 = DIRECTION ( 'NONE',  ( -0.0000000000000000000, -0.0000000000000000000, -1.000000000000000000 ) ) ;
#139 = DIRECTION ( 'NONE',  ( 1.000000000000000000, 0.0000000000000000000, 0.0000000000000000000 ) ) ;
#140 = AXIS2_PLACEMENT_3D ( 'NONE', #158, #54, #262 ) ;
#141 = AXIS2_PLACEMENT_3D ( 'NONE', #264, #250, #121 ) ;
#142 = CYLINDRICAL_SURFACE ( 'NONE', #316, 0.1574804999999998012 ) ;
#143 =( NAMED_UNIT ( * ) SI_UNIT ( $, .STERADIAN. ) SOLID_ANGLE_UNIT ( ) );
#144 = VERTEX_POINT ( 'NONE', #115 ) ;
#145 =( NAMED_UNIT ( * ) PLANE_ANGLE_UNIT ( ) SI_UNIT ( $, .RADIAN. ) );
#146 = CIRCLE ( 'NONE', #176, 0.1574804999999999122 ) ;
#147 = DIRECTION ( 'NONE',  ( 1.000000000000000000, 0.0000000000000000000, 0.0000000000000000000 ) ) ;
#148 = ADVANCED_FACE ( 'NONE', ( #290 ), #186, .T. ) ;
#149 = LENGTH_MEASURE_WITH_UNIT ( LENGTH_MEASURE( 0.02539999999999999897 ), #205 );
#150 = DIRECTION ( 'NONE',  ( -0.0000000000000000000, -0.0000000000000000000, -1.000000000000000000 ) ) ;
#151 = DIRECTION ( 'NONE',  ( 1.000000000000000000, 0.0000000000000000000, 0.0000000000000000000 ) ) ;
#152 = EDGE_CURVE ( 'NONE', #279, #210, #99, .T. ) ;
#153 = DIRECTION ( 'NONE',  ( -0.0000000000000000000, -0.0000000000000000000, -1.000000000000000000 ) ) ;
#154 = DIRECTION ( 'NONE',  ( 0.0000000000000000000, 0.0000000000000000000, 1.000000000000000000 ) ) ;
#155 = ORIENTED_EDGE ( 'NONE', *, *, #271, .F. ) ;
#156 = SURFACE_STYLE_FILL_AREA ( #13 ) ;
#157 = ORIENTED_EDGE ( 'NONE', *, *, #294, .T. ) ;
#158 = CARTESIAN_POINT ( 'NONE',  ( 0.0000000000000000000, 0.0000000000000000000, 2.677164999999999573 ) ) ;
#159 = EDGE_CURVE ( 'NONE', #51, #23, #66, .T. ) ;
#160 = LINE ( 'NONE', #238, #325 ) ;
#161 = DIRECTION ( 'NONE',  ( -1.000000000000000000, 0.0000000000000000000, 0.0000000000000000000 ) ) ;
#162 = AXIS2_PLACEMENT_3D ( 'NONE', #224, #328, #97 ) ;
#163 = DIRECTION ( 'NONE',  ( 0.0000000000000000000, 1.000000000000000000, 0.0000000000000000000 ) ) ;
#164 = PRODUCT ( 'Micro_SBMM-120-472X', 'Micro_SBMM-120-472X', '', ( #331 ) ) ;
#165 = CARTESIAN_POINT ( 'NONE',  ( 0.2362204999999999999, 2.892866792179873879E-17, 3.922007999999999495 ) ) ;
#166 = CARTESIAN_POINT ( 'NONE',  ( -0.2362204999999999999, 0.0000000000000000000, 2.677164999999999573 ) ) ;
#167 = APPLICATION_CONTEXT ( 'automotive_design' ) ;
#168 = VECTOR ( 'NONE', #113, 39.37007874015748143 ) ;
#169 = FACE_OUTER_BOUND ( 'NONE', #178, .T. ) ;
#170 = AXIS2_PLACEMENT_3D ( 'NONE', #41, #39, #147 ) ;
#171 = MANIFOLD_SOLID_BREP ( 'Cut-Revolve3', #234 ) ;
#172 = CARTESIAN_POINT ( 'NONE',  ( 0.0000000000000000000, 0.0000000000000000000, 0.0000000000000000000 ) ) ;
#173 = ORIENTED_EDGE ( 'NONE', *, *, #27, .T. ) ;
#174 = FACE_OUTER_BOUND ( 'NONE', #329, .T. ) ;
#175 = EDGE_CURVE ( 'NONE', #65, #21, #287, .T. ) ;
#176 = AXIS2_PLACEMENT_3D ( 'NONE', #69, #8, #249 ) ;
#177 = DIRECTION ( 'NONE',  ( 1.000000000000000000, 0.0000000000000000000, 0.0000000000000000000 ) ) ;
#178 = EDGE_LOOP ( 'NONE', ( #195, #223, #334, #107, #202 ) ) ;
#179 = DIRECTION ( 'NONE',  ( -0.0000000000000000000, -0.0000000000000000000, -1.000000000000000000 ) ) ;
#180 = ORIENTED_EDGE ( 'NONE', *, *, #95, .T. ) ;
#181 = VERTEX_POINT ( 'NONE', #118 ) ;
#182 = VERTEX_POINT ( 'NONE', #244 ) ;
#183 = DIRECTION ( 'NONE',  ( 0.0000000000000000000, 0.0000000000000000000, 1.000000000000000000 ) ) ;
#184 = ORIENTED_EDGE ( 'NONE', *, *, #91, .F. ) ;
#185 = ADVANCED_FACE ( 'NONE', ( #169 ), #218, .T. ) ;
#186 = CYLINDRICAL_SURFACE ( 'NONE', #229, 0.2362204999999999999 ) ;
#187 = CONICAL_SURFACE ( 'NONE', #213, 0.2598425499999996724, 0.1526490347536204051 ) ;
#188 = DIRECTION ( 'NONE',  ( -1.000000000000000000, 0.0000000000000000000, 0.0000000000000000000 ) ) ;
#189 = DIRECTION ( 'NONE',  ( -1.224646799147353207E-16, 1.000000000000000000, 0.0000000000000000000 ) ) ;
#190 = EDGE_CURVE ( 'NONE', #206, #210, #222, .T. ) ;
#191 = DIRECTION ( 'NONE',  ( -1.000000000000000000, 0.0000000000000000000, 0.0000000000000000000 ) ) ;
#192 = LINE ( 'NONE', #216, #87 ) ;
#193 = DIRECTION ( 'NONE',  ( -0.0000000000000000000, -0.0000000000000000000, -1.000000000000000000 ) ) ;
#194 = DIMENSIONAL_EXPONENTS ( 1.000000000000000000, 0.0000000000000000000, 0.0000000000000000000, 0.0000000000000000000, 0.0000000000000000000, 0.0000000000000000000, 0.0000000000000000000 ) ;
#195 = ORIENTED_EDGE ( 'NONE', *, *, #312, .T. ) ;
#196 = STYLED_ITEM ( 'NONE', ( #28 ), #171 ) ;
#197 = LINE ( 'NONE', #35, #243 ) ;
#198 = CIRCLE ( 'NONE', #321, 0.1574804999999999122 ) ;
#199 = FACE_OUTER_BOUND ( 'NONE', #341, .T. ) ;
#200 = ORIENTED_EDGE ( 'NONE', *, *, #152, .F. ) ;
#201 = PRESENTATION_STYLE_ASSIGNMENT (( #332 ) ) ;
#202 = ORIENTED_EDGE ( 'NONE', *, *, #95, .F. ) ;
#203 = CARTESIAN_POINT ( 'NONE',  ( 1.928579902531246179E-17, -0.1574804999999999122, 0.4122875453334601259 ) ) ;
#204 = ADVANCED_BREP_SHAPE_REPRESENTATION ( 'Micro_SBMM-120-472X', ( #171, #291 ), #261 ) ;
#205 =( LENGTH_UNIT ( ) NAMED_UNIT ( * ) SI_UNIT ( $, .METRE. ) );
#206 = VERTEX_POINT ( 'NONE', #297 ) ;
#207 = SHAPE_DEFINITION_REPRESENTATION ( #11, #204 ) ;
#208 = ORIENTED_EDGE ( 'NONE', *, *, #271, .T. ) ;
#209 = EDGE_CURVE ( 'NONE', #210, #279, #88, .T. ) ;
#210 = VERTEX_POINT ( 'NONE', #37 ) ;
#211 = FACE_OUTER_BOUND ( 'NONE', #284, .T. ) ;
#212 = AXIS2_PLACEMENT_3D ( 'NONE', #288, #56, #161 ) ;
#213 = AXIS2_PLACEMENT_3D ( 'NONE', #105, #183, #126 ) ;
#214 = DIRECTION ( 'NONE',  ( -1.000000000000000000, 0.0000000000000000000, 0.0000000000000000000 ) ) ;
#215 = LENGTH_MEASURE_WITH_UNIT ( LENGTH_MEASURE( 0.02539999999999999897 ), #31 );
#216 = CARTESIAN_POINT ( 'NONE',  ( -0.2598425499999996724, 3.182153471397856583E-17, 2.830708625000631695 ) ) ;
#217 = FACE_OUTER_BOUND ( 'NONE', #339, .T. ) ;
#218 = CYLINDRICAL_SURFACE ( 'NONE', #128, 0.1574804999999998012 ) ;
#219 = ORIENTED_EDGE ( 'NONE', *, *, #330, .F. ) ;
#220 = CARTESIAN_POINT ( 'NONE',  ( 0.0000000000000000000, 0.0000000000000000000, 0.4122875453334601259 ) ) ;
#221 = AXIS2_PLACEMENT_3D ( 'NONE', #320, #269, #214 ) ;
#222 = LINE ( 'NONE', #296, #340 ) ;
#223 = ORIENTED_EDGE ( 'NONE', *, *, #15, .T. ) ;
#224 = CARTESIAN_POINT ( 'NONE',  ( 0.0000000000000000000, 0.0000000000000000000, 2.165353999999999779 ) ) ;
#225 = ORIENTED_EDGE ( 'NONE', *, *, #175, .T. ) ;
#226 = CARTESIAN_POINT ( 'NONE',  ( 0.0000000000000000000, 0.0000000000000000000, 3.937007999999999619 ) ) ;
#227 = CARTESIAN_POINT ( 'NONE',  ( 0.2362204999999999999, 2.892866792179873879E-17, 3.937007999999999619 ) ) ;
#228 = DIRECTION ( 'NONE',  ( -1.000000000000000000, 0.0000000000000000000, 0.0000000000000000000 ) ) ;
#229 = AXIS2_PLACEMENT_3D ( 'NONE', #344, #286, #136 ) ;
#230 = CIRCLE ( 'NONE', #100, 0.1574804999999999122 ) ;
#231 = ORIENTED_EDGE ( 'NONE', *, *, #263, .T. ) ;
#232 = ORIENTED_EDGE ( 'NONE', *, *, #101, .F. ) ;
#233 = ORIENTED_EDGE ( 'NONE', *, *, #175, .F. ) ;
#234 = CLOSED_SHELL ( 'NONE', ( #185, #283, #319, #55, #148, #57, #343, #125, #237, #68, #268 ) ) ;
#235 = EDGE_LOOP ( 'NONE', ( #305, #106, #180, #77, #259 ) ) ;
#236 = CARTESIAN_POINT ( 'NONE',  ( 0.0000000000000000000, 0.0000000000000000000, 0.4122875453334601259 ) ) ;
#237 = ADVANCED_FACE ( 'NONE', ( #174 ), #309, .T. ) ;
#238 = CARTESIAN_POINT ( 'NONE',  ( 0.2212204999999994870, 2.709169772307763601E-17, 3.937007999999999619 ) ) ;
#239 = MECHANICAL_DESIGN_GEOMETRIC_PRESENTATION_REPRESENTATION (  '', ( #196 ), #253 ) ;
#240 = FACE_OUTER_BOUND ( 'NONE', #103, .T. ) ;
#241 = CARTESIAN_POINT ( 'NONE',  ( 0.0000000000000000000, 0.0000000000000000000, 0.2362200000000000133 ) ) ;
#242 = AXIS2_PLACEMENT_3D ( 'NONE', #86, #292, #191 ) ;
#243 = VECTOR ( 'NONE', #12, 39.37007874015748143 ) ;
#244 = CARTESIAN_POINT ( 'NONE',  ( -0.2212204999999994870, 0.0000000000000000000, 3.937007999999999619 ) ) ;
#245 = ORIENTED_EDGE ( 'NONE', *, *, #190, .F. ) ;
#246 = DIRECTION ( 'NONE',  ( -1.000000000000000000, 0.0000000000000000000, 0.0000000000000000000 ) ) ;
#247 = DIRECTION ( 'NONE',  ( -0.0000000000000000000, -0.0000000000000000000, -1.000000000000000000 ) ) ;
#248 = EDGE_LOOP ( 'NONE', ( #173, #108 ) ) ;
#249 = DIRECTION ( 'NONE',  ( -1.000000000000000000, 0.0000000000000000000, 0.0000000000000000000 ) ) ;
#250 = DIRECTION ( 'NONE',  ( 0.0000000000000000000, 0.0000000000000000000, -1.000000000000000000 ) ) ;
#251 = CARTESIAN_POINT ( 'NONE',  ( -0.2362204999999999999, 0.0000000000000000000, 3.922007999999999495 ) ) ;
#252 = LINE ( 'NONE', #336, #295 ) ;
#253 =( GEOMETRIC_REPRESENTATION_CONTEXT ( 3 ) GLOBAL_UNCERTAINTY_ASSIGNED_CONTEXT ( ( #83 ) ) GLOBAL_UNIT_ASSIGNED_CONTEXT ( ( #60, #145, #143 ) ) REPRESENTATION_CONTEXT ( 'NONE', 'WORKASPACE' ) );
#254 = EDGE_CURVE ( 'NONE', #79, #182, #302, .T. ) ;
#255 = VERTEX_POINT ( 'NONE', #272 ) ;
#256 = DIRECTION ( 'NONE',  ( 0.0000000000000000000, 0.0000000000000000000, 1.000000000000000000 ) ) ;
#257 = ORIENTED_EDGE ( 'NONE', *, *, #263, .F. ) ;
#258 = FACE_OUTER_BOUND ( 'NONE', #248, .T. ) ;
#259 = ORIENTED_EDGE ( 'NONE', *, *, #159, .F. ) ;
#260 = CONICAL_SURFACE ( 'NONE', #221, 0.2212204999999994870, 0.7853981633974573828 ) ;
#261 =( GEOMETRIC_REPRESENTATION_CONTEXT ( 3 ) GLOBAL_UNCERTAINTY_ASSIGNED_CONTEXT ( ( #59 ) ) GLOBAL_UNIT_ASSIGNED_CONTEXT ( ( #43, #338, #303 ) ) REPRESENTATION_CONTEXT ( 'NONE', 'WORKASPACE' ) );
#262 = DIRECTION ( 'NONE',  ( 1.000000000000000000, 0.0000000000000000000, 0.0000000000000000000 ) ) ;
#263 = EDGE_CURVE ( 'NONE', #182, #21, #197, .T. ) ;
#264 = CARTESIAN_POINT ( 'NONE',  ( 0.0000000000000000000, 0.0000000000000000000, 3.922007999999999495 ) ) ;
#265 = SURFACE_STYLE_USAGE ( .BOTH. , #58 ) ;
#266 = PRODUCT_DEFINITION_CONTEXT ( 'detailed design', #167, 'design' ) ;
#267 = CARTESIAN_POINT ( 'NONE',  ( -0.1574804999999998012, 0.0000000000000000000, 0.0000000000000000000 ) ) ;
#268 = ADVANCED_FACE ( 'NONE', ( #90 ), #142, .T. ) ;
#269 = DIRECTION ( 'NONE',  ( 0.0000000000000000000, 0.0000000000000000000, -1.000000000000000000 ) ) ;
#270 = DIRECTION ( 'NONE',  ( -0.0000000000000000000, -0.0000000000000000000, -1.000000000000000000 ) ) ;
#271 = EDGE_CURVE ( 'NONE', #21, #65, #326, .T. ) ;
#272 = CARTESIAN_POINT ( 'NONE',  ( 0.0000000000000000000, 0.1574804999999999122, 0.4122875453334601259 ) ) ;
#273 = DIRECTION ( 'NONE',  ( 0.0000000000000000000, 0.0000000000000000000, 1.000000000000000000 ) ) ;
#274 = CARTESIAN_POINT ( 'NONE',  ( 0.0000000000000000000, 0.0000000000000000000, 2.830708625000631695 ) ) ;
#275 = APPLICATION_PROTOCOL_DEFINITION ( 'draft international standard', 'automotive_design', 1998, #167 ) ;
#276 = ORIENTED_EDGE ( 'NONE', *, *, #42, .T. ) ;
#277 = ORIENTED_EDGE ( 'NONE', *, *, #91, .T. ) ;
#278 = PLANE ( 'NONE',  #333 ) ;
#279 = VERTEX_POINT ( 'NONE', #166 ) ;
#280 = EDGE_LOOP ( 'NONE', ( #135, #337, #133, #311 ) ) ;
#281 = APPLICATION_CONTEXT ( 'automotive_design' ) ;
#282 = DIRECTION ( 'NONE',  ( 1.000000000000000000, 0.0000000000000000000, -0.0000000000000000000 ) ) ;
#283 = ADVANCED_FACE ( 'NONE', ( #7 ), #92, .T. ) ;
#284 = EDGE_LOOP ( 'NONE', ( #130, #46, #231, #233 ) ) ;
#285 = UNCERTAINTY_MEASURE_WITH_UNIT (LENGTH_MEASURE( 1.000000000000000082E-05 ), #45, 'distance_accuracy_value', 'NONE');
#286 = DIRECTION ( 'NONE',  ( -0.0000000000000000000, -0.0000000000000000000, -1.000000000000000000 ) ) ;
#287 = CIRCLE ( 'NONE', #141, 0.2362204999999999999 ) ;
#288 = CARTESIAN_POINT ( 'NONE',  ( 0.0000000000000000000, 0.0000000000000000000, 2.165353999999999779 ) ) ;
#289 = SURFACE_STYLE_FILL_AREA ( #84 ) ;
#290 = FACE_OUTER_BOUND ( 'NONE', #18, .T. ) ;
#291 = AXIS2_PLACEMENT_3D ( 'NONE', #50, #154, #177 ) ;
#292 = DIRECTION ( 'NONE',  ( 0.0000000000000000000, 0.0000000000000000000, -1.000000000000000000 ) ) ;
#293 = DIRECTION ( 'NONE',  ( 1.000000000000000000, 0.0000000000000000000, 0.0000000000000000000 ) ) ;
#294 = EDGE_CURVE ( 'NONE', #23, #93, #230, .T. ) ;
#295 = VECTOR ( 'NONE', #153, 39.37007874015748143 ) ;
#296 = CARTESIAN_POINT ( 'NONE',  ( 0.2598425499999996724, 0.0000000000000000000, 2.830708625000631695 ) ) ;
#297 = CARTESIAN_POINT ( 'NONE',  ( 0.1574804999999997457, 0.0000000000000000000, 2.165353999999999779 ) ) ;
#298 = EDGE_CURVE ( 'NONE', #93, #255, #198, .T. ) ;
#299 = DIRECTION ( 'NONE',  ( 0.0000000000000000000, 0.0000000000000000000, -1.000000000000000000 ) ) ;
#300 = PRODUCT_RELATED_PRODUCT_CATEGORY ( 'part', '', ( #164 ) ) ;
#301 = FILL_AREA_STYLE_COLOUR ( '', #40 ) ;
#302 = CIRCLE ( 'NONE', #170, 0.2212204999999994870 ) ;
#303 =( NAMED_UNIT ( * ) SI_UNIT ( $, .STERADIAN. ) SOLID_ANGLE_UNIT ( ) );
#304 = CARTESIAN_POINT ( 'NONE',  ( 0.1574804999999998012, 1.928579902531245255E-17, 0.0000000000000000000 ) ) ;
#305 = ORIENTED_EDGE ( 'NONE', *, *, #15, .F. ) ;
#306 = EDGE_CURVE ( 'NONE', #255, #51, #146, .T. ) ;
#307 = AXIS2_PLACEMENT_3D ( 'NONE', #49, #127, #151 ) ;
#308 = EDGE_LOOP ( 'NONE', ( #70, #38, #155, #257 ) ) ;
#309 = CONICAL_SURFACE ( 'NONE', #315, 0.2598425499999996724, 0.1526490347536204051 ) ;
#310 = ORIENTED_EDGE ( 'NONE', *, *, #190, .T. ) ;
#311 = ORIENTED_EDGE ( 'NONE', *, *, #36, .F. ) ;
#312 = EDGE_CURVE ( 'NONE', #181, #206, #61, .T. ) ;
#313 = DIRECTION ( 'NONE',  ( -1.000000000000000000, 0.0000000000000000000, 0.0000000000000000000 ) ) ;
#314 = VECTOR ( 'NONE', #150, 39.37007874015748143 ) ;
#315 = AXIS2_PLACEMENT_3D ( 'NONE', #274, #64, #322 ) ;
#316 = AXIS2_PLACEMENT_3D ( 'NONE', #172, #193, #246 ) ;
#317 = FILL_AREA_STYLE_COLOUR ( '', #345 ) ;
#318 = CYLINDRICAL_SURFACE ( 'NONE', #122, 0.2362204999999999999 ) ;
#319 = ADVANCED_FACE ( 'NONE', ( #199 ), #187, .T. ) ;
#320 = CARTESIAN_POINT ( 'NONE',  ( 0.0000000000000000000, 0.0000000000000000000, 3.937007999999999619 ) ) ;
#321 = AXIS2_PLACEMENT_3D ( 'NONE', #324, #270, #94 ) ;
#322 = DIRECTION ( 'NONE',  ( 1.000000000000000000, 0.0000000000000000000, 0.0000000000000000000 ) ) ;
#323 = CARTESIAN_POINT ( 'NONE',  ( 0.0000000000000000000, 0.0000000000000000000, 3.922007999999999495 ) ) ;
#324 = CARTESIAN_POINT ( 'NONE',  ( 0.0000000000000000000, 0.0000000000000000000, 0.4122875453334601259 ) ) ;
#325 = VECTOR ( 'NONE', #62, 39.37007874015748143 ) ;
#326 = CIRCLE ( 'NONE', #30, 0.2362204999999999999 ) ;
#327 = CARTESIAN_POINT ( 'NONE',  ( 0.0000000000000000000, 0.0000000000000000000, 0.0000000000000000000 ) ) ;
#328 = DIRECTION ( 'NONE',  ( -0.0000000000000000000, -0.0000000000000000000, -1.000000000000000000 ) ) ;
#329 = EDGE_LOOP ( 'NONE', ( #184, #74, #310, #200 ) ) ;
#330 = EDGE_CURVE ( 'NONE', #65, #210, #102, .T. ) ;
#331 = PRODUCT_CONTEXT ( 'NONE', #281, 'mechanical' ) ;
#332 = SURFACE_STYLE_USAGE ( .BOTH. , #17 ) ;
#333 = AXIS2_PLACEMENT_3D ( 'NONE', #226, #256, #282 ) ;
#334 = ORIENTED_EDGE ( 'NONE', *, *, #306, .F. ) ;
#335 =( NAMED_UNIT ( * ) PLANE_ANGLE_UNIT ( ) SI_UNIT ( $, .RADIAN. ) );
#336 = CARTESIAN_POINT ( 'NONE',  ( -0.2362204999999999999, 0.0000000000000000000, 3.937007999999999619 ) ) ;
#337 = ORIENTED_EDGE ( 'NONE', *, *, #159, .T. ) ;
#338 =( NAMED_UNIT ( * ) PLANE_ANGLE_UNIT ( ) SI_UNIT ( $, .RADIAN. ) );
#339 = EDGE_LOOP ( 'NONE', ( #232, #157, #131, #9 ) ) ;
#340 = VECTOR ( 'NONE', #124, 39.37007874015748854 ) ;
#341 = EDGE_LOOP ( 'NONE', ( #6, #277, #52, #245 ) ) ;
#342 = CARTESIAN_POINT ( 'NONE',  ( 0.2212204999999994870, 2.801018282243818278E-17, 3.937007999999999619 ) ) ;
#343 = ADVANCED_FACE ( 'NONE', ( #258 ), #278, .T. ) ;
#344 = CARTESIAN_POINT ( 'NONE',  ( 0.0000000000000000000, 0.0000000000000000000, 3.937007999999999619 ) ) ;
#345 = COLOUR_RGB ( '',0.7921568627450980005, 0.8196078431372548767, 0.9333333333333333481 ) ;
ENDSEC;
END-ISO-10303-21;
