ISO-10303-21;
HEADER;
FILE_DESCRIPTION (( 'STEP AP214' ),
    '1' );
FILE_NAME ('Micro_DR-250-2.STEP',
    '2021-09-01T15:31:46',
    ( '' ),
    ( '' ),
    'SwSTEP 2.0',
    'SolidWorks 2020',
    '' );
FILE_SCHEMA (( 'AUTOMOTIVE_DESIGN' ));
ENDSEC;

DATA;
#1 = DIRECTION ( 'NONE',  ( -0.0000000000000000000, -0.0000000000000000000, 1.000000000000000000 ) ) ;
#2 = CARTESIAN_POINT ( 'NONE',  ( 0.1250000000000000000, 1.530808498934191509E-17, 3.235000000000000320 ) ) ;
#3 = ORIENTED_EDGE ( 'NONE', *, *, #175, .T. ) ;
#4 = LINE ( 'NONE', #302, #279 ) ;
#5 = DIRECTION ( 'NONE',  ( 0.0000000000000000000, 0.0000000000000000000, 1.000000000000000000 ) ) ;
#6 = ORIENTED_EDGE ( 'NONE', *, *, #55, .F. ) ;
#7 = ORIENTED_EDGE ( 'NONE', *, *, #281, .T. ) ;
#8 = AXIS2_PLACEMENT_3D ( 'NONE', #51, #253, #27 ) ;
#9 = VERTEX_POINT ( 'NONE', #129 ) ;
#10 = VERTEX_POINT ( 'NONE', #107 ) ;
#11 = ORIENTED_EDGE ( 'NONE', *, *, #164, .F. ) ;
#12 = LINE ( 'NONE', #245, #181 ) ;
#13 = ORIENTED_EDGE ( 'NONE', *, *, #224, .T. ) ;
#14 = EDGE_CURVE ( 'NONE', #270, #264, #85, .T. ) ;
#15 =( CONVERSION_BASED_UNIT ( 'INCH', #153 ) LENGTH_UNIT ( ) NAMED_UNIT ( #104 ) );
#16 = CIRCLE ( 'NONE', #313, 0.1249500000000004635 ) ;
#17 = LINE ( 'NONE', #317, #28 ) ;
#18 = SURFACE_STYLE_USAGE ( .BOTH. , #247 ) ;
#19 = DIRECTION ( 'NONE',  ( 0.0000000000000000000, 0.0000000000000000000, -1.000000000000000000 ) ) ;
#20 = EDGE_CURVE ( 'NONE', #218, #264, #12, .T. ) ;
#21 = FACE_OUTER_BOUND ( 'NONE', #132, .T. ) ;
#22 = PRODUCT ( 'Micro_DR-250-2', 'Micro_DR-250-2', '', ( #26 ) ) ;
#23 = DIRECTION ( 'NONE',  ( 1.000000000000000000, 0.0000000000000000000, 0.0000000000000000000 ) ) ;
#24 = CARTESIAN_POINT ( 'NONE',  ( 0.0000000000000000000, 0.0000000000000000000, 0.0000000000000000000 ) ) ;
#25 = CARTESIAN_POINT ( 'NONE',  ( 0.0000000000000000000, 0.0000000000000000000, 3.235000000000000320 ) ) ;
#26 = PRODUCT_CONTEXT ( 'NONE', #322, 'mechanical' ) ;
#27 = DIRECTION ( 'NONE',  ( 1.000000000000000000, 0.0000000000000000000, 0.0000000000000000000 ) ) ;
#28 = VECTOR ( 'NONE', #268, 39.37007874015748143 ) ;
#29 = CARTESIAN_POINT ( 'NONE',  ( 0.0000000000000000000, 0.0000000000000000000, 39.37007874015748143 ) ) ;
#30 = ADVANCED_FACE ( 'NONE', ( #21 ), #118, .T. ) ;
#31 = DIRECTION ( 'NONE',  ( 1.000000000000000000, 0.0000000000000000000, 0.0000000000000000000 ) ) ;
#32 = CARTESIAN_POINT ( 'NONE',  ( 0.1249500000000002276, 0.0000000000000000000, 3.235000000000000320 ) ) ;
#33 = AXIS2_PLACEMENT_3D ( 'NONE', #274, #45, #249 ) ;
#34 =( GEOMETRIC_REPRESENTATION_CONTEXT ( 3 ) GLOBAL_UNCERTAINTY_ASSIGNED_CONTEXT ( ( #116 ) ) GLOBAL_UNIT_ASSIGNED_CONTEXT ( ( #15, #185, #88 ) ) REPRESENTATION_CONTEXT ( 'NONE', 'WORKASPACE' ) );
#35 =( NAMED_UNIT ( * ) PLANE_ANGLE_UNIT ( ) SI_UNIT ( $, .RADIAN. ) );
#36 = DIRECTION ( 'NONE',  ( 1.000000000000000000, 0.0000000000000000000, 0.0000000000000000000 ) ) ;
#37 = DIRECTION ( 'NONE',  ( 1.000000000000000000, 0.0000000000000000000, -0.0000000000000000000 ) ) ;
#38 = AXIS2_PLACEMENT_3D ( 'NONE', #314, #217, #87 ) ;
#39 = ORIENTED_EDGE ( 'NONE', *, *, #20, .T. ) ;
#40 = LINE ( 'NONE', #64, #99 ) ;
#41 = SURFACE_STYLE_FILL_AREA ( #289 ) ;
#42 = ORIENTED_EDGE ( 'NONE', *, *, #44, .T. ) ;
#43 = DIRECTION ( 'NONE',  ( -0.8571673007021159973, 1.049727191138623133E-16, 0.5150380749100477162 ) ) ;
#44 = EDGE_CURVE ( 'NONE', #191, #264, #155, .T. ) ;
#45 = DIRECTION ( 'NONE',  ( -0.0000000000000000000, -0.0000000000000000000, 1.000000000000000000 ) ) ;
#46 = EDGE_CURVE ( 'NONE', #10, #235, #225, .T. ) ;
#47 = CYLINDRICAL_SURFACE ( 'NONE', #146, 0.1250000000000000000 ) ;
#48 =( LENGTH_UNIT ( ) NAMED_UNIT ( * ) SI_UNIT ( $, .METRE. ) );
#49 = CIRCLE ( 'NONE', #201, 0.1249499999999999778 ) ;
#50 = FACE_OUTER_BOUND ( 'NONE', #159, .T. ) ;
#51 = CARTESIAN_POINT ( 'NONE',  ( 0.0000000000000000000, 0.0000000000000000000, 39.37007874015748143 ) ) ;
#52 = EDGE_CURVE ( 'NONE', #235, #270, #17, .T. ) ;
#53 = VECTOR ( 'NONE', #60, 39.37007874015748143 ) ;
#54 = AXIS2_PLACEMENT_3D ( 'NONE', #24, #142, #169 ) ;
#55 = EDGE_CURVE ( 'NONE', #273, #191, #40, .T. ) ;
#56 = CARTESIAN_POINT ( 'NONE',  ( -0.1100000000000001948, 0.0000000000000000000, 3.250000000000000000 ) ) ;
#57 = COLOUR_RGB ( '',0.7921568627450980005, 0.8196078431372548767, 0.9333333333333333481 ) ;
#58 = EDGE_LOOP ( 'NONE', ( #7, #130 ) ) ;
#59 =( LENGTH_UNIT ( ) NAMED_UNIT ( * ) SI_UNIT ( $, .METRE. ) );
#60 = DIRECTION ( 'NONE',  ( -0.4999999999999977240, 6.123233995736737686E-17, 0.8660254037844398178 ) ) ;
#61 = ORIENTED_EDGE ( 'NONE', *, *, #224, .F. ) ;
#62 = DIRECTION ( 'NONE',  ( -0.0000000000000000000, -0.0000000000000000000, 1.000000000000000000 ) ) ;
#63 = ORIENTED_EDGE ( 'NONE', *, *, #14, .T. ) ;
#64 = CARTESIAN_POINT ( 'NONE',  ( 0.1250000000000000000, 1.530808498934191509E-17, 3.250000000000000000 ) ) ;
#65 = ORIENTED_EDGE ( 'NONE', *, *, #20, .F. ) ;
#66 = CARTESIAN_POINT ( 'NONE',  ( 0.1100000000000001948, 1.438959988998141146E-17, 3.250000000000000000 ) ) ;
#67 = DIRECTION ( 'NONE',  ( 0.0000000000000000000, 0.0000000000000000000, -1.000000000000000000 ) ) ;
#68 = DIRECTION ( 'NONE',  ( -0.0000000000000000000, -0.0000000000000000000, -1.000000000000000000 ) ) ;
#69 = FILL_AREA_STYLE ('',( #198 ) ) ;
#70 = SURFACE_STYLE_USAGE ( .BOTH. , #252 ) ;
#71 = ADVANCED_FACE ( 'NONE', ( #165 ), #47, .T. ) ;
#72 = DIRECTION ( 'NONE',  ( 0.7071067811865499042, 8.659560562354961208E-17, -0.7071067811865451302 ) ) ;
#73 = LINE ( 'NONE', #306, #266 ) ;
#74 = CARTESIAN_POINT ( 'NONE',  ( -0.1100000000000001948, 0.0000000000000000000, 3.250000000000000000 ) ) ;
#75 = CARTESIAN_POINT ( 'NONE',  ( 0.0000000000000000000, 0.0000000000000000000, 3.250000000000000000 ) ) ;
#76 = DIRECTION ( 'NONE',  ( 1.000000000000000000, 0.0000000000000000000, 0.0000000000000000000 ) ) ;
#77 =( NAMED_UNIT ( * ) SI_UNIT ( $, .STERADIAN. ) SOLID_ANGLE_UNIT ( ) );
#78 = ORIENTED_EDGE ( 'NONE', *, *, #126, .F. ) ;
#79 = PRESENTATION_STYLE_ASSIGNMENT (( #18 ) ) ;
#80 = PLANE ( 'NONE',  #141 ) ;
#81 = ORIENTED_EDGE ( 'NONE', *, *, #121, .F. ) ;
#82 = DIRECTION ( 'NONE',  ( 1.000000000000000000, 0.0000000000000000000, 0.0000000000000000000 ) ) ;
#83 = ADVANCED_FACE ( 'NONE', ( #111 ), #222, .T. ) ;
#84 = VERTEX_POINT ( 'NONE', #296 ) ;
#85 = LINE ( 'NONE', #187, #53 ) ;
#86 = CONICAL_SURFACE ( 'NONE', #304, 0.1249500000000004635, 0.5235987755982962621 ) ;
#87 = DIRECTION ( 'NONE',  ( -1.000000000000000000, 0.0000000000000000000, 0.0000000000000000000 ) ) ;
#88 =( NAMED_UNIT ( * ) SI_UNIT ( $, .STERADIAN. ) SOLID_ANGLE_UNIT ( ) );
#89 = DIRECTION ( 'NONE',  ( -0.0000000000000000000, -0.0000000000000000000, -1.000000000000000000 ) ) ;
#90 = ORIENTED_EDGE ( 'NONE', *, *, #55, .T. ) ;
#91 = VECTOR ( 'NONE', #122, 39.37007874015748143 ) ;
#92 = CIRCLE ( 'NONE', #182, 0.1249499999999999778 ) ;
#93 = EDGE_LOOP ( 'NONE', ( #6, #211, #39, #267 ) ) ;
#94 = FACE_OUTER_BOUND ( 'NONE', #238, .T. ) ;
#95 = DIRECTION ( 'NONE',  ( 1.000000000000000000, 0.0000000000000000000, 0.0000000000000000000 ) ) ;
#96 = STYLED_ITEM ( 'NONE', ( #79 ), #166 ) ;
#97 = DIRECTION ( 'NONE',  ( 1.000000000000000000, 0.0000000000000000000, 0.0000000000000000000 ) ) ;
#98 = CARTESIAN_POINT ( 'NONE',  ( -0.1250000000000000000, 0.0000000000000000000, 2.000086602540378067 ) ) ;
#99 = VECTOR ( 'NONE', #68, 39.37007874015748143 ) ;
#100 = COLOUR_RGB ( '',0.7921568627450980005, 0.8196078431372548767, 0.9333333333333333481 ) ;
#101 = CARTESIAN_POINT ( 'NONE',  ( -0.1250000000000000000, 0.0000000000000000000, 3.235000000000000320 ) ) ;
#102 = LENGTH_MEASURE_WITH_UNIT ( LENGTH_MEASURE( 0.02539999999999999897 ), #48 );
#103 = LINE ( 'NONE', #32, #91 ) ;
#104 = DIMENSIONAL_EXPONENTS ( 1.000000000000000000, 0.0000000000000000000, 0.0000000000000000000, 0.0000000000000000000, 0.0000000000000000000, 0.0000000000000000000, 0.0000000000000000000 ) ;
#105 = EDGE_LOOP ( 'NONE', ( #3, #63, #237, #61 ) ) ;
#106 = ORIENTED_EDGE ( 'NONE', *, *, #285, .T. ) ;
#107 = CARTESIAN_POINT ( 'NONE',  ( 0.0000000000000000000, 0.0000000000000000000, 0.0000000000000000000 ) ) ;
#108 = UNCERTAINTY_MEASURE_WITH_UNIT (LENGTH_MEASURE( 1.000000000000000082E-05 ), #261, 'distance_accuracy_value', 'NONE');
#109 = EDGE_LOOP ( 'NONE', ( #321, #133, #194 ) ) ;
#110 = VERTEX_POINT ( 'NONE', #66 ) ;
#111 = FACE_OUTER_BOUND ( 'NONE', #93, .T. ) ;
#112 = ORIENTED_EDGE ( 'NONE', *, *, #277, .F. ) ;
#113 = DIMENSIONAL_EXPONENTS ( 1.000000000000000000, 0.0000000000000000000, 0.0000000000000000000, 0.0000000000000000000, 0.0000000000000000000, 0.0000000000000000000, 0.0000000000000000000 ) ;
#114 = AXIS2_PLACEMENT_3D ( 'NONE', #148, #256, #31 ) ;
#115 = ADVANCED_FACE ( 'NONE', ( #162 ), #168, .T. ) ;
#116 = UNCERTAINTY_MEASURE_WITH_UNIT (LENGTH_MEASURE( 1.000000000000000082E-05 ), #15, 'distance_accuracy_value', 'NONE');
#117 = DIRECTION ( 'NONE',  ( 1.000000000000000000, 0.0000000000000000000, 0.0000000000000000000 ) ) ;
#118 = CONICAL_SURFACE ( 'NONE', #38, 0.1100000000000001948, 0.7853981633974517207 ) ;
#119 = LINE ( 'NONE', #74, #220 ) ;
#120 = DIRECTION ( 'NONE',  ( 1.000000000000000000, 0.0000000000000000000, 0.0000000000000000000 ) ) ;
#121 = EDGE_CURVE ( 'NONE', #218, #273, #219, .T. ) ;
#122 = DIRECTION ( 'NONE',  ( -0.0000000000000000000, -0.0000000000000000000, 1.000000000000000000 ) ) ;
#123 = ORIENTED_EDGE ( 'NONE', *, *, #292, .F. ) ;
#124 = CARTESIAN_POINT ( 'NONE',  ( 0.1250000000000000000, 1.530808498934191509E-17, 2.000086602540378067 ) ) ;
#125 = ADVANCED_FACE ( 'NONE', ( #94 ), #145, .T. ) ;
#126 = EDGE_CURVE ( 'NONE', #10, #84, #257, .T. ) ;
#127 =( NAMED_UNIT ( * ) SI_UNIT ( $, .STERADIAN. ) SOLID_ANGLE_UNIT ( ) );
#128 = PRESENTATION_LAYER_ASSIGNMENT (  '', '', ( #258 ) ) ;
#129 = CARTESIAN_POINT ( 'NONE',  ( 0.1249500000000004635, 0.0000000000000000000, 2.000000000000000444 ) ) ;
#130 = ORIENTED_EDGE ( 'NONE', *, *, #277, .T. ) ;
#131 = DIRECTION ( 'NONE',  ( -0.0000000000000000000, -0.0000000000000000000, 1.000000000000000000 ) ) ;
#132 = EDGE_LOOP ( 'NONE', ( #250, #243, #106, #123 ) ) ;
#133 = ORIENTED_EDGE ( 'NONE', *, *, #126, .T. ) ;
#134 = ORIENTED_EDGE ( 'NONE', *, *, #240, .T. ) ;
#135 = EDGE_LOOP ( 'NONE', ( #157, #221, #260, #11 ) ) ;
#136 = CIRCLE ( 'NONE', #294, 0.1249500000000004635 ) ;
#137 = DIRECTION ( 'NONE',  ( 1.000000000000000000, 0.0000000000000000000, 0.0000000000000000000 ) ) ;
#138 = ORIENTED_EDGE ( 'NONE', *, *, #263, .F. ) ;
#139 = DIRECTION ( 'NONE',  ( -0.0000000000000000000, -0.0000000000000000000, -1.000000000000000000 ) ) ;
#140 = PRODUCT_RELATED_PRODUCT_CATEGORY ( 'part', '', ( #22 ) ) ;
#141 = AXIS2_PLACEMENT_3D ( 'NONE', #215, #293, #37 ) ;
#142 = DIRECTION ( 'NONE',  ( 0.0000000000000000000, 0.0000000000000000000, 1.000000000000000000 ) ) ;
#143 = DIRECTION ( 'NONE',  ( -0.0000000000000000000, -0.0000000000000000000, 1.000000000000000000 ) ) ;
#144 = DIRECTION ( 'NONE',  ( -0.0000000000000000000, -0.0000000000000000000, 1.000000000000000000 ) ) ;
#145 = CONICAL_SURFACE ( 'NONE', #236, 0.1100000000000001948, 0.7853981633974517207 ) ;
#146 = AXIS2_PLACEMENT_3D ( 'NONE', #160, #139, #272 ) ;
#147 = DIRECTION ( 'NONE',  ( 0.8571673007021159973, 0.0000000000000000000, 0.5150380749100477162 ) ) ;
#148 = CARTESIAN_POINT ( 'NONE',  ( 0.0000000000000000000, 0.0000000000000000000, 3.250000000000000000 ) ) ;
#149 =( CONVERSION_BASED_UNIT ( 'INCH', #102 ) LENGTH_UNIT ( ) NAMED_UNIT ( #259 ) );
#150 = ADVANCED_FACE ( 'NONE', ( #229 ), #246, .T. ) ;
#151 = ORIENTED_EDGE ( 'NONE', *, *, #263, .T. ) ;
#152 = ORIENTED_EDGE ( 'NONE', *, *, #176, .T. ) ;
#153 = LENGTH_MEASURE_WITH_UNIT ( LENGTH_MEASURE( 0.02539999999999999897 ), #244 );
#154 = VERTEX_POINT ( 'NONE', #56 ) ;
#155 = CIRCLE ( 'NONE', #300, 0.1250000000000000000 ) ;
#156 = AXIS2_PLACEMENT_3D ( 'NONE', #75, #5, #230 ) ;
#157 = ORIENTED_EDGE ( 'NONE', *, *, #254, .T. ) ;
#158 = DIRECTION ( 'NONE',  ( -0.0000000000000000000, -0.0000000000000000000, -1.000000000000000000 ) ) ;
#159 = EDGE_LOOP ( 'NONE', ( #78, #307, #226 ) ) ;
#160 = CARTESIAN_POINT ( 'NONE',  ( 0.0000000000000000000, 0.0000000000000000000, 3.250000000000000000 ) ) ;
#161 = DIRECTION ( 'NONE',  ( 1.000000000000000000, 0.0000000000000000000, 0.0000000000000000000 ) ) ;
#162 = FACE_OUTER_BOUND ( 'NONE', #216, .T. ) ;
#163 = AXIS2_PLACEMENT_3D ( 'NONE', #282, #305, #76 ) ;
#164 = EDGE_CURVE ( 'NONE', #84, #9, #103, .T. ) ;
#165 = FACE_OUTER_BOUND ( 'NONE', #241, .T. ) ;
#166 = MANIFOLD_SOLID_BREP ( 'Cut-Revolve1', #196 ) ;
#167 = SURFACE_STYLE_FILL_AREA ( #69 ) ;
#168 = CONICAL_SURFACE ( 'NONE', #33, 0.1249500000000004635, 0.5235987755982962621 ) ;
#169 = DIRECTION ( 'NONE',  ( 1.000000000000000000, 0.0000000000000000000, 0.0000000000000000000 ) ) ;
#170 = CIRCLE ( 'NONE', #310, 0.1250000000000000000 ) ;
#171 = CYLINDRICAL_SURFACE ( 'NONE', #251, 0.1249500000000002276 ) ;
#172 = CARTESIAN_POINT ( 'NONE',  ( 0.0000000000000000000, 0.0000000000000000000, 0.07507753434749238342 ) ) ;
#173 = DIRECTION ( 'NONE',  ( -0.7071067811865499042, 0.0000000000000000000, -0.7071067811865451302 ) ) ;
#174 = CIRCLE ( 'NONE', #156, 0.1100000000000001948 ) ;
#175 = EDGE_CURVE ( 'NONE', #9, #270, #16, .T. ) ;
#176 = EDGE_CURVE ( 'NONE', #235, #84, #92, .T. ) ;
#177 = FACE_OUTER_BOUND ( 'NONE', #105, .T. ) ;
#178 = CARTESIAN_POINT ( 'NONE',  ( -0.1249500000000004635, 1.530502337234407537E-17, 2.000000000000000444 ) ) ;
#179 = SHAPE_DEFINITION_REPRESENTATION ( #319, #255 ) ;
#180 = FILL_AREA_STYLE_COLOUR ( '', #57 ) ;
#181 = VECTOR ( 'NONE', #158, 39.37007874015748143 ) ;
#182 = AXIS2_PLACEMENT_3D ( 'NONE', #242, #62, #36 ) ;
#183 = EDGE_LOOP ( 'NONE', ( #311, #152, #276, #138 ) ) ;
#184 = ORIENTED_EDGE ( 'NONE', *, *, #14, .F. ) ;
#185 =( NAMED_UNIT ( * ) PLANE_ANGLE_UNIT ( ) SI_UNIT ( $, .RADIAN. ) );
#186 = DIRECTION ( 'NONE',  ( -0.0000000000000000000, -0.0000000000000000000, 1.000000000000000000 ) ) ;
#187 = CARTESIAN_POINT ( 'NONE',  ( -0.1249500000000004635, 1.530196175534623565E-17, 2.000000000000000444 ) ) ;
#188 = DIRECTION ( 'NONE',  ( -0.0000000000000000000, -0.0000000000000000000, 1.000000000000000000 ) ) ;
#189 = MECHANICAL_DESIGN_GEOMETRIC_PRESENTATION_REPRESENTATION (  '', ( #258 ), #301 ) ;
#190 = CARTESIAN_POINT ( 'NONE',  ( 0.0000000000000000000, 0.0000000000000000000, 2.000000000000000444 ) ) ;
#191 = VERTEX_POINT ( 'NONE', #124 ) ;
#192 = CARTESIAN_POINT ( 'NONE',  ( 0.0000000000000000000, 0.0000000000000000000, 2.000086602540378067 ) ) ;
#193 = DIRECTION ( 'NONE',  ( -1.000000000000000000, 0.0000000000000000000, 0.0000000000000000000 ) ) ;
#194 = ORIENTED_EDGE ( 'NONE', *, *, #176, .F. ) ;
#195 = ADVANCED_FACE ( 'NONE', ( #308 ), #323, .T. ) ;
#196 = CLOSED_SHELL ( 'NONE', ( #262, #204, #318, #125, #71, #83, #320, #30, #115, #150, #195 ) ) ;
#197 = CONICAL_SURFACE ( 'NONE', #8, 65.52281426576952583, 1.029744258676661861 ) ;
#198 = FILL_AREA_STYLE_COLOUR ( '', #100 ) ;
#199 = ORIENTED_EDGE ( 'NONE', *, *, #309, .F. ) ;
#200 = APPLICATION_PROTOCOL_DEFINITION ( 'draft international standard', 'automotive_design', 1998, #322 ) ;
#201 = AXIS2_PLACEMENT_3D ( 'NONE', #172, #143, #120 ) ;
#202 = DIRECTION ( 'NONE',  ( -0.0000000000000000000, -0.0000000000000000000, 1.000000000000000000 ) ) ;
#203 = DIRECTION ( 'NONE',  ( 0.0000000000000000000, 0.0000000000000000000, -1.000000000000000000 ) ) ;
#204 = ADVANCED_FACE ( 'NONE', ( #50 ), #197, .T. ) ;
#205 = PRODUCT_DEFINITION ( 'UNKNOWN', '', #288, #239 ) ;
#206 = AXIS2_PLACEMENT_3D ( 'NONE', #316, #89, #193 ) ;
#207 =( GEOMETRIC_REPRESENTATION_CONTEXT ( 3 ) GLOBAL_UNCERTAINTY_ASSIGNED_CONTEXT ( ( #108 ) ) GLOBAL_UNIT_ASSIGNED_CONTEXT ( ( #261, #212, #127 ) ) REPRESENTATION_CONTEXT ( 'NONE', 'WORKASPACE' ) );
#208 = DIRECTION ( 'NONE',  ( 1.000000000000000000, 0.0000000000000000000, 0.0000000000000000000 ) ) ;
#209 = DIRECTION ( 'NONE',  ( 0.4999999999999977240, 0.0000000000000000000, 0.8660254037844398178 ) ) ;
#210 = CARTESIAN_POINT ( 'NONE',  ( 0.0000000000000000000, 0.0000000000000000000, 2.000000000000000444 ) ) ;
#211 = ORIENTED_EDGE ( 'NONE', *, *, #292, .T. ) ;
#212 =( NAMED_UNIT ( * ) PLANE_ANGLE_UNIT ( ) SI_UNIT ( $, .RADIAN. ) );
#213 = AXIS2_PLACEMENT_3D ( 'NONE', #223, #19, #23 ) ;
#214 = CIRCLE ( 'NONE', #163, 0.1250000000000000000 ) ;
#215 = CARTESIAN_POINT ( 'NONE',  ( 0.0000000000000000000, 0.0000000000000000000, 3.250000000000000000 ) ) ;
#216 = EDGE_LOOP ( 'NONE', ( #184, #151, #13, #199 ) ) ;
#217 = DIRECTION ( 'NONE',  ( 0.0000000000000000000, 0.0000000000000000000, -1.000000000000000000 ) ) ;
#218 = VERTEX_POINT ( 'NONE', #101 ) ;
#219 = CIRCLE ( 'NONE', #213, 0.1250000000000000000 ) ;
#220 = VECTOR ( 'NONE', #173, 39.37007874015748143 ) ;
#221 = ORIENTED_EDGE ( 'NONE', *, *, #52, .T. ) ;
#222 = CYLINDRICAL_SURFACE ( 'NONE', #206, 0.1250000000000000000 ) ;
#223 = CARTESIAN_POINT ( 'NONE',  ( 0.0000000000000000000, 0.0000000000000000000, 3.235000000000000320 ) ) ;
#224 = EDGE_CURVE ( 'NONE', #9, #191, #4, .T. ) ;
#225 = LINE ( 'NONE', #295, #312 ) ;
#226 = ORIENTED_EDGE ( 'NONE', *, *, #254, .F. ) ;
#227 = CARTESIAN_POINT ( 'NONE',  ( 0.0000000000000000000, 0.0000000000000000000, 3.235000000000000320 ) ) ;
#228 = PRESENTATION_LAYER_ASSIGNMENT (  '', '', ( #96 ) ) ;
#229 = FACE_OUTER_BOUND ( 'NONE', #109, .T. ) ;
#230 = DIRECTION ( 'NONE',  ( 1.000000000000000000, 0.0000000000000000000, 0.0000000000000000000 ) ) ;
#231 = CARTESIAN_POINT ( 'NONE',  ( 0.0000000000000000000, 0.0000000000000000000, 3.235000000000000320 ) ) ;
#232 = DIRECTION ( 'NONE',  ( 1.000000000000000000, 0.0000000000000000000, 0.0000000000000000000 ) ) ;
#233 = FACE_OUTER_BOUND ( 'NONE', #135, .T. ) ;
#234 = CIRCLE ( 'NONE', #114, 0.1100000000000001948 ) ;
#235 = VERTEX_POINT ( 'NONE', #298 ) ;
#236 = AXIS2_PLACEMENT_3D ( 'NONE', #299, #67, #284 ) ;
#237 = ORIENTED_EDGE ( 'NONE', *, *, #44, .F. ) ;
#238 = EDGE_LOOP ( 'NONE', ( #112, #134, #81, #271 ) ) ;
#239 = PRODUCT_DEFINITION_CONTEXT ( 'detailed design', #269, 'design' ) ;
#240 = EDGE_CURVE ( 'NONE', #110, #273, #73, .T. ) ;
#241 = EDGE_LOOP ( 'NONE', ( #290, #90, #42, #65 ) ) ;
#242 = CARTESIAN_POINT ( 'NONE',  ( 0.0000000000000000000, 0.0000000000000000000, 0.07507753434749238342 ) ) ;
#243 = ORIENTED_EDGE ( 'NONE', *, *, #281, .F. ) ;
#244 =( LENGTH_UNIT ( ) NAMED_UNIT ( * ) SI_UNIT ( $, .METRE. ) );
#245 = CARTESIAN_POINT ( 'NONE',  ( -0.1250000000000000000, 0.0000000000000000000, 3.250000000000000000 ) ) ;
#246 = CONICAL_SURFACE ( 'NONE', #297, 65.52281426576952583, 1.029744258676661861 ) ;
#247 = SURFACE_SIDE_STYLE ('',( #41 ) ) ;
#248 = MECHANICAL_DESIGN_GEOMETRIC_PRESENTATION_REPRESENTATION (  '', ( #96 ), #34 ) ;
#249 = DIRECTION ( 'NONE',  ( 1.000000000000000000, 0.0000000000000000000, 0.0000000000000000000 ) ) ;
#250 = ORIENTED_EDGE ( 'NONE', *, *, #240, .F. ) ;
#251 = AXIS2_PLACEMENT_3D ( 'NONE', #227, #280, #95 ) ;
#252 = SURFACE_SIDE_STYLE ('',( #167 ) ) ;
#253 = DIRECTION ( 'NONE',  ( -0.0000000000000000000, -0.0000000000000000000, 1.000000000000000000 ) ) ;
#254 = EDGE_CURVE ( 'NONE', #84, #235, #49, .T. ) ;
#255 = ADVANCED_BREP_SHAPE_REPRESENTATION ( 'Micro_DR-250-2', ( #166, #54 ), #207 ) ;
#256 = DIRECTION ( 'NONE',  ( 0.0000000000000000000, 0.0000000000000000000, 1.000000000000000000 ) ) ;
#257 = LINE ( 'NONE', #287, #275 ) ;
#258 = STYLED_ITEM ( 'NONE', ( #278 ), #255 ) ;
#259 = DIMENSIONAL_EXPONENTS ( 1.000000000000000000, 0.0000000000000000000, 0.0000000000000000000, 0.0000000000000000000, 0.0000000000000000000, 0.0000000000000000000, 0.0000000000000000000 ) ;
#260 = ORIENTED_EDGE ( 'NONE', *, *, #175, .F. ) ;
#261 =( CONVERSION_BASED_UNIT ( 'INCH', #291 ) LENGTH_UNIT ( ) NAMED_UNIT ( #113 ) );
#262 = ADVANCED_FACE ( 'NONE', ( #233 ), #171, .T. ) ;
#263 = EDGE_CURVE ( 'NONE', #270, #9, #136, .T. ) ;
#264 = VERTEX_POINT ( 'NONE', #98 ) ;
#265 = FACE_OUTER_BOUND ( 'NONE', #58, .T. ) ;
#266 = VECTOR ( 'NONE', #72, 39.37007874015748143 ) ;
#267 = ORIENTED_EDGE ( 'NONE', *, *, #309, .T. ) ;
#268 = DIRECTION ( 'NONE',  ( -0.0000000000000000000, -0.0000000000000000000, 1.000000000000000000 ) ) ;
#269 = APPLICATION_CONTEXT ( 'automotive_design' ) ;
#270 = VERTEX_POINT ( 'NONE', #178 ) ;
#271 = ORIENTED_EDGE ( 'NONE', *, *, #285, .F. ) ;
#272 = DIRECTION ( 'NONE',  ( -1.000000000000000000, 0.0000000000000000000, 0.0000000000000000000 ) ) ;
#273 = VERTEX_POINT ( 'NONE', #2 ) ;
#274 = CARTESIAN_POINT ( 'NONE',  ( 0.0000000000000000000, 0.0000000000000000000, 2.000000000000000444 ) ) ;
#275 = VECTOR ( 'NONE', #147, 39.37007874015748854 ) ;
#276 = ORIENTED_EDGE ( 'NONE', *, *, #164, .T. ) ;
#277 = EDGE_CURVE ( 'NONE', #110, #154, #234, .T. ) ;
#278 = PRESENTATION_STYLE_ASSIGNMENT (( #70 ) ) ;
#279 = VECTOR ( 'NONE', #209, 39.37007874015748143 ) ;
#280 = DIRECTION ( 'NONE',  ( -0.0000000000000000000, -0.0000000000000000000, 1.000000000000000000 ) ) ;
#281 = EDGE_CURVE ( 'NONE', #154, #110, #174, .T. ) ;
#282 = CARTESIAN_POINT ( 'NONE',  ( 0.0000000000000000000, 0.0000000000000000000, 2.000086602540378067 ) ) ;
#283 = AXIS2_PLACEMENT_3D ( 'NONE', #25, #202, #117 ) ;
#284 = DIRECTION ( 'NONE',  ( -1.000000000000000000, 0.0000000000000000000, 0.0000000000000000000 ) ) ;
#285 = EDGE_CURVE ( 'NONE', #154, #218, #119, .T. ) ;
#286 = APPLICATION_PROTOCOL_DEFINITION ( 'draft international standard', 'automotive_design', 1998, #269 ) ;
#287 = CARTESIAN_POINT ( 'NONE',  ( 0.0000000000000000000, 0.0000000000000000000, 0.0000000000000000000 ) ) ;
#288 = PRODUCT_DEFINITION_FORMATION_WITH_SPECIFIED_SOURCE ( 'ANY', '', #22, .NOT_KNOWN. ) ;
#289 = FILL_AREA_STYLE ('',( #180 ) ) ;
#290 = ORIENTED_EDGE ( 'NONE', *, *, #121, .T. ) ;
#291 = LENGTH_MEASURE_WITH_UNIT ( LENGTH_MEASURE( 0.02539999999999999897 ), #59 );
#292 = EDGE_CURVE ( 'NONE', #273, #218, #170, .T. ) ;
#293 = DIRECTION ( 'NONE',  ( 0.0000000000000000000, 0.0000000000000000000, 1.000000000000000000 ) ) ;
#294 = AXIS2_PLACEMENT_3D ( 'NONE', #303, #144, #97 ) ;
#295 = CARTESIAN_POINT ( 'NONE',  ( 0.0000000000000000000, 0.0000000000000000000, 0.0000000000000000000 ) ) ;
#296 = CARTESIAN_POINT ( 'NONE',  ( 0.1249499999999999500, 0.0000000000000000000, 0.07507753434749238342 ) ) ;
#297 = AXIS2_PLACEMENT_3D ( 'NONE', #29, #1, #232 ) ;
#298 = CARTESIAN_POINT ( 'NONE',  ( -0.1249499999999999500, 1.530196175534617402E-17, 0.07507753434749238342 ) ) ;
#299 = CARTESIAN_POINT ( 'NONE',  ( 0.0000000000000000000, 0.0000000000000000000, 3.250000000000000000 ) ) ;
#300 = AXIS2_PLACEMENT_3D ( 'NONE', #192, #188, #137 ) ;
#301 =( GEOMETRIC_REPRESENTATION_CONTEXT ( 3 ) GLOBAL_UNCERTAINTY_ASSIGNED_CONTEXT ( ( #315 ) ) GLOBAL_UNIT_ASSIGNED_CONTEXT ( ( #149, #35, #77 ) ) REPRESENTATION_CONTEXT ( 'NONE', 'WORKASPACE' ) );
#302 = CARTESIAN_POINT ( 'NONE',  ( 0.1249500000000004635, 0.0000000000000000000, 2.000000000000000444 ) ) ;
#303 = CARTESIAN_POINT ( 'NONE',  ( 0.0000000000000000000, 0.0000000000000000000, 2.000000000000000444 ) ) ;
#304 = AXIS2_PLACEMENT_3D ( 'NONE', #210, #186, #82 ) ;
#305 = DIRECTION ( 'NONE',  ( -0.0000000000000000000, -0.0000000000000000000, 1.000000000000000000 ) ) ;
#306 = CARTESIAN_POINT ( 'NONE',  ( 0.1100000000000001948, 1.347111479062090784E-17, 3.250000000000000000 ) ) ;
#307 = ORIENTED_EDGE ( 'NONE', *, *, #46, .T. ) ;
#308 = FACE_OUTER_BOUND ( 'NONE', #183, .T. ) ;
#309 = EDGE_CURVE ( 'NONE', #264, #191, #214, .T. ) ;
#310 = AXIS2_PLACEMENT_3D ( 'NONE', #231, #203, #208 ) ;
#311 = ORIENTED_EDGE ( 'NONE', *, *, #52, .F. ) ;
#312 = VECTOR ( 'NONE', #43, 39.37007874015748854 ) ;
#313 = AXIS2_PLACEMENT_3D ( 'NONE', #190, #131, #161 ) ;
#314 = CARTESIAN_POINT ( 'NONE',  ( 0.0000000000000000000, 0.0000000000000000000, 3.250000000000000000 ) ) ;
#315 = UNCERTAINTY_MEASURE_WITH_UNIT (LENGTH_MEASURE( 1.000000000000000082E-05 ), #149, 'distance_accuracy_value', 'NONE');
#316 = CARTESIAN_POINT ( 'NONE',  ( 0.0000000000000000000, 0.0000000000000000000, 3.250000000000000000 ) ) ;
#317 = CARTESIAN_POINT ( 'NONE',  ( -0.1249500000000002276, 1.530196175534620792E-17, 3.235000000000000320 ) ) ;
#318 = ADVANCED_FACE ( 'NONE', ( #177 ), #86, .T. ) ;
#319 = PRODUCT_DEFINITION_SHAPE ( 'NONE', 'NONE',  #205 ) ;
#320 = ADVANCED_FACE ( 'NONE', ( #265 ), #80, .T. ) ;
#321 = ORIENTED_EDGE ( 'NONE', *, *, #46, .F. ) ;
#322 = APPLICATION_CONTEXT ( 'automotive_design' ) ;
#323 = CYLINDRICAL_SURFACE ( 'NONE', #283, 0.1249500000000002276 ) ;
ENDSEC;
END-ISO-10303-21;
