ISO-10303-21;
HEADER;
FILE_DESCRIPTION (( 'STEP AP214' ),
    '1' );
FILE_NAME ('84787.STEP',
    '2023-07-05T16:28:12',
    ( '' ),
    ( '' ),
    'SwSTEP 2.0',
    'SolidWorks 2023',
    '' );
FILE_SCHEMA (( 'AUTOMOTIVE_DESIGN' ));
ENDSEC;

DATA;
#1 = EDGE_CURVE ( 'NONE', #127, #231, #111, .T. ) ;
#2 = ORIENTED_EDGE ( 'NONE', *, *, #191, .F. ) ;
#3 = COLOUR_RGB ( '',0.7921568627450980005, 0.8196078431372548767, 0.9333333333333333481 ) ;
#4 = SURFACE_STYLE_USAGE ( .BOTH. , #94 ) ;
#5 = ADVANCED_FACE ( 'NONE', ( #33 ), #242, .T. ) ;
#6 = COLOUR_RGB ( '',0.7921568627450980005, 0.8196078431372548767, 0.9333333333333333481 ) ;
#7 = PRODUCT_DEFINITION_CONTEXT ( 'detailed design', #255, 'design' ) ;
#8 = EDGE_LOOP ( 'NONE', ( #165, #140, #63, #225 ) ) ;
#9 = CARTESIAN_POINT ( 'NONE',  ( 0.3124999999999997224, 3.000000000000000444, 3.827021247335476461E-17 ) ) ;
#10 = CARTESIAN_POINT ( 'NONE',  ( -6.123233995736770966E-17, 3.000000000000000444, 0.000000000000000000 ) ) ;
#11 = STYLED_ITEM ( 'NONE', ( #174 ), #34 ) ;
#12 = DIRECTION ( 'NONE',  ( 0.000000000000000000, 0.000000000000000000, -1.000000000000000000 ) ) ;
#13 = FILL_AREA_STYLE_COLOUR ( '', #206 ) ;
#14 =( NAMED_UNIT ( * ) SI_UNIT ( $, .STERADIAN. ) SOLID_ANGLE_UNIT ( ) );
#15 =( LENGTH_UNIT ( ) NAMED_UNIT ( * ) SI_UNIT ( $, .METRE. ) );
#16 = PRODUCT_DEFINITION ( 'UNKNOWN', '', #153, #7 ) ;
#17 = APPLICATION_PROTOCOL_DEFINITION ( 'draft international standard', 'automotive_design', 1998, #248 ) ;
#18 = DIRECTION ( 'NONE',  ( -1.452488064105000487E-16, 1.000000000000000000, -0.000000000000000000 ) ) ;
#19 = DIRECTION ( 'NONE',  ( 0.000000000000000000, 0.000000000000000000, -1.000000000000000000 ) ) ;
#20 = VECTOR ( 'NONE', #239, 39.37007874015748143 ) ;
#21 = EDGE_CURVE ( 'NONE', #127, #203, #198, .T. ) ;
#22 =( NAMED_UNIT ( * ) SI_UNIT ( $, .STERADIAN. ) SOLID_ANGLE_UNIT ( ) );
#23 = PRODUCT_DEFINITION_SHAPE ( 'NONE', 'NONE',  #16 ) ;
#24 = CIRCLE ( 'NONE', #58, 0.3124999999999996114 ) ;
#25 = DIRECTION ( 'NONE',  ( 0.000000000000000000, 0.000000000000000000, 1.000000000000000000 ) ) ;
#26 = EDGE_LOOP ( 'NONE', ( #143, #89 ) ) ;
#27 = UNCERTAINTY_MEASURE_WITH_UNIT (LENGTH_MEASURE( 1.000000000000000082E-05 ), #65, 'distance_accuracy_value', 'NONE');
#28 = CLOSED_SHELL ( 'NONE', ( #95, #240, #50, #247 ) ) ;
#29 = DIMENSIONAL_EXPONENTS ( 1.000000000000000000, 0.000000000000000000, 0.000000000000000000, 0.000000000000000000, 0.000000000000000000, 0.000000000000000000, 0.000000000000000000 ) ;
#30 = MECHANICAL_DESIGN_GEOMETRIC_PRESENTATION_REPRESENTATION (  '', ( #11 ), #265 ) ;
#31 = LINE ( 'NONE', #9, #92 ) ;
#32 = DIRECTION ( 'NONE',  ( 0.000000000000000000, 1.000000000000000000, 0.000000000000000000 ) ) ;
#33 = FACE_OUTER_BOUND ( 'NONE', #26, .T. ) ;
#34 = ADVANCED_FACE ( 'NONE', ( #57 ), #123, .T. ) ;
#35 = DIRECTION ( 'NONE',  ( 0.000000000000000000, 0.000000000000000000, 1.000000000000000000 ) ) ;
#36 = ADVANCED_BREP_SHAPE_REPRESENTATION ( '84787', ( #109, #97, #228 ), #171 ) ;
#37 =( NAMED_UNIT ( * ) PLANE_ANGLE_UNIT ( ) SI_UNIT ( $, .RADIAN. ) );
#38 = DIRECTION ( 'NONE',  ( 1.452488064105000487E-16, -1.000000000000000000, 0.000000000000000000 ) ) ;
#39 =( NAMED_UNIT ( * ) SI_UNIT ( $, .STERADIAN. ) SOLID_ANGLE_UNIT ( ) );
#40 = CARTESIAN_POINT ( 'NONE',  ( -0.3125000000000000555, 3.000000000000000444, 0.000000000000000000 ) ) ;
#41 = DIRECTION ( 'NONE',  ( -1.000000000000000000, -1.452488064105000487E-16, 0.000000000000000000 ) ) ;
#42 =( NAMED_UNIT ( * ) PLANE_ANGLE_UNIT ( ) SI_UNIT ( $, .RADIAN. ) );
#43 = SURFACE_STYLE_USAGE ( .BOTH. , #80 ) ;
#44 = DIRECTION ( 'NONE',  ( -1.452488064105000487E-16, 1.000000000000000000, -0.000000000000000000 ) ) ;
#45 = CARTESIAN_POINT ( 'NONE',  ( -0.3124999999999992784, 0.3124999999999988343, 0.000000000000000000 ) ) ;
#46 = EDGE_LOOP ( 'NONE', ( #67, #252, #120 ) ) ;
#47 = DIMENSIONAL_EXPONENTS ( 1.000000000000000000, 0.000000000000000000, 0.000000000000000000, 0.000000000000000000, 0.000000000000000000, 0.000000000000000000, 0.000000000000000000 ) ;
#48 = STYLED_ITEM ( 'NONE', ( #159 ), #109 ) ;
#49 = EDGE_LOOP ( 'NONE', ( #260, #2 ) ) ;
#50 = ADVANCED_FACE ( 'NONE', ( #139 ), #224, .T. ) ;
#51 = STYLED_ITEM ( 'NONE', ( #262 ), #5 ) ;
#52 = STYLED_ITEM ( 'NONE', ( #181 ), #97 ) ;
#53 = FILL_AREA_STYLE ('',( #229 ) ) ;
#54 = SURFACE_STYLE_FILL_AREA ( #237 ) ;
#55 = PRESENTATION_STYLE_ASSIGNMENT (( #4 ) ) ;
#56 = DIRECTION ( 'NONE',  ( 1.000000000000000000, 0.000000000000000000, 0.000000000000000000 ) ) ;
#57 = FACE_OUTER_BOUND ( 'NONE', #46, .T. ) ;
#58 = AXIS2_PLACEMENT_3D ( 'NONE', #254, #66, #210 ) ;
#59 = CARTESIAN_POINT ( 'NONE',  ( 0.000000000000000000, 0.000000000000000000, 0.000000000000000000 ) ) ;
#60 = SURFACE_STYLE_USAGE ( .BOTH. , #102 ) ;
#61 = ORIENTED_EDGE ( 'NONE', *, *, #191, .T. ) ;
#62 = PRODUCT_RELATED_PRODUCT_CATEGORY ( 'part', '', ( #169 ) ) ;
#63 = ORIENTED_EDGE ( 'NONE', *, *, #162, .F. ) ;
#64 = MECHANICAL_DESIGN_GEOMETRIC_PRESENTATION_REPRESENTATION (  '', ( #52 ), #157 ) ;
#65 =( CONVERSION_BASED_UNIT ( 'INCH', #221 ) LENGTH_UNIT ( ) NAMED_UNIT ( #207 ) );
#66 = DIRECTION ( 'NONE',  ( -1.452488064105000487E-16, 1.000000000000000000, -0.000000000000000000 ) ) ;
#67 = ORIENTED_EDGE ( 'NONE', *, *, #21, .F. ) ;
#68 = UNCERTAINTY_MEASURE_WITH_UNIT (LENGTH_MEASURE( 1.000000000000000082E-05 ), #112, 'distance_accuracy_value', 'NONE');
#69 = ORIENTED_EDGE ( 'NONE', *, *, #162, .T. ) ;
#70 = ORIENTED_EDGE ( 'NONE', *, *, #233, .F. ) ;
#71 = PLANE ( 'NONE',  #230 ) ;
#72 = CARTESIAN_POINT ( 'NONE',  ( 0.000000000000000000, 0.000000000000000000, 0.000000000000000000 ) ) ;
#73 = CARTESIAN_POINT ( 'NONE',  ( 0.3124999999999999445, 3.000000000000000444, 3.827021247335477078E-17 ) ) ;
#74 = SHAPE_DEFINITION_REPRESENTATION ( #23, #36 ) ;
#75 = COLOUR_RGB ( '',1.000000000000000000, 0.000000000000000000, 0.000000000000000000 ) ;
#76 = LENGTH_MEASURE_WITH_UNIT ( LENGTH_MEASURE( 0.02539999999999999897 ), #98 );
#77 = SURFACE_STYLE_FILL_AREA ( #175 ) ;
#78 = DIRECTION ( 'NONE',  ( 1.000000000000000000, 1.452488064105000487E-16, 0.000000000000000000 ) ) ;
#79 = AXIS2_PLACEMENT_3D ( 'NONE', #10, #93, #122 ) ;
#80 = SURFACE_SIDE_STYLE ('',( #99 ) ) ;
#81 = ORIENTED_EDGE ( 'NONE', *, *, #141, .T. ) ;
#82 = EDGE_CURVE ( 'NONE', #145, #84, #164, .T. ) ;
#83 = CARTESIAN_POINT ( 'NONE',  ( -6.123233995736772199E-17, 3.000000000000000444, 0.000000000000000000 ) ) ;
#84 = VERTEX_POINT ( 'NONE', #40 ) ;
#85 = CIRCLE ( 'NONE', #186, 0.3124999999999996114 ) ;
#86 =( NAMED_UNIT ( * ) PLANE_ANGLE_UNIT ( ) SI_UNIT ( $, .RADIAN. ) );
#87 =( NAMED_UNIT ( * ) PLANE_ANGLE_UNIT ( ) SI_UNIT ( $, .RADIAN. ) );
#88 = DIMENSIONAL_EXPONENTS ( 1.000000000000000000, 0.000000000000000000, 0.000000000000000000, 0.000000000000000000, 0.000000000000000000, 0.000000000000000000, 0.000000000000000000 ) ;
#89 = ORIENTED_EDGE ( 'NONE', *, *, #141, .F. ) ;
#90 = DIRECTION ( 'NONE',  ( -1.452488064105000487E-16, 1.000000000000000000, -0.000000000000000000 ) ) ;
#91 = CIRCLE ( 'NONE', #96, 0.3124999999999999445 ) ;
#92 = VECTOR ( 'NONE', #90, 39.37007874015748143 ) ;
#93 = DIRECTION ( 'NONE',  ( -1.452488064105000487E-16, 1.000000000000000000, -0.000000000000000000 ) ) ;
#94 = SURFACE_SIDE_STYLE ('',( #185 ) ) ;
#95 = ADVANCED_FACE ( 'NONE', ( #121 ), #251, .T. ) ;
#96 = AXIS2_PLACEMENT_3D ( 'NONE', #253, #110, #12 ) ;
#97 = MANIFOLD_SOLID_BREP ( 'Revolve - Tool Body (Pointed)', #28 ) ;
#98 =( LENGTH_UNIT ( ) NAMED_UNIT ( * ) SI_UNIT ( $, .METRE. ) );
#99 = SURFACE_STYLE_FILL_AREA ( #199 ) ;
#100 = AXIS2_PLACEMENT_3D ( 'NONE', #246, #200, #19 ) ;
#101 = FILL_AREA_STYLE_COLOUR ( '', #3 ) ;
#102 = SURFACE_SIDE_STYLE ('',( #220 ) ) ;
#103 = AXIS2_PLACEMENT_3D ( 'NONE', #213, #32, #25 ) ;
#104 = DIMENSIONAL_EXPONENTS ( 1.000000000000000000, 0.000000000000000000, 0.000000000000000000, 0.000000000000000000, 0.000000000000000000, 0.000000000000000000, 0.000000000000000000 ) ;
#105 = EDGE_CURVE ( 'NONE', #137, #84, #183, .T. ) ;
#106 = UNCERTAINTY_MEASURE_WITH_UNIT (LENGTH_MEASURE( 1.000000000000000082E-05 ), #226, 'distance_accuracy_value', 'NONE');
#107 = DIRECTION ( 'NONE',  ( -1.452488064105000487E-16, 1.000000000000000000, 0.000000000000000000 ) ) ;
#108 =( LENGTH_UNIT ( ) NAMED_UNIT ( * ) SI_UNIT ( $, .METRE. ) );
#109 = MANIFOLD_SOLID_BREP ( 'Revolve - Cutting Edge', #128 ) ;
#110 = DIRECTION ( 'NONE',  ( -0.000000000000000000, -1.000000000000000000, -0.000000000000000000 ) ) ;
#111 = LINE ( 'NONE', #132, #20 ) ;
#112 =( CONVERSION_BASED_UNIT ( 'INCH', #257 ) LENGTH_UNIT ( ) NAMED_UNIT ( #29 ) );
#113 = EDGE_LOOP ( 'NONE', ( #118, #223, #81 ) ) ;
#114 = DIRECTION ( 'NONE',  ( 0.000000000000000000, 1.000000000000000000, 0.000000000000000000 ) ) ;
#115 = CONICAL_SURFACE ( 'NONE', #103, 39.37007874015760223, 0.7853981633974498333 ) ;
#116 = CARTESIAN_POINT ( 'NONE',  ( -6.123233995736770966E-17, 3.000000000000000444, 0.000000000000000000 ) ) ;
#117 = LENGTH_MEASURE_WITH_UNIT ( LENGTH_MEASURE( 0.02539999999999999897 ), #182 );
#118 = ORIENTED_EDGE ( 'NONE', *, *, #1, .F. ) ;
#119 =( NAMED_UNIT ( * ) SI_UNIT ( $, .STERADIAN. ) SOLID_ANGLE_UNIT ( ) );
#120 = ORIENTED_EDGE ( 'NONE', *, *, #256, .T. ) ;
#121 = FACE_OUTER_BOUND ( 'NONE', #8, .T. ) ;
#122 = DIRECTION ( 'NONE',  ( -1.000000000000000000, 0.000000000000000000, 0.000000000000000000 ) ) ;
#123 = CONICAL_SURFACE ( 'NONE', #243, 39.37007874015760223, 0.7853981633974498333 ) ;
#124 = LENGTH_MEASURE_WITH_UNIT ( LENGTH_MEASURE( 0.02539999999999999897 ), #189 );
#125 = MECHANICAL_DESIGN_GEOMETRIC_PRESENTATION_REPRESENTATION (  '', ( #184 ), #219 ) ;
#126 = CARTESIAN_POINT ( 'NONE',  ( 0.000000000000000000, 0.3124999999999990008, 0.3125000000000000000 ) ) ;
#127 = VERTEX_POINT ( 'NONE', #211 ) ;
#128 = CLOSED_SHELL ( 'NONE', ( #202, #5, #34 ) ) ;
#129 =( CONVERSION_BASED_UNIT ( 'INCH', #131 ) LENGTH_UNIT ( ) NAMED_UNIT ( #47 ) );
#130 =( NAMED_UNIT ( * ) SI_UNIT ( $, .STERADIAN. ) SOLID_ANGLE_UNIT ( ) );
#131 = LENGTH_MEASURE_WITH_UNIT ( LENGTH_MEASURE( 0.02539999999999999897 ), #108 );
#132 = CARTESIAN_POINT ( 'NONE',  ( 0.000000000000000000, 0.000000000000000000, 0.000000000000000000 ) ) ;
#133 =( GEOMETRIC_REPRESENTATION_CONTEXT ( 3 ) GLOBAL_UNCERTAINTY_ASSIGNED_CONTEXT ( ( #146 ) ) GLOBAL_UNIT_ASSIGNED_CONTEXT ( ( #129, #37, #39 ) ) REPRESENTATION_CONTEXT ( 'NONE', 'WORKASPACE' ) );
#134 =( GEOMETRIC_REPRESENTATION_CONTEXT ( 3 ) GLOBAL_UNCERTAINTY_ASSIGNED_CONTEXT ( ( #68 ) ) GLOBAL_UNIT_ASSIGNED_CONTEXT ( ( #112, #192, #235 ) ) REPRESENTATION_CONTEXT ( 'NONE', 'WORKASPACE' ) );
#135 = DIRECTION ( 'NONE',  ( -1.452488064105000487E-16, 1.000000000000000000, -0.000000000000000000 ) ) ;
#136 =( CONVERSION_BASED_UNIT ( 'INCH', #117 ) LENGTH_UNIT ( ) NAMED_UNIT ( #88 ) );
#137 = VERTEX_POINT ( 'NONE', #45 ) ;
#138 = EDGE_LOOP ( 'NONE', ( #69, #214 ) ) ;
#139 = FACE_OUTER_BOUND ( 'NONE', #264, .T. ) ;
#140 = ORIENTED_EDGE ( 'NONE', *, *, #233, .T. ) ;
#141 = EDGE_CURVE ( 'NONE', #203, #231, #91, .T. ) ;
#142 = DIRECTION ( 'NONE',  ( -1.452488064105000487E-16, 1.000000000000000000, -0.000000000000000000 ) ) ;
#143 = ORIENTED_EDGE ( 'NONE', *, *, #256, .F. ) ;
#144 = CARTESIAN_POINT ( 'NONE',  ( 0.3124999999999999445, 0.3124999999999990008, 3.827021247335477078E-17 ) ) ;
#145 = VERTEX_POINT ( 'NONE', #73 ) ;
#146 = UNCERTAINTY_MEASURE_WITH_UNIT (LENGTH_MEASURE( 1.000000000000000082E-05 ), #129, 'distance_accuracy_value', 'NONE');
#147 = PRESENTATION_LAYER_ASSIGNMENT (  '', '', ( #51 ) ) ;
#148 = PRESENTATION_LAYER_ASSIGNMENT (  '', '', ( #11 ) ) ;
#149 = CARTESIAN_POINT ( 'NONE',  ( 3.291238272708513516E-16, 0.3124999999999990008, 0.000000000000000000 ) ) ;
#150 = DIRECTION ( 'NONE',  ( -1.452488064105000487E-16, 1.000000000000000000, -0.000000000000000000 ) ) ;
#151 = DIRECTION ( 'NONE',  ( 8.659560562354947649E-17, 0.7071067811865464625, -0.7071067811865486830 ) ) ;
#152 = ORIENTED_EDGE ( 'NONE', *, *, #82, .F. ) ;
#153 = PRODUCT_DEFINITION_FORMATION_WITH_SPECIFIED_SOURCE ( 'ANY', '', #169, .NOT_KNOWN. ) ;
#154 = AXIS2_PLACEMENT_3D ( 'NONE', #83, #142, #163 ) ;
#155 = PLANE ( 'NONE',  #261 ) ;
#156 =( NAMED_UNIT ( * ) PLANE_ANGLE_UNIT ( ) SI_UNIT ( $, .RADIAN. ) );
#157 =( GEOMETRIC_REPRESENTATION_CONTEXT ( 3 ) GLOBAL_UNCERTAINTY_ASSIGNED_CONTEXT ( ( #209 ) ) GLOBAL_UNIT_ASSIGNED_CONTEXT ( ( #136, #86, #22 ) ) REPRESENTATION_CONTEXT ( 'NONE', 'WORKASPACE' ) );
#158 = FILL_AREA_STYLE_COLOUR ( '', #6 ) ;
#159 = PRESENTATION_STYLE_ASSIGNMENT (( #43 ) ) ;
#160 = VERTEX_POINT ( 'NONE', #144 ) ;
#161 = FILL_AREA_STYLE ('',( #101 ) ) ;
#162 = EDGE_CURVE ( 'NONE', #84, #145, #190, .T. ) ;
#163 = DIRECTION ( 'NONE',  ( -1.000000000000000000, 0.000000000000000000, 0.000000000000000000 ) ) ;
#164 = CIRCLE ( 'NONE', #170, 0.3125000000000000000 ) ;
#165 = ORIENTED_EDGE ( 'NONE', *, *, #222, .T. ) ;
#166 = CARTESIAN_POINT ( 'NONE',  ( -0.3124999999999998890, 3.000000000000000444, 0.000000000000000000 ) ) ;
#167 = CARTESIAN_POINT ( 'NONE',  ( 3.827021247335478926E-17, 0.3124999999999990008, -0.3125000000000000000 ) ) ;
#168 = FACE_OUTER_BOUND ( 'NONE', #49, .T. ) ;
#169 = PRODUCT ( '84787', '84787', '', ( #244 ) ) ;
#170 = AXIS2_PLACEMENT_3D ( 'NONE', #116, #44, #180 ) ;
#171 =( GEOMETRIC_REPRESENTATION_CONTEXT ( 3 ) GLOBAL_UNCERTAINTY_ASSIGNED_CONTEXT ( ( #187 ) ) GLOBAL_UNIT_ASSIGNED_CONTEXT ( ( #179, #156, #130 ) ) REPRESENTATION_CONTEXT ( 'NONE', 'WORKASPACE' ) );
#172 = CARTESIAN_POINT ( 'NONE',  ( 0.000000000000000000, 0.3124999999999990008, 0.000000000000000000 ) ) ;
#173 = FACE_OUTER_BOUND ( 'NONE', #113, .T. ) ;
#174 = PRESENTATION_STYLE_ASSIGNMENT (( #238 ) ) ;
#175 = FILL_AREA_STYLE ('',( #216 ) ) ;
#176 = COLOUR_RGB ( '',1.000000000000000000, 0.000000000000000000, 0.000000000000000000 ) ;
#177 = AXIS2_PLACEMENT_3D ( 'NONE', #201, #135, #263 ) ;
#178 = DIRECTION ( 'NONE',  ( 0.000000000000000000, 0.000000000000000000, 1.000000000000000000 ) ) ;
#179 =( CONVERSION_BASED_UNIT ( 'INCH', #76 ) LENGTH_UNIT ( ) NAMED_UNIT ( #232 ) );
#180 = DIRECTION ( 'NONE',  ( -1.000000000000000000, 0.000000000000000000, 0.000000000000000000 ) ) ;
#181 = PRESENTATION_STYLE_ASSIGNMENT (( #60 ) ) ;
#182 =( LENGTH_UNIT ( ) NAMED_UNIT ( * ) SI_UNIT ( $, .METRE. ) );
#183 = LINE ( 'NONE', #166, #204 ) ;
#184 = STYLED_ITEM ( 'NONE', ( #55 ), #202 ) ;
#185 = SURFACE_STYLE_FILL_AREA ( #53 ) ;
#186 = AXIS2_PLACEMENT_3D ( 'NONE', #205, #150, #188 ) ;
#187 = UNCERTAINTY_MEASURE_WITH_UNIT (LENGTH_MEASURE( 1.000000000000000082E-05 ), #179, 'distance_accuracy_value', 'NONE');
#188 = DIRECTION ( 'NONE',  ( -1.000000000000000000, -2.185478394931413286E-16, 0.000000000000000000 ) ) ;
#189 =( LENGTH_UNIT ( ) NAMED_UNIT ( * ) SI_UNIT ( $, .METRE. ) );
#190 = CIRCLE ( 'NONE', #79, 0.3125000000000000000 ) ;
#191 = EDGE_CURVE ( 'NONE', #160, #137, #85, .T. ) ;
#192 =( NAMED_UNIT ( * ) PLANE_ANGLE_UNIT ( ) SI_UNIT ( $, .RADIAN. ) );
#193 = SURFACE_SIDE_STYLE ('',( #54 ) ) ;
#194 = FACE_OUTER_BOUND ( 'NONE', #138, .T. ) ;
#195 = CARTESIAN_POINT ( 'NONE',  ( 0.000000000000000000, 39.37007874015748143, 0.000000000000000000 ) ) ;
#196 = MECHANICAL_DESIGN_GEOMETRIC_PRESENTATION_REPRESENTATION (  '', ( #51 ), #133 ) ;
#197 = PRESENTATION_LAYER_ASSIGNMENT (  '', '', ( #48 ) ) ;
#198 = LINE ( 'NONE', #72, #245 ) ;
#199 = FILL_AREA_STYLE ('',( #158 ) ) ;
#200 = DIRECTION ( 'NONE',  ( -0.000000000000000000, -1.000000000000000000, -0.000000000000000000 ) ) ;
#201 = CARTESIAN_POINT ( 'NONE',  ( -6.123233995736772199E-17, 3.000000000000000444, 0.000000000000000000 ) ) ;
#202 = ADVANCED_FACE ( 'NONE', ( #173 ), #115, .T. ) ;
#203 = VERTEX_POINT ( 'NONE', #167 ) ;
#204 = VECTOR ( 'NONE', #18, 39.37007874015748143 ) ;
#205 = CARTESIAN_POINT ( 'NONE',  ( 3.291238272708513516E-16, 0.3124999999999989453, 0.000000000000000000 ) ) ;
#206 = COLOUR_RGB ( '',1.000000000000000000, 0.000000000000000000, 0.000000000000000000 ) ;
#207 = DIMENSIONAL_EXPONENTS ( 1.000000000000000000, 0.000000000000000000, 0.000000000000000000, 0.000000000000000000, 0.000000000000000000, 0.000000000000000000, 0.000000000000000000 ) ;
#208 = AXIS2_PLACEMENT_3D ( 'NONE', #172, #114, #259 ) ;
#209 = UNCERTAINTY_MEASURE_WITH_UNIT (LENGTH_MEASURE( 1.000000000000000082E-05 ), #136, 'distance_accuracy_value', 'NONE');
#210 = DIRECTION ( 'NONE',  ( -1.000000000000000000, -2.185478394931413286E-16, 0.000000000000000000 ) ) ;
#211 = CARTESIAN_POINT ( 'NONE',  ( 0.000000000000000000, 0.000000000000000000, 0.000000000000000000 ) ) ;
#212 = SURFACE_SIDE_STYLE ('',( #77 ) ) ;
#213 = CARTESIAN_POINT ( 'NONE',  ( 0.000000000000000000, 39.37007874015748143, 0.000000000000000000 ) ) ;
#214 = ORIENTED_EDGE ( 'NONE', *, *, #82, .T. ) ;
#215 = CIRCLE ( 'NONE', #100, 0.3124999999999999445 ) ;
#216 = FILL_AREA_STYLE_COLOUR ( '', #176 ) ;
#217 = APPLICATION_PROTOCOL_DEFINITION ( 'draft international standard', 'automotive_design', 1998, #255 ) ;
#218 = CARTESIAN_POINT ( 'NONE',  ( 0.3124999999999999445, 3.000000000000000444, 0.000000000000000000 ) ) ;
#219 =( GEOMETRIC_REPRESENTATION_CONTEXT ( 3 ) GLOBAL_UNCERTAINTY_ASSIGNED_CONTEXT ( ( #106 ) ) GLOBAL_UNIT_ASSIGNED_CONTEXT ( ( #226, #87, #14 ) ) REPRESENTATION_CONTEXT ( 'NONE', 'WORKASPACE' ) );
#220 = SURFACE_STYLE_FILL_AREA ( #161 ) ;
#221 = LENGTH_MEASURE_WITH_UNIT ( LENGTH_MEASURE( 0.02539999999999999897 ), #15 );
#222 = EDGE_CURVE ( 'NONE', #137, #160, #24, .T. ) ;
#223 = ORIENTED_EDGE ( 'NONE', *, *, #21, .T. ) ;
#224 = CYLINDRICAL_SURFACE ( 'NONE', #177, 0.3124999999999998335 ) ;
#225 = ORIENTED_EDGE ( 'NONE', *, *, #105, .F. ) ;
#226 =( CONVERSION_BASED_UNIT ( 'INCH', #124 ) LENGTH_UNIT ( ) NAMED_UNIT ( #104 ) );
#227 = ORIENTED_EDGE ( 'NONE', *, *, #105, .T. ) ;
#228 = AXIS2_PLACEMENT_3D ( 'NONE', #59, #35, #56 ) ;
#229 = FILL_AREA_STYLE_COLOUR ( '', #75 ) ;
#230 = AXIS2_PLACEMENT_3D ( 'NONE', #149, #107, #41 ) ;
#231 = VERTEX_POINT ( 'NONE', #126 ) ;
#232 = DIMENSIONAL_EXPONENTS ( 1.000000000000000000, 0.000000000000000000, 0.000000000000000000, 0.000000000000000000, 0.000000000000000000, 0.000000000000000000, 0.000000000000000000 ) ;
#233 = EDGE_CURVE ( 'NONE', #160, #145, #31, .T. ) ;
#234 = PRESENTATION_LAYER_ASSIGNMENT (  '', '', ( #52 ) ) ;
#235 =( NAMED_UNIT ( * ) SI_UNIT ( $, .STERADIAN. ) SOLID_ANGLE_UNIT ( ) );
#236 =( LENGTH_UNIT ( ) NAMED_UNIT ( * ) SI_UNIT ( $, .METRE. ) );
#237 = FILL_AREA_STYLE ('',( #13 ) ) ;
#238 = SURFACE_STYLE_USAGE ( .BOTH. , #193 ) ;
#239 = DIRECTION ( 'NONE',  ( 0.000000000000000000, 0.7071067811865464625, 0.7071067811865486830 ) ) ;
#240 = ADVANCED_FACE ( 'NONE', ( #168 ), #71, .F. ) ;
#241 = SURFACE_STYLE_USAGE ( .BOTH. , #212 ) ;
#242 = PLANE ( 'NONE',  #208 ) ;
#243 = AXIS2_PLACEMENT_3D ( 'NONE', #195, #249, #178 ) ;
#244 = PRODUCT_CONTEXT ( 'NONE', #248, 'mechanical' ) ;
#245 = VECTOR ( 'NONE', #151, 39.37007874015748143 ) ;
#246 = CARTESIAN_POINT ( 'NONE',  ( 0.000000000000000000, 0.3124999999999990008, 0.000000000000000000 ) ) ;
#247 = ADVANCED_FACE ( 'NONE', ( #194 ), #155, .F. ) ;
#248 = APPLICATION_CONTEXT ( 'automotive_design' ) ;
#249 = DIRECTION ( 'NONE',  ( 0.000000000000000000, 1.000000000000000000, 0.000000000000000000 ) ) ;
#250 = PRESENTATION_LAYER_ASSIGNMENT (  '', '', ( #184 ) ) ;
#251 = CYLINDRICAL_SURFACE ( 'NONE', #154, 0.3124999999999998335 ) ;
#252 = ORIENTED_EDGE ( 'NONE', *, *, #1, .T. ) ;
#253 = CARTESIAN_POINT ( 'NONE',  ( 0.000000000000000000, 0.3124999999999990008, 0.000000000000000000 ) ) ;
#254 = CARTESIAN_POINT ( 'NONE',  ( 3.291238272708513516E-16, 0.3124999999999989453, 0.000000000000000000 ) ) ;
#255 = APPLICATION_CONTEXT ( 'automotive_design' ) ;
#256 = EDGE_CURVE ( 'NONE', #231, #203, #215, .T. ) ;
#257 = LENGTH_MEASURE_WITH_UNIT ( LENGTH_MEASURE( 0.02539999999999999897 ), #236 );
#258 = MECHANICAL_DESIGN_GEOMETRIC_PRESENTATION_REPRESENTATION (  '', ( #48 ), #134 ) ;
#259 = DIRECTION ( 'NONE',  ( 0.000000000000000000, -0.000000000000000000, 1.000000000000000000 ) ) ;
#260 = ORIENTED_EDGE ( 'NONE', *, *, #222, .F. ) ;
#261 = AXIS2_PLACEMENT_3D ( 'NONE', #218, #38, #78 ) ;
#262 = PRESENTATION_STYLE_ASSIGNMENT (( #241 ) ) ;
#263 = DIRECTION ( 'NONE',  ( -1.000000000000000000, 0.000000000000000000, 0.000000000000000000 ) ) ;
#264 = EDGE_LOOP ( 'NONE', ( #70, #61, #227, #152 ) ) ;
#265 =( GEOMETRIC_REPRESENTATION_CONTEXT ( 3 ) GLOBAL_UNCERTAINTY_ASSIGNED_CONTEXT ( ( #27 ) ) GLOBAL_UNIT_ASSIGNED_CONTEXT ( ( #65, #42, #119 ) ) REPRESENTATION_CONTEXT ( 'NONE', 'WORKASPACE' ) );
ENDSEC;
END-ISO-10303-21;
