ISO-10303-21;
HEADER;
FILE_DESCRIPTION (( 'STEP AP214' ),
    '1' );
FILE_NAME ('82858.STEP',
    '2023-06-23T07:06:36',
    ( '' ),
    ( '' ),
    'SwSTEP 2.0',
    'SolidWorks 2023',
    '' );
FILE_SCHEMA (( 'AUTOMOTIVE_DESIGN' ));
ENDSEC;

DATA;
#1 = FILL_AREA_STYLE_COLOUR ( '', #234 ) ;
#2 = CARTESIAN_POINT ( 'NONE',  ( -1.224646799147354440E-16, 6.000000000000000888, 0.000000000000000000 ) ) ;
#3 = CLOSED_SHELL ( 'NONE', ( #200, #69, #241, #93 ) ) ;
#4 =( GEOMETRIC_REPRESENTATION_CONTEXT ( 3 ) GLOBAL_UNCERTAINTY_ASSIGNED_CONTEXT ( ( #265 ) ) GLOBAL_UNIT_ASSIGNED_CONTEXT ( ( #37, #172, #170 ) ) REPRESENTATION_CONTEXT ( 'NONE', 'WORKASPACE' ) );
#5 = CARTESIAN_POINT ( 'NONE',  ( 3.061616997868383018E-17, 0.000000000000000000, 0.2500000000000000000 ) ) ;
#6 = EDGE_LOOP ( 'NONE', ( #54, #96, #52, #76 ) ) ;
#7 =( NAMED_UNIT ( * ) SI_UNIT ( $, .STERADIAN. ) SOLID_ANGLE_UNIT ( ) );
#8 = VERTEX_POINT ( 'NONE', #249 ) ;
#9 = PLANE ( 'NONE',  #307 ) ;
#10 = ORIENTED_EDGE ( 'NONE', *, *, #12, .T. ) ;
#11 = ORIENTED_EDGE ( 'NONE', *, *, #14, .F. ) ;
#12 = EDGE_CURVE ( 'NONE', #8, #264, #171, .T. ) ;
#13 = SURFACE_SIDE_STYLE ('',( #145 ) ) ;
#14 = EDGE_CURVE ( 'NONE', #144, #285, #301, .T. ) ;
#15 =( NAMED_UNIT ( * ) SI_UNIT ( $, .STERADIAN. ) SOLID_ANGLE_UNIT ( ) );
#16 =( CONVERSION_BASED_UNIT ( 'INCH', #41 ) LENGTH_UNIT ( ) NAMED_UNIT ( #107 ) );
#17 = CARTESIAN_POINT ( 'NONE',  ( -1.224646799147354440E-16, 6.000000000000000888, 0.000000000000000000 ) ) ;
#18 = LINE ( 'NONE', #177, #138 ) ;
#19 = LINE ( 'NONE', #60, #180 ) ;
#20 = MANIFOLD_SOLID_BREP ( 'Revolve - Tool Body (Straight Shanked)', #3 ) ;
#21 = EDGE_CURVE ( 'NONE', #285, #264, #19, .T. ) ;
#22 = LENGTH_MEASURE_WITH_UNIT ( LENGTH_MEASURE( 0.02539999999999999897 ), #67 );
#23 =( LENGTH_UNIT ( ) NAMED_UNIT ( * ) SI_UNIT ( $, .METRE. ) );
#24 = APPLICATION_CONTEXT ( 'automotive_design' ) ;
#25 = AXIS2_PLACEMENT_3D ( 'NONE', #2, #258, #133 ) ;
#26 = CYLINDRICAL_SURFACE ( 'NONE', #134, 0.2500000000000000000 ) ;
#27 = DIRECTION ( 'NONE',  ( 0.000000000000000000, 0.000000000000000000, -1.000000000000000000 ) ) ;
#28 = AXIS2_PLACEMENT_3D ( 'NONE', #242, #95, #27 ) ;
#29 = ORIENTED_EDGE ( 'NONE', *, *, #187, .T. ) ;
#30 =( LENGTH_UNIT ( ) NAMED_UNIT ( * ) SI_UNIT ( $, .METRE. ) );
#31 = ORIENTED_EDGE ( 'NONE', *, *, #21, .F. ) ;
#32 = DIRECTION ( 'NONE',  ( 0.000000000000000000, 0.000000000000000000, -1.000000000000000000 ) ) ;
#33 = ORIENTED_EDGE ( 'NONE', *, *, #157, .T. ) ;
#34 = CYLINDRICAL_SURFACE ( 'NONE', #296, 0.2500000000000000000 ) ;
#35 = STYLED_ITEM ( 'NONE', ( #70 ), #243 ) ;
#36 = ORIENTED_EDGE ( 'NONE', *, *, #128, .T. ) ;
#37 =( CONVERSION_BASED_UNIT ( 'INCH', #44 ) LENGTH_UNIT ( ) NAMED_UNIT ( #129 ) );
#38 = FACE_OUTER_BOUND ( 'NONE', #193, .T. ) ;
#39 = CARTESIAN_POINT ( 'NONE',  ( 0.000000000000000000, 0.000000000000000000, 0.000000000000000000 ) ) ;
#40 = CARTESIAN_POINT ( 'NONE',  ( 0.000000000000000000, 0.000000000000000000, 0.000000000000000000 ) ) ;
#41 = LENGTH_MEASURE_WITH_UNIT ( LENGTH_MEASURE( 0.02539999999999999897 ), #86 );
#42 = MECHANICAL_DESIGN_GEOMETRIC_PRESENTATION_REPRESENTATION (  '', ( #89 ), #49 ) ;
#43 = DIRECTION ( 'NONE',  ( 5.156407575357281462E-17, -1.000000000000000000, 0.000000000000000000 ) ) ;
#44 = LENGTH_MEASURE_WITH_UNIT ( LENGTH_MEASURE( 0.02539999999999999897 ), #103 );
#45 = PLANE ( 'NONE',  #203 ) ;
#46 = MECHANICAL_DESIGN_GEOMETRIC_PRESENTATION_REPRESENTATION (  '', ( #105 ), #208 ) ;
#47 = DIRECTION ( 'NONE',  ( -5.156407575357281462E-17, 1.000000000000000000, -0.000000000000000000 ) ) ;
#48 = LINE ( 'NONE', #239, #62 ) ;
#49 =( GEOMETRIC_REPRESENTATION_CONTEXT ( 3 ) GLOBAL_UNCERTAINTY_ASSIGNED_CONTEXT ( ( #308 ) ) GLOBAL_UNIT_ASSIGNED_CONTEXT ( ( #152, #299, #15 ) ) REPRESENTATION_CONTEXT ( 'NONE', 'WORKASPACE' ) );
#50 = SURFACE_STYLE_USAGE ( .BOTH. , #261 ) ;
#51 = FACE_OUTER_BOUND ( 'NONE', #142, .T. ) ;
#52 = ORIENTED_EDGE ( 'NONE', *, *, #12, .F. ) ;
#53 = SURFACE_SIDE_STYLE ('',( #288 ) ) ;
#54 = ORIENTED_EDGE ( 'NONE', *, *, #14, .T. ) ;
#55 = DIRECTION ( 'NONE',  ( -5.156407575357281462E-17, 1.000000000000000000, -0.000000000000000000 ) ) ;
#56 = ORIENTED_EDGE ( 'NONE', *, *, #128, .F. ) ;
#57 = SURFACE_STYLE_USAGE ( .BOTH. , #100 ) ;
#58 = EDGE_LOOP ( 'NONE', ( #218, #122, #163, #56 ) ) ;
#59 =( GEOMETRIC_REPRESENTATION_CONTEXT ( 3 ) GLOBAL_UNCERTAINTY_ASSIGNED_CONTEXT ( ( #217 ) ) GLOBAL_UNIT_ASSIGNED_CONTEXT ( ( #75, #286, #219 ) ) REPRESENTATION_CONTEXT ( 'NONE', 'WORKASPACE' ) );
#60 = CARTESIAN_POINT ( 'NONE',  ( 3.061616997868383018E-17, 0.000000000000000000, 0.2500000000000000000 ) ) ;
#61 = STYLED_ITEM ( 'NONE', ( #207 ), #213 ) ;
#62 = VECTOR ( 'NONE', #47, 39.37007874015748143 ) ;
#63 = ADVANCED_FACE ( 'NONE', ( #185 ), #106, .T. ) ;
#64 = DIRECTION ( 'NONE',  ( -5.156407575357281462E-17, 1.000000000000000000, -0.000000000000000000 ) ) ;
#65 = CARTESIAN_POINT ( 'NONE',  ( 0.000000000000000000, 3.625000000000000444, 0.000000000000000000 ) ) ;
#66 = COLOUR_RGB ( '',0.7921568627450980005, 0.8196078431372548767, 0.9333333333333333481 ) ;
#67 =( LENGTH_UNIT ( ) NAMED_UNIT ( * ) SI_UNIT ( $, .METRE. ) );
#68 = LINE ( 'NONE', #179, #150 ) ;
#69 = ADVANCED_FACE ( 'NONE', ( #255 ), #45, .F. ) ;
#70 = PRESENTATION_STYLE_ASSIGNMENT (( #57 ) ) ;
#71 = ORIENTED_EDGE ( 'NONE', *, *, #157, .F. ) ;
#72 = DIRECTION ( 'NONE',  ( -0.000000000000000000, -1.000000000000000000, -0.000000000000000000 ) ) ;
#73 = AXIS2_PLACEMENT_3D ( 'NONE', #17, #91, #306 ) ;
#74 = AXIS2_PLACEMENT_3D ( 'NONE', #269, #162, #143 ) ;
#75 =( CONVERSION_BASED_UNIT ( 'INCH', #78 ) LENGTH_UNIT ( ) NAMED_UNIT ( #294 ) );
#76 = ORIENTED_EDGE ( 'NONE', *, *, #187, .F. ) ;
#77 = PRODUCT_RELATED_PRODUCT_CATEGORY ( 'part', '', ( #246 ) ) ;
#78 = LENGTH_MEASURE_WITH_UNIT ( LENGTH_MEASURE( 0.02539999999999999897 ), #30 );
#79 = FILL_AREA_STYLE ('',( #291 ) ) ;
#80 = DIRECTION ( 'NONE',  ( 1.000000000000000000, 0.000000000000000000, 0.000000000000000000 ) ) ;
#81 = PRESENTATION_STYLE_ASSIGNMENT (( #102 ) ) ;
#82 = CARTESIAN_POINT ( 'NONE',  ( -0.2500000000000000000, 3.625000000000000444, 0.000000000000000000 ) ) ;
#83 = DIMENSIONAL_EXPONENTS ( 1.000000000000000000, 0.000000000000000000, 0.000000000000000000, 0.000000000000000000, 0.000000000000000000, 0.000000000000000000, 0.000000000000000000 ) ;
#84 = CARTESIAN_POINT ( 'NONE',  ( 0.2500000000000000555, 6.000000000000000888, 3.061616997868384251E-17 ) ) ;
#85 = APPLICATION_PROTOCOL_DEFINITION ( 'draft international standard', 'automotive_design', 1998, #230 ) ;
#86 =( LENGTH_UNIT ( ) NAMED_UNIT ( * ) SI_UNIT ( $, .METRE. ) );
#87 = UNCERTAINTY_MEASURE_WITH_UNIT (LENGTH_MEASURE( 1.000000000000000082E-05 ), #212, 'distance_accuracy_value', 'NONE');
#88 = DIRECTION ( 'NONE',  ( 0.000000000000000000, 0.000000000000000000, -1.000000000000000000 ) ) ;
#89 = STYLED_ITEM ( 'NONE', ( #81 ), #20 ) ;
#90 = MECHANICAL_DESIGN_GEOMETRIC_PRESENTATION_REPRESENTATION (  '', ( #227 ), #240 ) ;
#91 = DIRECTION ( 'NONE',  ( -5.156407575357281462E-17, 1.000000000000000000, -0.000000000000000000 ) ) ;
#92 = DIRECTION ( 'NONE',  ( -0.000000000000000000, -1.000000000000000000, -0.000000000000000000 ) ) ;
#93 = ADVANCED_FACE ( 'NONE', ( #38 ), #104, .F. ) ;
#94 = PRESENTATION_STYLE_ASSIGNMENT (( #183 ) ) ;
#95 = DIRECTION ( 'NONE',  ( -0.000000000000000000, -1.000000000000000000, -0.000000000000000000 ) ) ;
#96 = ORIENTED_EDGE ( 'NONE', *, *, #21, .T. ) ;
#97 = CARTESIAN_POINT ( 'NONE',  ( 0.000000000000000000, 3.625000000000000444, 0.000000000000000000 ) ) ;
#98 = VERTEX_POINT ( 'NONE', #84 ) ;
#99 = DIMENSIONAL_EXPONENTS ( 1.000000000000000000, 0.000000000000000000, 0.000000000000000000, 0.000000000000000000, 0.000000000000000000, 0.000000000000000000, 0.000000000000000000 ) ;
#100 = SURFACE_SIDE_STYLE ('',( #186 ) ) ;
#101 = VERTEX_POINT ( 'NONE', #82 ) ;
#102 = SURFACE_STYLE_USAGE ( .BOTH. , #13 ) ;
#103 =( LENGTH_UNIT ( ) NAMED_UNIT ( * ) SI_UNIT ( $, .METRE. ) );
#104 = PLANE ( 'NONE',  #176 ) ;
#105 = STYLED_ITEM ( 'NONE', ( #303 ), #63 ) ;
#106 = PLANE ( 'NONE',  #120 ) ;
#107 = DIMENSIONAL_EXPONENTS ( 1.000000000000000000, 0.000000000000000000, 0.000000000000000000, 0.000000000000000000, 0.000000000000000000, 0.000000000000000000, 0.000000000000000000 ) ;
#108 = CARTESIAN_POINT ( 'NONE',  ( 0.000000000000000000, 0.000000000000000000, 0.000000000000000000 ) ) ;
#109 = CIRCLE ( 'NONE', #254, 0.2500000000000000000 ) ;
#110 = SURFACE_SIDE_STYLE ('',( #300 ) ) ;
#111 = CIRCLE ( 'NONE', #204, 0.2500000000000000000 ) ;
#112 =( CONVERSION_BASED_UNIT ( 'INCH', #22 ) LENGTH_UNIT ( ) NAMED_UNIT ( #83 ) );
#113 = LENGTH_MEASURE_WITH_UNIT ( LENGTH_MEASURE( 0.02539999999999999897 ), #23 );
#114 = FACE_OUTER_BOUND ( 'NONE', #220, .T. ) ;
#115 = CIRCLE ( 'NONE', #73, 0.2500000000000001110 ) ;
#116 = FILL_AREA_STYLE_COLOUR ( '', #205 ) ;
#117 = EDGE_CURVE ( 'NONE', #119, #98, #277, .T. ) ;
#118 = FACE_OUTER_BOUND ( 'NONE', #125, .T. ) ;
#119 = VERTEX_POINT ( 'NONE', #273 ) ;
#120 = AXIS2_PLACEMENT_3D ( 'NONE', #40, #199, #151 ) ;
#121 =( GEOMETRIC_REPRESENTATION_CONTEXT ( 3 ) GLOBAL_UNCERTAINTY_ASSIGNED_CONTEXT ( ( #263 ) ) GLOBAL_UNIT_ASSIGNED_CONTEXT ( ( #112, #276, #281 ) ) REPRESENTATION_CONTEXT ( 'NONE', 'WORKASPACE' ) );
#122 = ORIENTED_EDGE ( 'NONE', *, *, #221, .T. ) ;
#123 =( NAMED_UNIT ( * ) PLANE_ANGLE_UNIT ( ) SI_UNIT ( $, .RADIAN. ) );
#124 = CARTESIAN_POINT ( 'NONE',  ( 0.2500000000000000555, 3.625000000000000444, 3.061616997868384251E-17 ) ) ;
#125 = EDGE_LOOP ( 'NONE', ( #11, #71 ) ) ;
#126 = LENGTH_MEASURE_WITH_UNIT ( LENGTH_MEASURE( 0.02539999999999999897 ), #290 );
#127 = EDGE_LOOP ( 'NONE', ( #10, #293 ) ) ;
#128 = EDGE_CURVE ( 'NONE', #101, #119, #18, .T. ) ;
#129 = DIMENSIONAL_EXPONENTS ( 1.000000000000000000, 0.000000000000000000, 0.000000000000000000, 0.000000000000000000, 0.000000000000000000, 0.000000000000000000, 0.000000000000000000 ) ;
#130 = PRESENTATION_LAYER_ASSIGNMENT (  '', '', ( #105 ) ) ;
#131 = CYLINDRICAL_SURFACE ( 'NONE', #74, 0.2500000000000000555 ) ;
#132 = PRODUCT_DEFINITION ( 'UNKNOWN', '', #156, #136 ) ;
#133 = DIRECTION ( 'NONE',  ( -1.000000000000000000, 0.000000000000000000, 0.000000000000000000 ) ) ;
#134 = AXIS2_PLACEMENT_3D ( 'NONE', #304, #237, #88 ) ;
#135 = DIRECTION ( 'NONE',  ( -0.000000000000000000, -1.000000000000000000, -0.000000000000000000 ) ) ;
#136 = PRODUCT_DEFINITION_CONTEXT ( 'detailed design', #24, 'design' ) ;
#137 = FILL_AREA_STYLE ('',( #283 ) ) ;
#138 = VECTOR ( 'NONE', #175, 39.37007874015748143 ) ;
#139 = PRESENTATION_LAYER_ASSIGNMENT (  '', '', ( #35 ) ) ;
#140 = UNCERTAINTY_MEASURE_WITH_UNIT (LENGTH_MEASURE( 1.000000000000000082E-05 ), #222, 'distance_accuracy_value', 'NONE');
#141 = FILL_AREA_STYLE_COLOUR ( '', #266 ) ;
#142 = EDGE_LOOP ( 'NONE', ( #270, #169, #36, #214 ) ) ;
#143 = DIRECTION ( 'NONE',  ( -1.000000000000000000, 0.000000000000000000, 0.000000000000000000 ) ) ;
#144 = VERTEX_POINT ( 'NONE', #229 ) ;
#145 = SURFACE_STYLE_FILL_AREA ( #79 ) ;
#146 = AXIS2_PLACEMENT_3D ( 'NONE', #232, #253, #173 ) ;
#147 = MECHANICAL_DESIGN_GEOMETRIC_PRESENTATION_REPRESENTATION (  '', ( #184 ), #282 ) ;
#148 = FILL_AREA_STYLE ('',( #274 ) ) ;
#149 = DIRECTION ( 'NONE',  ( -0.000000000000000000, -1.000000000000000000, -0.000000000000000000 ) ) ;
#150 = VECTOR ( 'NONE', #135, 39.37007874015748143 ) ;
#151 = DIRECTION ( 'NONE',  ( 0.000000000000000000, 0.000000000000000000, -1.000000000000000000 ) ) ;
#152 =( CONVERSION_BASED_UNIT ( 'INCH', #201 ) LENGTH_UNIT ( ) NAMED_UNIT ( #99 ) );
#153 = EDGE_CURVE ( 'NONE', #98, #119, #115, .T. ) ;
#154 = PRESENTATION_LAYER_ASSIGNMENT (  '', '', ( #61 ) ) ;
#155 = DIRECTION ( 'NONE',  ( -1.000000000000000000, 0.000000000000000000, 0.000000000000000000 ) ) ;
#156 = PRODUCT_DEFINITION_FORMATION_WITH_SPECIFIED_SOURCE ( 'ANY', '', #246, .NOT_KNOWN. ) ;
#157 = EDGE_CURVE ( 'NONE', #285, #144, #251, .T. ) ;
#158 =( NAMED_UNIT ( * ) PLANE_ANGLE_UNIT ( ) SI_UNIT ( $, .RADIAN. ) );
#159 = CYLINDRICAL_SURFACE ( 'NONE', #25, 0.2500000000000000555 ) ;
#160 = SURFACE_STYLE_FILL_AREA ( #211 ) ;
#161 = AXIS2_PLACEMENT_3D ( 'NONE', #287, #72, #165 ) ;
#162 = DIRECTION ( 'NONE',  ( -5.156407575357281462E-17, 1.000000000000000000, -0.000000000000000000 ) ) ;
#163 = ORIENTED_EDGE ( 'NONE', *, *, #117, .F. ) ;
#164 = FILL_AREA_STYLE ('',( #141 ) ) ;
#165 = DIRECTION ( 'NONE',  ( 0.000000000000000000, 0.000000000000000000, -1.000000000000000000 ) ) ;
#166 = AXIS2_PLACEMENT_3D ( 'NONE', #65, #92, #309 ) ;
#167 = ORIENTED_EDGE ( 'NONE', *, *, #202, .F. ) ;
#168 = DIRECTION ( 'NONE',  ( -1.000000000000000000, 0.000000000000000000, 0.000000000000000000 ) ) ;
#169 = ORIENTED_EDGE ( 'NONE', *, *, #292, .T. ) ;
#170 =( NAMED_UNIT ( * ) SI_UNIT ( $, .STERADIAN. ) SOLID_ANGLE_UNIT ( ) );
#171 = CIRCLE ( 'NONE', #28, 0.2500000000000000000 ) ;
#172 =( NAMED_UNIT ( * ) PLANE_ANGLE_UNIT ( ) SI_UNIT ( $, .RADIAN. ) );
#173 = DIRECTION ( 'NONE',  ( -1.000000000000000000, 0.000000000000000000, 0.000000000000000000 ) ) ;
#174 = APPLICATION_PROTOCOL_DEFINITION ( 'draft international standard', 'automotive_design', 1998, #24 ) ;
#175 = DIRECTION ( 'NONE',  ( -5.156407575357281462E-17, 1.000000000000000000, -0.000000000000000000 ) ) ;
#176 = AXIS2_PLACEMENT_3D ( 'NONE', #196, #43, #295 ) ;
#177 = CARTESIAN_POINT ( 'NONE',  ( -0.2500000000000002220, 6.000000000000000888, 0.000000000000000000 ) ) ;
#178 = SURFACE_STYLE_USAGE ( .BOTH. , #209 ) ;
#179 = CARTESIAN_POINT ( 'NONE',  ( 0.000000000000000000, 0.000000000000000000, -0.2500000000000000000 ) ) ;
#180 = VECTOR ( 'NONE', #149, 39.37007874015748143 ) ;
#181 = UNCERTAINTY_MEASURE_WITH_UNIT (LENGTH_MEASURE( 1.000000000000000082E-05 ), #16, 'distance_accuracy_value', 'NONE');
#182 = FACE_OUTER_BOUND ( 'NONE', #58, .T. ) ;
#183 = SURFACE_STYLE_USAGE ( .BOTH. , #53 ) ;
#184 = STYLED_ITEM ( 'NONE', ( #94 ), #305 ) ;
#185 = FACE_OUTER_BOUND ( 'NONE', #127, .T. ) ;
#186 = SURFACE_STYLE_FILL_AREA ( #137 ) ;
#187 = EDGE_CURVE ( 'NONE', #144, #8, #68, .T. ) ;
#188 = CARTESIAN_POINT ( 'NONE',  ( 3.061616997868383018E-17, 3.625000000000000444, 0.2500000000000000000 ) ) ;
#189 = ORIENTED_EDGE ( 'NONE', *, *, #117, .T. ) ;
#190 = PRESENTATION_LAYER_ASSIGNMENT (  '', '', ( #89 ) ) ;
#191 = PRODUCT_DEFINITION_SHAPE ( 'NONE', 'NONE',  #132 ) ;
#192 = CARTESIAN_POINT ( 'NONE',  ( 0.000000000000000000, 3.625000000000000444, 0.000000000000000000 ) ) ;
#193 = EDGE_LOOP ( 'NONE', ( #189, #289 ) ) ;
#194 = ORIENTED_EDGE ( 'NONE', *, *, #292, .F. ) ;
#195 = SHAPE_DEFINITION_REPRESENTATION ( #191, #226 ) ;
#196 = CARTESIAN_POINT ( 'NONE',  ( 0.2500000000000000000, 6.000000000000000888, 0.000000000000000000 ) ) ;
#197 = CLOSED_SHELL ( 'NONE', ( #305, #243, #213, #63 ) ) ;
#198 =( NAMED_UNIT ( * ) SI_UNIT ( $, .STERADIAN. ) SOLID_ANGLE_UNIT ( ) );
#199 = DIRECTION ( 'NONE',  ( 0.000000000000000000, -1.000000000000000000, -0.000000000000000000 ) ) ;
#200 = ADVANCED_FACE ( 'NONE', ( #182 ), #159, .T. ) ;
#201 = LENGTH_MEASURE_WITH_UNIT ( LENGTH_MEASURE( 0.02539999999999999897 ), #233 );
#202 = EDGE_CURVE ( 'NONE', #101, #268, #109, .T. ) ;
#203 = AXIS2_PLACEMENT_3D ( 'NONE', #224, #275, #298 ) ;
#204 = AXIS2_PLACEMENT_3D ( 'NONE', #192, #55, #168 ) ;
#205 = COLOUR_RGB ( '',0.7921568627450980005, 0.8196078431372548767, 0.9333333333333333481 ) ;
#206 = SURFACE_STYLE_USAGE ( .BOTH. , #110 ) ;
#207 = PRESENTATION_STYLE_ASSIGNMENT (( #178 ) ) ;
#208 =( GEOMETRIC_REPRESENTATION_CONTEXT ( 3 ) GLOBAL_UNCERTAINTY_ASSIGNED_CONTEXT ( ( #181 ) ) GLOBAL_UNIT_ASSIGNED_CONTEXT ( ( #16, #271, #256 ) ) REPRESENTATION_CONTEXT ( 'NONE', 'WORKASPACE' ) );
#209 = SURFACE_SIDE_STYLE ('',( #259 ) ) ;
#210 = AXIS2_PLACEMENT_3D ( 'NONE', #39, #223, #80 ) ;
#211 = FILL_AREA_STYLE ('',( #116 ) ) ;
#212 =( CONVERSION_BASED_UNIT ( 'INCH', #113 ) LENGTH_UNIT ( ) NAMED_UNIT ( #247 ) );
#213 = ADVANCED_FACE ( 'NONE', ( #114 ), #26, .T. ) ;
#214 = ORIENTED_EDGE ( 'NONE', *, *, #153, .F. ) ;
#215 = DIRECTION ( 'NONE',  ( 0.000000000000000000, 1.000000000000000000, 0.000000000000000000 ) ) ;
#216 = ORIENTED_EDGE ( 'NONE', *, *, #260, .F. ) ;
#217 = UNCERTAINTY_MEASURE_WITH_UNIT (LENGTH_MEASURE( 1.000000000000000082E-05 ), #75, 'distance_accuracy_value', 'NONE');
#218 = ORIENTED_EDGE ( 'NONE', *, *, #202, .T. ) ;
#219 =( NAMED_UNIT ( * ) SI_UNIT ( $, .STERADIAN. ) SOLID_ANGLE_UNIT ( ) );
#220 = EDGE_LOOP ( 'NONE', ( #31, #33, #29, #216 ) ) ;
#221 = EDGE_CURVE ( 'NONE', #268, #98, #48, .T. ) ;
#222 =( CONVERSION_BASED_UNIT ( 'INCH', #126 ) LENGTH_UNIT ( ) NAMED_UNIT ( #231 ) );
#223 = DIRECTION ( 'NONE',  ( 0.000000000000000000, 0.000000000000000000, 1.000000000000000000 ) ) ;
#224 = CARTESIAN_POINT ( 'NONE',  ( 3.323567385400245093E-34, 3.625000000000000444, 0.000000000000000000 ) ) ;
#225 = MANIFOLD_SOLID_BREP ( 'Revolve - Cutting Edge', #197 ) ;
#226 = ADVANCED_BREP_SHAPE_REPRESENTATION ( '82858', ( #225, #20, #210 ), #4 ) ;
#227 = STYLED_ITEM ( 'NONE', ( #279 ), #225 ) ;
#228 = PRODUCT_CONTEXT ( 'NONE', #230, 'mechanical' ) ;
#229 = CARTESIAN_POINT ( 'NONE',  ( 0.000000000000000000, 3.625000000000000444, -0.2500000000000000000 ) ) ;
#230 = APPLICATION_CONTEXT ( 'automotive_design' ) ;
#231 = DIMENSIONAL_EXPONENTS ( 1.000000000000000000, 0.000000000000000000, 0.000000000000000000, 0.000000000000000000, 0.000000000000000000, 0.000000000000000000, 0.000000000000000000 ) ;
#232 = CARTESIAN_POINT ( 'NONE',  ( -1.224646799147354440E-16, 6.000000000000000888, 0.000000000000000000 ) ) ;
#233 =( LENGTH_UNIT ( ) NAMED_UNIT ( * ) SI_UNIT ( $, .METRE. ) );
#234 = COLOUR_RGB ( '',1.000000000000000000, 0.000000000000000000, 0.000000000000000000 ) ;
#235 = MECHANICAL_DESIGN_GEOMETRIC_PRESENTATION_REPRESENTATION (  '', ( #35 ), #59 ) ;
#236 = CARTESIAN_POINT ( 'NONE',  ( 0.000000000000000000, 3.625000000000000444, 0.000000000000000000 ) ) ;
#237 = DIRECTION ( 'NONE',  ( -0.000000000000000000, -1.000000000000000000, -0.000000000000000000 ) ) ;
#238 = MECHANICAL_DESIGN_GEOMETRIC_PRESENTATION_REPRESENTATION (  '', ( #61 ), #121 ) ;
#239 = CARTESIAN_POINT ( 'NONE',  ( 0.2499999999999999167, 6.000000000000000888, 3.061616997868383634E-17 ) ) ;
#240 =( GEOMETRIC_REPRESENTATION_CONTEXT ( 3 ) GLOBAL_UNCERTAINTY_ASSIGNED_CONTEXT ( ( #87 ) ) GLOBAL_UNIT_ASSIGNED_CONTEXT ( ( #212, #158, #7 ) ) REPRESENTATION_CONTEXT ( 'NONE', 'WORKASPACE' ) );
#241 = ADVANCED_FACE ( 'NONE', ( #51 ), #131, .T. ) ;
#242 = CARTESIAN_POINT ( 'NONE',  ( 0.000000000000000000, 0.000000000000000000, 0.000000000000000000 ) ) ;
#243 = ADVANCED_FACE ( 'NONE', ( #118 ), #9, .T. ) ;
#244 = CARTESIAN_POINT ( 'NONE',  ( 0.000000000000000000, 0.000000000000000000, 0.000000000000000000 ) ) ;
#245 = COLOUR_RGB ( '',1.000000000000000000, 0.000000000000000000, 0.000000000000000000 ) ;
#246 = PRODUCT ( '82858', '82858', '', ( #228 ) ) ;
#247 = DIMENSIONAL_EXPONENTS ( 1.000000000000000000, 0.000000000000000000, 0.000000000000000000, 0.000000000000000000, 0.000000000000000000, 0.000000000000000000, 0.000000000000000000 ) ;
#248 = DIRECTION ( 'NONE',  ( -0.000000000000000000, -1.000000000000000000, -0.000000000000000000 ) ) ;
#249 = CARTESIAN_POINT ( 'NONE',  ( 0.000000000000000000, 0.000000000000000000, -0.2500000000000000000 ) ) ;
#250 = DIRECTION ( 'NONE',  ( 0.000000000000000000, -0.000000000000000000, 1.000000000000000000 ) ) ;
#251 = CIRCLE ( 'NONE', #166, 0.2500000000000000000 ) ;
#252 = CIRCLE ( 'NONE', #278, 0.2500000000000000000 ) ;
#253 = DIRECTION ( 'NONE',  ( -5.156407575357281462E-17, 1.000000000000000000, -0.000000000000000000 ) ) ;
#254 = AXIS2_PLACEMENT_3D ( 'NONE', #236, #64, #155 ) ;
#255 = FACE_OUTER_BOUND ( 'NONE', #267, .T. ) ;
#256 =( NAMED_UNIT ( * ) SI_UNIT ( $, .STERADIAN. ) SOLID_ANGLE_UNIT ( ) );
#257 = PRESENTATION_LAYER_ASSIGNMENT (  '', '', ( #184 ) ) ;
#258 = DIRECTION ( 'NONE',  ( -5.156407575357281462E-17, 1.000000000000000000, -0.000000000000000000 ) ) ;
#259 = SURFACE_STYLE_FILL_AREA ( #280 ) ;
#260 = EDGE_CURVE ( 'NONE', #264, #8, #252, .T. ) ;
#261 = SURFACE_SIDE_STYLE ('',( #160 ) ) ;
#262 = PRESENTATION_LAYER_ASSIGNMENT (  '', '', ( #227 ) ) ;
#263 = UNCERTAINTY_MEASURE_WITH_UNIT (LENGTH_MEASURE( 1.000000000000000082E-05 ), #112, 'distance_accuracy_value', 'NONE');
#264 = VERTEX_POINT ( 'NONE', #5 ) ;
#265 = UNCERTAINTY_MEASURE_WITH_UNIT (LENGTH_MEASURE( 1.000000000000000082E-05 ), #37, 'distance_accuracy_value', 'NONE');
#266 = COLOUR_RGB ( '',1.000000000000000000, 0.000000000000000000, 0.000000000000000000 ) ;
#267 = EDGE_LOOP ( 'NONE', ( #167, #194 ) ) ;
#268 = VERTEX_POINT ( 'NONE', #124 ) ;
#269 = CARTESIAN_POINT ( 'NONE',  ( -1.224646799147354440E-16, 6.000000000000000888, 0.000000000000000000 ) ) ;
#270 = ORIENTED_EDGE ( 'NONE', *, *, #221, .F. ) ;
#271 =( NAMED_UNIT ( * ) PLANE_ANGLE_UNIT ( ) SI_UNIT ( $, .RADIAN. ) );
#272 = DIRECTION ( 'NONE',  ( 0.000000000000000000, 0.000000000000000000, -1.000000000000000000 ) ) ;
#273 = CARTESIAN_POINT ( 'NONE',  ( -0.2500000000000002776, 6.000000000000000888, 0.000000000000000000 ) ) ;
#274 = FILL_AREA_STYLE_COLOUR ( '', #245 ) ;
#275 = DIRECTION ( 'NONE',  ( -5.156407575357281462E-17, 1.000000000000000000, 0.000000000000000000 ) ) ;
#276 =( NAMED_UNIT ( * ) PLANE_ANGLE_UNIT ( ) SI_UNIT ( $, .RADIAN. ) );
#277 = CIRCLE ( 'NONE', #146, 0.2500000000000001110 ) ;
#278 = AXIS2_PLACEMENT_3D ( 'NONE', #244, #248, #32 ) ;
#279 = PRESENTATION_STYLE_ASSIGNMENT (( #50 ) ) ;
#280 = FILL_AREA_STYLE ('',( #1 ) ) ;
#281 =( NAMED_UNIT ( * ) SI_UNIT ( $, .STERADIAN. ) SOLID_ANGLE_UNIT ( ) );
#282 =( GEOMETRIC_REPRESENTATION_CONTEXT ( 3 ) GLOBAL_UNCERTAINTY_ASSIGNED_CONTEXT ( ( #140 ) ) GLOBAL_UNIT_ASSIGNED_CONTEXT ( ( #222, #123, #198 ) ) REPRESENTATION_CONTEXT ( 'NONE', 'WORKASPACE' ) );
#283 = FILL_AREA_STYLE_COLOUR ( '', #302 ) ;
#284 = FACE_OUTER_BOUND ( 'NONE', #6, .T. ) ;
#285 = VERTEX_POINT ( 'NONE', #188 ) ;
#286 =( NAMED_UNIT ( * ) PLANE_ANGLE_UNIT ( ) SI_UNIT ( $, .RADIAN. ) );
#287 = CARTESIAN_POINT ( 'NONE',  ( 0.000000000000000000, 3.625000000000000444, 0.000000000000000000 ) ) ;
#288 = SURFACE_STYLE_FILL_AREA ( #164 ) ;
#289 = ORIENTED_EDGE ( 'NONE', *, *, #153, .T. ) ;
#290 =( LENGTH_UNIT ( ) NAMED_UNIT ( * ) SI_UNIT ( $, .METRE. ) );
#291 = FILL_AREA_STYLE_COLOUR ( '', #66 ) ;
#292 = EDGE_CURVE ( 'NONE', #268, #101, #111, .T. ) ;
#293 = ORIENTED_EDGE ( 'NONE', *, *, #260, .T. ) ;
#294 = DIMENSIONAL_EXPONENTS ( 1.000000000000000000, 0.000000000000000000, 0.000000000000000000, 0.000000000000000000, 0.000000000000000000, 0.000000000000000000, 0.000000000000000000 ) ;
#295 = DIRECTION ( 'NONE',  ( 1.000000000000000000, 5.156407575357281462E-17, 0.000000000000000000 ) ) ;
#296 = AXIS2_PLACEMENT_3D ( 'NONE', #108, #297, #272 ) ;
#297 = DIRECTION ( 'NONE',  ( -0.000000000000000000, -1.000000000000000000, -0.000000000000000000 ) ) ;
#298 = DIRECTION ( 'NONE',  ( -1.000000000000000000, -5.156407575357281462E-17, 0.000000000000000000 ) ) ;
#299 =( NAMED_UNIT ( * ) PLANE_ANGLE_UNIT ( ) SI_UNIT ( $, .RADIAN. ) );
#300 = SURFACE_STYLE_FILL_AREA ( #148 ) ;
#301 = CIRCLE ( 'NONE', #161, 0.2500000000000000000 ) ;
#302 = COLOUR_RGB ( '',1.000000000000000000, 0.000000000000000000, 0.000000000000000000 ) ;
#303 = PRESENTATION_STYLE_ASSIGNMENT (( #206 ) ) ;
#304 = CARTESIAN_POINT ( 'NONE',  ( 0.000000000000000000, 0.000000000000000000, 0.000000000000000000 ) ) ;
#305 = ADVANCED_FACE ( 'NONE', ( #284 ), #34, .T. ) ;
#306 = DIRECTION ( 'NONE',  ( -1.000000000000000000, 0.000000000000000000, 0.000000000000000000 ) ) ;
#307 = AXIS2_PLACEMENT_3D ( 'NONE', #97, #215, #250 ) ;
#308 = UNCERTAINTY_MEASURE_WITH_UNIT (LENGTH_MEASURE( 1.000000000000000082E-05 ), #152, 'distance_accuracy_value', 'NONE');
#309 = DIRECTION ( 'NONE',  ( 0.000000000000000000, 0.000000000000000000, -1.000000000000000000 ) ) ;
ENDSEC;
END-ISO-10303-21;
