ISO-10303-21;
HEADER;
FILE_DESCRIPTION (( 'STEP AP214' ),
    '1' );
FILE_NAME ('83362.STEP',
    '2023-06-30T23:04:57',
    ( '' ),
    ( '' ),
    'SwSTEP 2.0',
    'SolidWorks 2023',
    '' );
FILE_SCHEMA (( 'AUTOMOTIVE_DESIGN' ));
ENDSEC;

DATA;
#1 = PRESENTATION_STYLE_ASSIGNMENT (( #287 ) ) ;
#2 = MECHANICAL_DESIGN_GEOMETRIC_PRESENTATION_REPRESENTATION (  '', ( #123 ), #98 ) ;
#3 = ORIENTED_EDGE ( 'NONE', *, *, #68, .T. ) ;
#4 = AXIS2_PLACEMENT_3D ( 'NONE', #197, #82, #115 ) ;
#5 = VECTOR ( 'NONE', #254, 39.37007874015748143 ) ;
#6 = CARTESIAN_POINT ( 'NONE',  ( -2.296212748401287726E-17, 0.1875000000000000278, 0.000000000000000000 ) ) ;
#7 = DIRECTION ( 'NONE',  ( 1.000000000000000000, 1.212888975541075958E-16, 0.000000000000000000 ) ) ;
#8 =( LENGTH_UNIT ( ) NAMED_UNIT ( * ) SI_UNIT ( $, .METRE. ) );
#9 = PRESENTATION_LAYER_ASSIGNMENT (  '', '', ( #159 ) ) ;
#10 = ORIENTED_EDGE ( 'NONE', *, *, #357, .F. ) ;
#11 = ADVANCED_FACE ( 'NONE', ( #307 ), #276, .T. ) ;
#12 =( LENGTH_UNIT ( ) NAMED_UNIT ( * ) SI_UNIT ( $, .METRE. ) );
#13 =( CONVERSION_BASED_UNIT ( 'INCH', #273 ) LENGTH_UNIT ( ) NAMED_UNIT ( #74 ) );
#14 = ORIENTED_EDGE ( 'NONE', *, *, #118, .T. ) ;
#15 = DIRECTION ( 'NONE',  ( 1.000000000000000000, 0.000000000000000000, -1.224646799147353207E-16 ) ) ;
#16 = AXIS2_PLACEMENT_3D ( 'NONE', #103, #210, #71 ) ;
#17 =( GEOMETRIC_REPRESENTATION_CONTEXT ( 3 ) GLOBAL_UNCERTAINTY_ASSIGNED_CONTEXT ( ( #309 ) ) GLOBAL_UNIT_ASSIGNED_CONTEXT ( ( #92, #158, #202 ) ) REPRESENTATION_CONTEXT ( 'NONE', 'WORKASPACE' ) );
#18 = SURFACE_STYLE_USAGE ( .BOTH. , #279 ) ;
#19 = FACE_OUTER_BOUND ( 'NONE', #296, .T. ) ;
#20 = FILL_AREA_STYLE_COLOUR ( '', #369 ) ;
#21 = ADVANCED_BREP_SHAPE_REPRESENTATION ( '83362', ( #255, #129, #117 ), #91 ) ;
#22 = ADVANCED_FACE ( 'NONE', ( #19 ), #134, .T. ) ;
#23 = DIRECTION ( 'NONE',  ( -1.000000000000000000, 0.000000000000000000, 0.000000000000000000 ) ) ;
#24 = DIRECTION ( 'NONE',  ( -1.212888975541075958E-16, 1.000000000000000000, -0.000000000000000000 ) ) ;
#25 = ORIENTED_EDGE ( 'NONE', *, *, #38, .F. ) ;
#26 = CARTESIAN_POINT ( 'NONE',  ( 0.000000000000000000, 0.000000000000000000, 0.000000000000000000 ) ) ;
#27 = DIRECTION ( 'NONE',  ( 0.000000000000000000, 0.000000000000000000, 1.000000000000000000 ) ) ;
#28 = PRESENTATION_LAYER_ASSIGNMENT (  '', '', ( #188 ) ) ;
#29 =( NAMED_UNIT ( * ) PLANE_ANGLE_UNIT ( ) SI_UNIT ( $, .RADIAN. ) );
#30 = VERTEX_POINT ( 'NONE', #318 ) ;
#31 = CARTESIAN_POINT ( 'NONE',  ( -0.1875000000000000555, 4.000000000000000000, 0.000000000000000000 ) ) ;
#32 = CARTESIAN_POINT ( 'NONE',  ( 0.000000000000000000, 0.000000000000000000, -0.1874999999999998890 ) ) ;
#33 = ORIENTED_EDGE ( 'NONE', *, *, #100, .T. ) ;
#34 = ORIENTED_EDGE ( 'NONE', *, *, #357, .T. ) ;
#35 = AXIS2_PLACEMENT_3D ( 'NONE', #119, #190, #23 ) ;
#36 = UNCERTAINTY_MEASURE_WITH_UNIT (LENGTH_MEASURE( 1.000000000000000082E-05 ), #107, 'distance_accuracy_value', 'NONE');
#37 =( CONVERSION_BASED_UNIT ( 'INCH', #44 ) LENGTH_UNIT ( ) NAMED_UNIT ( #43 ) );
#38 = EDGE_CURVE ( 'NONE', #204, #354, #163, .T. ) ;
#39 = PLANE ( 'NONE',  #230 ) ;
#40 = LENGTH_MEASURE_WITH_UNIT ( LENGTH_MEASURE( 0.02539999999999999897 ), #8 );
#41 = PRESENTATION_STYLE_ASSIGNMENT (( #72 ) ) ;
#42 = PRESENTATION_STYLE_ASSIGNMENT (( #304 ) ) ;
#43 = DIMENSIONAL_EXPONENTS ( 1.000000000000000000, 0.000000000000000000, 0.000000000000000000, 0.000000000000000000, 0.000000000000000000, 0.000000000000000000, 0.000000000000000000 ) ;
#44 = LENGTH_MEASURE_WITH_UNIT ( LENGTH_MEASURE( 0.02539999999999999897 ), #261 );
#45 =( CONVERSION_BASED_UNIT ( 'INCH', #218 ) LENGTH_UNIT ( ) NAMED_UNIT ( #226 ) );
#46 = CARTESIAN_POINT ( 'NONE',  ( -2.296212748401287726E-17, 0.1875000000000000278, 0.000000000000000000 ) ) ;
#47 = CIRCLE ( 'NONE', #253, 0.1874999999999999167 ) ;
#48 = FILL_AREA_STYLE_COLOUR ( '', #105 ) ;
#49 = FACE_OUTER_BOUND ( 'NONE', #207, .T. ) ;
#50 = EDGE_LOOP ( 'NONE', ( #236, #319, #34, #183, #355 ) ) ;
#51 =( LENGTH_UNIT ( ) NAMED_UNIT ( * ) SI_UNIT ( $, .METRE. ) );
#52 = AXIS2_PLACEMENT_3D ( 'NONE', #111, #247, #217 ) ;
#53 = CIRCLE ( 'NONE', #334, 0.1874999999999996669 ) ;
#54 = FACE_OUTER_BOUND ( 'NONE', #266, .T. ) ;
#55 = LENGTH_MEASURE_WITH_UNIT ( LENGTH_MEASURE( 0.02539999999999999897 ), #284 );
#56 = DIRECTION ( 'NONE',  ( -0.000000000000000000, -1.000000000000000000, -0.000000000000000000 ) ) ;
#57 = DIRECTION ( 'NONE',  ( -1.212888975541075958E-16, 1.000000000000000000, 0.000000000000000000 ) ) ;
#58 = CARTESIAN_POINT ( 'NONE',  ( 0.000000000000000000, 0.1875000000000000555, 0.000000000000000000 ) ) ;
#59 = EDGE_LOOP ( 'NONE', ( #63, #180, #99, #126 ) ) ;
#60 = ORIENTED_EDGE ( 'NONE', *, *, #222, .F. ) ;
#61 = CIRCLE ( 'NONE', #122, 0.1875000000000000278 ) ;
#62 = CARTESIAN_POINT ( 'NONE',  ( 0.000000000000000000, 2.000000000000000000, -0.1874999999999997780 ) ) ;
#63 = ORIENTED_EDGE ( 'NONE', *, *, #336, .T. ) ;
#64 = CLOSED_SHELL ( 'NONE', ( #175, #351, #22, #11, #185 ) ) ;
#65 = ORIENTED_EDGE ( 'NONE', *, *, #282, .T. ) ;
#66 = SURFACE_STYLE_USAGE ( .BOTH. , #269 ) ;
#67 = EDGE_LOOP ( 'NONE', ( #128, #3, #259, #211, #10 ) ) ;
#68 = EDGE_CURVE ( 'NONE', #204, #30, #343, .T. ) ;
#69 = DIRECTION ( 'NONE',  ( -1.000000000000000000, 0.000000000000000000, 0.000000000000000000 ) ) ;
#70 = COLOUR_RGB ( '',1.000000000000000000, 0.000000000000000000, 0.000000000000000000 ) ;
#71 = DIRECTION ( 'NONE',  ( 1.000000000000000000, 0.000000000000000000, 0.000000000000000000 ) ) ;
#72 = SURFACE_STYLE_USAGE ( .BOTH. , #137 ) ;
#73 = PRODUCT_DEFINITION_SHAPE ( 'NONE', 'NONE',  #250 ) ;
#74 = DIMENSIONAL_EXPONENTS ( 1.000000000000000000, 0.000000000000000000, 0.000000000000000000, 0.000000000000000000, 0.000000000000000000, 0.000000000000000000, 0.000000000000000000 ) ;
#75 = LENGTH_MEASURE_WITH_UNIT ( LENGTH_MEASURE( 0.02539999999999999897 ), #12 );
#76 = EDGE_CURVE ( 'NONE', #96, #30, #193, .T. ) ;
#77 = DIRECTION ( 'NONE',  ( 0.000000000000000000, 0.000000000000000000, -1.000000000000000000 ) ) ;
#78 = FILL_AREA_STYLE_COLOUR ( '', #130 ) ;
#79 =( GEOMETRIC_REPRESENTATION_CONTEXT ( 3 ) GLOBAL_UNCERTAINTY_ASSIGNED_CONTEXT ( ( #36 ) ) GLOBAL_UNIT_ASSIGNED_CONTEXT ( ( #107, #364, #306 ) ) REPRESENTATION_CONTEXT ( 'NONE', 'WORKASPACE' ) );
#80 = SURFACE_STYLE_FILL_AREA ( #335 ) ;
#81 = ORIENTED_EDGE ( 'NONE', *, *, #314, .T. ) ;
#82 = DIRECTION ( 'NONE',  ( -0.000000000000000000, -1.000000000000000000, -0.000000000000000000 ) ) ;
#83 = CARTESIAN_POINT ( 'NONE',  ( 2.296212748401285877E-17, 0.000000000000000000, 0.1874999999999998890 ) ) ;
#84 = MECHANICAL_DESIGN_GEOMETRIC_PRESENTATION_REPRESENTATION (  '', ( #224 ), #312 ) ;
#85 = FILL_AREA_STYLE ('',( #168 ) ) ;
#86 = DIRECTION ( 'NONE',  ( -0.000000000000000000, -1.000000000000000000, -0.000000000000000000 ) ) ;
#87 = DIRECTION ( 'NONE',  ( -1.212888975541075958E-16, 1.000000000000000000, -0.000000000000000000 ) ) ;
#88 = EDGE_CURVE ( 'NONE', #300, #110, #53, .T. ) ;
#89 = FACE_OUTER_BOUND ( 'NONE', #205, .T. ) ;
#90 = ORIENTED_EDGE ( 'NONE', *, *, #348, .F. ) ;
#91 =( GEOMETRIC_REPRESENTATION_CONTEXT ( 3 ) GLOBAL_UNCERTAINTY_ASSIGNED_CONTEXT ( ( #338 ) ) GLOBAL_UNIT_ASSIGNED_CONTEXT ( ( #301, #104, #150 ) ) REPRESENTATION_CONTEXT ( 'NONE', 'WORKASPACE' ) );
#92 =( CONVERSION_BASED_UNIT ( 'INCH', #289 ) LENGTH_UNIT ( ) NAMED_UNIT ( #298 ) );
#93 = STYLED_ITEM ( 'NONE', ( #41 ), #22 ) ;
#94 = SURFACE_SIDE_STYLE ('',( #315 ) ) ;
#95 = PRODUCT ( '83362', '83362', '', ( #346 ) ) ;
#96 = VERTEX_POINT ( 'NONE', #148 ) ;
#97 = VERTEX_POINT ( 'NONE', #225 ) ;
#98 =( GEOMETRIC_REPRESENTATION_CONTEXT ( 3 ) GLOBAL_UNCERTAINTY_ASSIGNED_CONTEXT ( ( #136 ) ) GLOBAL_UNIT_ASSIGNED_CONTEXT ( ( #37, #212, #330 ) ) REPRESENTATION_CONTEXT ( 'NONE', 'WORKASPACE' ) );
#99 = ORIENTED_EDGE ( 'NONE', *, *, #138, .F. ) ;
#100 = EDGE_CURVE ( 'NONE', #345, #97, #172, .T. ) ;
#101 = UNCERTAINTY_MEASURE_WITH_UNIT (LENGTH_MEASURE( 1.000000000000000082E-05 ), #321, 'distance_accuracy_value', 'NONE');
#102 = DIRECTION ( 'NONE',  ( -1.212888975541075958E-16, 1.000000000000000000, -0.000000000000000000 ) ) ;
#103 = CARTESIAN_POINT ( 'NONE',  ( -2.296212748401287726E-17, 0.1875000000000000278, 0.000000000000000000 ) ) ;
#104 =( NAMED_UNIT ( * ) PLANE_ANGLE_UNIT ( ) SI_UNIT ( $, .RADIAN. ) );
#105 = COLOUR_RGB ( '',1.000000000000000000, 0.000000000000000000, 0.000000000000000000 ) ;
#106 = DIMENSIONAL_EXPONENTS ( 1.000000000000000000, 0.000000000000000000, 0.000000000000000000, 0.000000000000000000, 0.000000000000000000, 0.000000000000000000, 0.000000000000000000 ) ;
#107 =( CONVERSION_BASED_UNIT ( 'INCH', #75 ) LENGTH_UNIT ( ) NAMED_UNIT ( #181 ) );
#108 = DIRECTION ( 'NONE',  ( -0.000000000000000000, -1.000000000000000000, -0.000000000000000000 ) ) ;
#109 = APPLICATION_CONTEXT ( 'automotive_design' ) ;
#110 = VERTEX_POINT ( 'NONE', #341 ) ;
#111 = CARTESIAN_POINT ( 'NONE',  ( 0.000000000000000000, 2.000000000000000000, 0.000000000000000000 ) ) ;
#112 = STYLED_ITEM ( 'NONE', ( #223 ), #175 ) ;
#113 = CARTESIAN_POINT ( 'NONE',  ( 1.201131151934799201E-16, 2.000000000000000000, 0.000000000000000000 ) ) ;
#114 = UNCERTAINTY_MEASURE_WITH_UNIT (LENGTH_MEASURE( 1.000000000000000082E-05 ), #45, 'distance_accuracy_value', 'NONE');
#115 = DIRECTION ( 'NONE',  ( 0.000000000000000000, 0.000000000000000000, -1.000000000000000000 ) ) ;
#116 = SURFACE_STYLE_FILL_AREA ( #85 ) ;
#117 = AXIS2_PLACEMENT_3D ( 'NONE', #26, #316, #152 ) ;
#118 = EDGE_CURVE ( 'NONE', #110, #232, #196, .T. ) ;
#119 = CARTESIAN_POINT ( 'NONE',  ( -1.224646799147352714E-16, 4.000000000000000000, 0.000000000000000000 ) ) ;
#120 = DIRECTION ( 'NONE',  ( -1.000000000000000000, 0.000000000000000000, 0.000000000000000000 ) ) ;
#121 = DIRECTION ( 'NONE',  ( -1.212888975541075958E-16, 1.000000000000000000, -0.000000000000000000 ) ) ;
#122 = AXIS2_PLACEMENT_3D ( 'NONE', #46, #215, #333 ) ;
#123 = STYLED_ITEM ( 'NONE', ( #127 ), #185 ) ;
#124 = ADVANCED_FACE ( 'NONE', ( #198 ), #229, .T. ) ;
#125 = COLOUR_RGB ( '',1.000000000000000000, 0.000000000000000000, 0.000000000000000000 ) ;
#126 = ORIENTED_EDGE ( 'NONE', *, *, #118, .F. ) ;
#127 = PRESENTATION_STYLE_ASSIGNMENT (( #66 ) ) ;
#128 = ORIENTED_EDGE ( 'NONE', *, *, #348, .T. ) ;
#129 = MANIFOLD_SOLID_BREP ( 'Revolve - Tool Body (Straight Shanked)', #274 ) ;
#130 = COLOUR_RGB ( '',0.7921568627450980005, 0.8196078431372548767, 0.9333333333333333481 ) ;
#131 = DIMENSIONAL_EXPONENTS ( 1.000000000000000000, 0.000000000000000000, 0.000000000000000000, 0.000000000000000000, 0.000000000000000000, 0.000000000000000000, 0.000000000000000000 ) ;
#132 = MECHANICAL_DESIGN_GEOMETRIC_PRESENTATION_REPRESENTATION (  '', ( #305 ), #299 ) ;
#133 = ORIENTED_EDGE ( 'NONE', *, *, #214, .T. ) ;
#134 = PLANE ( 'NONE',  #324 ) ;
#135 = CARTESIAN_POINT ( 'NONE',  ( 0.000000000000000000, 0.1875000000000000555, 0.000000000000000000 ) ) ;
#136 = UNCERTAINTY_MEASURE_WITH_UNIT (LENGTH_MEASURE( 1.000000000000000082E-05 ), #37, 'distance_accuracy_value', 'NONE');
#137 = SURFACE_SIDE_STYLE ('',( #80 ) ) ;
#138 = EDGE_CURVE ( 'NONE', #232, #157, #47, .T. ) ;
#139 = AXIS2_PLACEMENT_3D ( 'NONE', #135, #108, #77 ) ;
#140 = DIRECTION ( 'NONE',  ( 1.224646799147353207E-16, -0.000000000000000000, 1.000000000000000000 ) ) ;
#141 = PRESENTATION_LAYER_ASSIGNMENT (  '', '', ( #305 ) ) ;
#142 = FILL_AREA_STYLE ('',( #20 ) ) ;
#143 = PRESENTATION_STYLE_ASSIGNMENT (( #171 ) ) ;
#144 =( GEOMETRIC_REPRESENTATION_CONTEXT ( 3 ) GLOBAL_UNCERTAINTY_ASSIGNED_CONTEXT ( ( #270 ) ) GLOBAL_UNIT_ASSIGNED_CONTEXT ( ( #13, #332, #162 ) ) REPRESENTATION_CONTEXT ( 'NONE', 'WORKASPACE' ) );
#145 = MECHANICAL_DESIGN_GEOMETRIC_PRESENTATION_REPRESENTATION (  '', ( #93 ), #235 ) ;
#146 = CARTESIAN_POINT ( 'NONE',  ( 0.000000000000000000, 0.1875000000000000555, 0.000000000000000000 ) ) ;
#147 = DIRECTION ( 'NONE',  ( -1.000000000000000000, 0.000000000000000000, 0.000000000000000000 ) ) ;
#148 = CARTESIAN_POINT ( 'NONE',  ( 0.1874999999999999722, 0.1875000000000000555, 0.000000000000000000 ) ) ;
#149 = DIMENSIONAL_EXPONENTS ( 1.000000000000000000, 0.000000000000000000, 0.000000000000000000, 0.000000000000000000, 0.000000000000000000, 0.000000000000000000, 0.000000000000000000 ) ;
#150 =( NAMED_UNIT ( * ) SI_UNIT ( $, .STERADIAN. ) SOLID_ANGLE_UNIT ( ) );
#151 = ADVANCED_FACE ( 'NONE', ( #262 ), #342, .T. ) ;
#152 = DIRECTION ( 'NONE',  ( 1.000000000000000000, 0.000000000000000000, 0.000000000000000000 ) ) ;
#153 = ORIENTED_EDGE ( 'NONE', *, *, #88, .T. ) ;
#154 = DIRECTION ( 'NONE',  ( -0.000000000000000000, -1.000000000000000000, -0.000000000000000000 ) ) ;
#155 = ORIENTED_EDGE ( 'NONE', *, *, #336, .F. ) ;
#156 = DIRECTION ( 'NONE',  ( 1.000000000000000000, 0.000000000000000000, 0.000000000000000000 ) ) ;
#157 = VERTEX_POINT ( 'NONE', #227 ) ;
#158 =( NAMED_UNIT ( * ) PLANE_ANGLE_UNIT ( ) SI_UNIT ( $, .RADIAN. ) );
#159 = STYLED_ITEM ( 'NONE', ( #302 ), #11 ) ;
#160 = CARTESIAN_POINT ( 'NONE',  ( 0.1874999999999997780, 4.000000000000000000, 0.000000000000000000 ) ) ;
#161 = ADVANCED_FACE ( 'NONE', ( #89 ), #199, .F. ) ;
#162 =( NAMED_UNIT ( * ) SI_UNIT ( $, .STERADIAN. ) SOLID_ANGLE_UNIT ( ) );
#163 = CIRCLE ( 'NONE', #356, 0.1874999999999997780 ) ;
#164 = PRODUCT_DEFINITION_CONTEXT ( 'detailed design', #109, 'design' ) ;
#165 = MECHANICAL_DESIGN_GEOMETRIC_PRESENTATION_REPRESENTATION (  '', ( #188 ), #144 ) ;
#166 = CYLINDRICAL_SURFACE ( 'NONE', #267, 0.1874999999999998890 ) ;
#167 = PRESENTATION_LAYER_ASSIGNMENT (  '', '', ( #93 ) ) ;
#168 = FILL_AREA_STYLE_COLOUR ( '', #268 ) ;
#169 = FILL_AREA_STYLE ('',( #366 ) ) ;
#170 =( NAMED_UNIT ( * ) PLANE_ANGLE_UNIT ( ) SI_UNIT ( $, .RADIAN. ) );
#171 = SURFACE_STYLE_USAGE ( .BOTH. , #94 ) ;
#172 = CIRCLE ( 'NONE', #242, 0.1874999999999999722 ) ;
#173 = DIRECTION ( 'NONE',  ( 0.000000000000000000, 0.000000000000000000, -1.000000000000000000 ) ) ;
#174 = SURFACE_SIDE_STYLE ('',( #367 ) ) ;
#175 = ADVANCED_FACE ( 'NONE', ( #49 ), #293, .T. ) ;
#176 = EDGE_LOOP ( 'NONE', ( #323, #265 ) ) ;
#177 = VECTOR ( 'NONE', #154, 39.37007874015748143 ) ;
#178 = COLOUR_RGB ( '',0.7921568627450980005, 0.8196078431372548767, 0.9333333333333333481 ) ;
#179 = LINE ( 'NONE', #32, #177 ) ;
#180 = ORIENTED_EDGE ( 'NONE', *, *, #222, .T. ) ;
#181 = DIMENSIONAL_EXPONENTS ( 1.000000000000000000, 0.000000000000000000, 0.000000000000000000, 0.000000000000000000, 0.000000000000000000, 0.000000000000000000, 0.000000000000000000 ) ;
#182 = CARTESIAN_POINT ( 'NONE',  ( -1.224646799147352714E-16, 4.000000000000000000, 0.000000000000000000 ) ) ;
#183 = ORIENTED_EDGE ( 'NONE', *, *, #100, .F. ) ;
#184 = ORIENTED_EDGE ( 'NONE', *, *, #314, .F. ) ;
#185 = ADVANCED_FACE ( 'NONE', ( #54 ), #237, .T. ) ;
#186 = DIRECTION ( 'NONE',  ( -0.000000000000000000, -1.000000000000000000, -0.000000000000000000 ) ) ;
#187 = SURFACE_SIDE_STYLE ('',( #249 ) ) ;
#188 = STYLED_ITEM ( 'NONE', ( #42 ), #255 ) ;
#189 = CARTESIAN_POINT ( 'NONE',  ( -1.148106374200643863E-17, 0.000000000000000000, 0.000000000000000000 ) ) ;
#190 = DIRECTION ( 'NONE',  ( -1.212888975541075958E-16, 1.000000000000000000, -0.000000000000000000 ) ) ;
#191 = EDGE_LOOP ( 'NONE', ( #60, #153, #14, #275 ) ) ;
#192 = DIRECTION ( 'NONE',  ( -1.212888975541075958E-16, 1.000000000000000000, -0.000000000000000000 ) ) ;
#193 = CIRCLE ( 'NONE', #370, 0.1874999999999999722 ) ;
#194 = DIRECTION ( 'NONE',  ( -0.000000000000000000, -1.000000000000000000, -0.000000000000000000 ) ) ;
#195 =( LENGTH_UNIT ( ) NAMED_UNIT ( * ) SI_UNIT ( $, .METRE. ) );
#196 = LINE ( 'NONE', #258, #5 ) ;
#197 = CARTESIAN_POINT ( 'NONE',  ( 0.000000000000000000, 0.1875000000000000555, 0.000000000000000000 ) ) ;
#198 = FACE_OUTER_BOUND ( 'NONE', #191, .T. ) ;
#199 = PLANE ( 'NONE',  #246 ) ;
#200 = DIRECTION ( 'NONE',  ( 0.000000000000000000, 0.000000000000000000, -1.000000000000000000 ) ) ;
#201 = ADVANCED_FACE ( 'NONE', ( #350 ), #39, .F. ) ;
#202 =( NAMED_UNIT ( * ) SI_UNIT ( $, .STERADIAN. ) SOLID_ANGLE_UNIT ( ) );
#203 = CARTESIAN_POINT ( 'NONE',  ( 0.000000000000000000, 0.000000000000000000, 0.000000000000000000 ) ) ;
#204 = VERTEX_POINT ( 'NONE', #358 ) ;
#205 = EDGE_LOOP ( 'NONE', ( #155, #359 ) ) ;
#206 = AXIS2_PLACEMENT_3D ( 'NONE', #344, #121, #347 ) ;
#207 = EDGE_LOOP ( 'NONE', ( #133, #65, #184, #243 ) ) ;
#208 = FILL_AREA_STYLE ('',( #352 ) ) ;
#209 = CIRCLE ( 'NONE', #290, 0.1874999999999996669 ) ;
#210 = DIRECTION ( 'NONE',  ( 0.000000000000000000, 0.000000000000000000, 1.000000000000000000 ) ) ;
#211 = ORIENTED_EDGE ( 'NONE', *, *, #292, .F. ) ;
#212 =( NAMED_UNIT ( * ) PLANE_ANGLE_UNIT ( ) SI_UNIT ( $, .RADIAN. ) );
#213 = SURFACE_STYLE_USAGE ( .BOTH. , #244 ) ;
#214 = EDGE_CURVE ( 'NONE', #30, #345, #327, .T. ) ;
#215 = DIRECTION ( 'NONE',  ( 0.000000000000000000, 0.000000000000000000, -1.000000000000000000 ) ) ;
#216 = FILL_AREA_STYLE_COLOUR ( '', #125 ) ;
#217 = DIRECTION ( 'NONE',  ( 0.000000000000000000, 0.000000000000000000, -1.000000000000000000 ) ) ;
#218 = LENGTH_MEASURE_WITH_UNIT ( LENGTH_MEASURE( 0.02539999999999999897 ), #303 );
#219 = APPLICATION_CONTEXT ( 'automotive_design' ) ;
#220 = FACE_OUTER_BOUND ( 'NONE', #67, .T. ) ;
#221 = DIRECTION ( 'NONE',  ( -1.000000000000000000, 0.000000000000000000, 0.000000000000000000 ) ) ;
#222 = EDGE_CURVE ( 'NONE', #300, #157, #337, .T. ) ;
#223 = PRESENTATION_STYLE_ASSIGNMENT (( #18 ) ) ;
#224 = STYLED_ITEM ( 'NONE', ( #1 ), #351 ) ;
#225 = CARTESIAN_POINT ( 'NONE',  ( 0.000000000000000000, 0.1875000000000000555, -0.1874999999999999722 ) ) ;
#226 = DIMENSIONAL_EXPONENTS ( 1.000000000000000000, 0.000000000000000000, 0.000000000000000000, 0.000000000000000000, 0.000000000000000000, 0.000000000000000000, 0.000000000000000000 ) ;
#227 = CARTESIAN_POINT ( 'NONE',  ( 0.1874999999999997780, 4.000000000000000000, 2.296212748401285877E-17 ) ) ;
#228 = DIRECTION ( 'NONE',  ( -0.000000000000000000, -1.000000000000000000, -0.000000000000000000 ) ) ;
#229 = CYLINDRICAL_SURFACE ( 'NONE', #206, 0.1874999999999997780 ) ;
#230 = AXIS2_PLACEMENT_3D ( 'NONE', #160, #271, #7 ) ;
#231 = AXIS2_PLACEMENT_3D ( 'NONE', #6, #27, #156 ) ;
#232 = VERTEX_POINT ( 'NONE', #31 ) ;
#233 = EDGE_CURVE ( 'NONE', #157, #232, #251, .T. ) ;
#234 = VECTOR ( 'NONE', #192, 39.37007874015748143 ) ;
#235 =( GEOMETRIC_REPRESENTATION_CONTEXT ( 3 ) GLOBAL_UNCERTAINTY_ASSIGNED_CONTEXT ( ( #114 ) ) GLOBAL_UNIT_ASSIGNED_CONTEXT ( ( #45, #280, #272 ) ) REPRESENTATION_CONTEXT ( 'NONE', 'WORKASPACE' ) );
#236 = ORIENTED_EDGE ( 'NONE', *, *, #68, .F. ) ;
#237 = SPHERICAL_SURFACE ( 'NONE', #16, 0.1875000000000000278 ) ;
#238 =( NAMED_UNIT ( * ) SI_UNIT ( $, .STERADIAN. ) SOLID_ANGLE_UNIT ( ) );
#239 = SURFACE_STYLE_FILL_AREA ( #360 ) ;
#240 = CIRCLE ( 'NONE', #139, 0.1874999999999999722 ) ;
#241 = CIRCLE ( 'NONE', #52, 0.1874999999999997780 ) ;
#242 = AXIS2_PLACEMENT_3D ( 'NONE', #146, #228, #173 ) ;
#243 = ORIENTED_EDGE ( 'NONE', *, *, #76, .T. ) ;
#244 = SURFACE_SIDE_STYLE ('',( #239 ) ) ;
#245 = AXIS2_PLACEMENT_3D ( 'NONE', #182, #24, #147 ) ;
#246 = AXIS2_PLACEMENT_3D ( 'NONE', #257, #57, #310 ) ;
#247 = DIRECTION ( 'NONE',  ( -0.000000000000000000, -1.000000000000000000, -0.000000000000000000 ) ) ;
#248 = CARTESIAN_POINT ( 'NONE',  ( 1.201131151934799201E-16, 2.000000000000000000, 0.000000000000000000 ) ) ;
#249 = SURFACE_STYLE_FILL_AREA ( #365 ) ;
#250 = PRODUCT_DEFINITION ( 'UNKNOWN', '', #297, #164 ) ;
#251 = CIRCLE ( 'NONE', #245, 0.1874999999999999167 ) ;
#252 = DIRECTION ( 'NONE',  ( 0.000000000000000000, 1.000000000000000000, 0.000000000000000000 ) ) ;
#253 = AXIS2_PLACEMENT_3D ( 'NONE', #313, #102, #69 ) ;
#254 = DIRECTION ( 'NONE',  ( -1.212888975541075958E-16, 1.000000000000000000, -0.000000000000000000 ) ) ;
#255 = MANIFOLD_SOLID_BREP ( 'Revolve - Cutting Edge', #64 ) ;
#256 = CARTESIAN_POINT ( 'NONE',  ( -2.296212748401287726E-17, 0.1875000000000000278, 0.000000000000000000 ) ) ;
#257 = CARTESIAN_POINT ( 'NONE',  ( 1.201131151934799201E-16, 2.000000000000000000, 0.000000000000000000 ) ) ;
#258 = CARTESIAN_POINT ( 'NONE',  ( -0.1874999999999999167, 4.000000000000000000, 0.000000000000000000 ) ) ;
#259 = ORIENTED_EDGE ( 'NONE', *, *, #76, .F. ) ;
#260 = SHAPE_DEFINITION_REPRESENTATION ( #73, #21 ) ;
#261 =( LENGTH_UNIT ( ) NAMED_UNIT ( * ) SI_UNIT ( $, .METRE. ) );
#262 = FACE_OUTER_BOUND ( 'NONE', #59, .T. ) ;
#263 = PRESENTATION_LAYER_ASSIGNMENT (  '', '', ( #224 ) ) ;
#264 = DIRECTION ( 'NONE',  ( 0.000000000000000000, 0.000000000000000000, -1.000000000000000000 ) ) ;
#265 = ORIENTED_EDGE ( 'NONE', *, *, #233, .T. ) ;
#266 = EDGE_LOOP ( 'NONE', ( #349, #33, #291, #81 ) ) ;
#267 = AXIS2_PLACEMENT_3D ( 'NONE', #203, #322, #264 ) ;
#268 = COLOUR_RGB ( '',1.000000000000000000, 0.000000000000000000, 0.000000000000000000 ) ;
#269 = SURFACE_SIDE_STYLE ('',( #326 ) ) ;
#270 = UNCERTAINTY_MEASURE_WITH_UNIT (LENGTH_MEASURE( 1.000000000000000082E-05 ), #13, 'distance_accuracy_value', 'NONE');
#271 = DIRECTION ( 'NONE',  ( 1.212888975541075958E-16, -1.000000000000000000, 0.000000000000000000 ) ) ;
#272 =( NAMED_UNIT ( * ) SI_UNIT ( $, .STERADIAN. ) SOLID_ANGLE_UNIT ( ) );
#273 = LENGTH_MEASURE_WITH_UNIT ( LENGTH_MEASURE( 0.02539999999999999897 ), #51 );
#274 = CLOSED_SHELL ( 'NONE', ( #151, #161, #124, #201 ) ) ;
#275 = ORIENTED_EDGE ( 'NONE', *, *, #233, .F. ) ;
#276 = CYLINDRICAL_SURFACE ( 'NONE', #281, 0.1874999999999998890 ) ;
#277 = UNCERTAINTY_MEASURE_WITH_UNIT (LENGTH_MEASURE( 1.000000000000000082E-05 ), #294, 'distance_accuracy_value', 'NONE');
#278 = DIRECTION ( 'NONE',  ( -1.212888975541075958E-16, 1.000000000000000000, -0.000000000000000000 ) ) ;
#279 = SURFACE_SIDE_STYLE ('',( #116 ) ) ;
#280 =( NAMED_UNIT ( * ) PLANE_ANGLE_UNIT ( ) SI_UNIT ( $, .RADIAN. ) );
#281 = AXIS2_PLACEMENT_3D ( 'NONE', #311, #186, #329 ) ;
#282 = EDGE_CURVE ( 'NONE', #345, #331, #339, .T. ) ;
#283 = CARTESIAN_POINT ( 'NONE',  ( 0.000000000000000000, 2.000000000000000000, 0.000000000000000000 ) ) ;
#284 =( LENGTH_UNIT ( ) NAMED_UNIT ( * ) SI_UNIT ( $, .METRE. ) );
#285 = MECHANICAL_DESIGN_GEOMETRIC_PRESENTATION_REPRESENTATION (  '', ( #159 ), #79 ) ;
#286 = CARTESIAN_POINT ( 'NONE',  ( 0.000000000000000000, 2.000000000000000000, 0.000000000000000000 ) ) ;
#287 = SURFACE_STYLE_USAGE ( .BOTH. , #174 ) ;
#288 = APPLICATION_PROTOCOL_DEFINITION ( 'draft international standard', 'automotive_design', 1998, #109 ) ;
#289 = LENGTH_MEASURE_WITH_UNIT ( LENGTH_MEASURE( 0.02539999999999999897 ), #195 );
#290 = AXIS2_PLACEMENT_3D ( 'NONE', #113, #278, #221 ) ;
#291 = ORIENTED_EDGE ( 'NONE', *, *, #292, .T. ) ;
#292 = EDGE_CURVE ( 'NONE', #97, #96, #240, .T. ) ;
#293 = SPHERICAL_SURFACE ( 'NONE', #231, 0.1875000000000000278 ) ;
#294 =( CONVERSION_BASED_UNIT ( 'INCH', #353 ) LENGTH_UNIT ( ) NAMED_UNIT ( #106 ) );
#295 =( LENGTH_UNIT ( ) NAMED_UNIT ( * ) SI_UNIT ( $, .METRE. ) );
#296 = EDGE_LOOP ( 'NONE', ( #90, #25 ) ) ;
#297 = PRODUCT_DEFINITION_FORMATION_WITH_SPECIFIED_SOURCE ( 'ANY', '', #95, .NOT_KNOWN. ) ;
#298 = DIMENSIONAL_EXPONENTS ( 1.000000000000000000, 0.000000000000000000, 0.000000000000000000, 0.000000000000000000, 0.000000000000000000, 0.000000000000000000, 0.000000000000000000 ) ;
#299 =( GEOMETRIC_REPRESENTATION_CONTEXT ( 3 ) GLOBAL_UNCERTAINTY_ASSIGNED_CONTEXT ( ( #101 ) ) GLOBAL_UNIT_ASSIGNED_CONTEXT ( ( #321, #170, #371 ) ) REPRESENTATION_CONTEXT ( 'NONE', 'WORKASPACE' ) );
#300 = VERTEX_POINT ( 'NONE', #308 ) ;
#301 =( CONVERSION_BASED_UNIT ( 'INCH', #40 ) LENGTH_UNIT ( ) NAMED_UNIT ( #131 ) );
#302 = PRESENTATION_STYLE_ASSIGNMENT (( #213 ) ) ;
#303 =( LENGTH_UNIT ( ) NAMED_UNIT ( * ) SI_UNIT ( $, .METRE. ) );
#304 = SURFACE_STYLE_USAGE ( .BOTH. , #187 ) ;
#305 = STYLED_ITEM ( 'NONE', ( #143 ), #129 ) ;
#306 =( NAMED_UNIT ( * ) SI_UNIT ( $, .STERADIAN. ) SOLID_ANGLE_UNIT ( ) );
#307 = FACE_OUTER_BOUND ( 'NONE', #50, .T. ) ;
#308 = CARTESIAN_POINT ( 'NONE',  ( 0.1874999999999997780, 2.000000000000000000, 2.296212748401285877E-17 ) ) ;
#309 = UNCERTAINTY_MEASURE_WITH_UNIT (LENGTH_MEASURE( 1.000000000000000082E-05 ), #92, 'distance_accuracy_value', 'NONE');
#310 = DIRECTION ( 'NONE',  ( -1.000000000000000000, -1.212888975541075958E-16, 0.000000000000000000 ) ) ;
#311 = CARTESIAN_POINT ( 'NONE',  ( 0.000000000000000000, 0.000000000000000000, 0.000000000000000000 ) ) ;
#312 =( GEOMETRIC_REPRESENTATION_CONTEXT ( 3 ) GLOBAL_UNCERTAINTY_ASSIGNED_CONTEXT ( ( #277 ) ) GLOBAL_UNIT_ASSIGNED_CONTEXT ( ( #294, #29, #238 ) ) REPRESENTATION_CONTEXT ( 'NONE', 'WORKASPACE' ) );
#313 = CARTESIAN_POINT ( 'NONE',  ( -1.224646799147352714E-16, 4.000000000000000000, 0.000000000000000000 ) ) ;
#314 = EDGE_CURVE ( 'NONE', #96, #331, #61, .T. ) ;
#315 = SURFACE_STYLE_FILL_AREA ( #169 ) ;
#316 = DIRECTION ( 'NONE',  ( 0.000000000000000000, 0.000000000000000000, 1.000000000000000000 ) ) ;
#317 = CARTESIAN_POINT ( 'NONE',  ( 0.1874999999999996392, 4.000000000000000000, 2.296212748401284644E-17 ) ) ;
#318 = CARTESIAN_POINT ( 'NONE',  ( 2.296212748401286801E-17, 0.1875000000000000555, 0.1874999999999999445 ) ) ;
#319 = ORIENTED_EDGE ( 'NONE', *, *, #38, .T. ) ;
#320 = VECTOR ( 'NONE', #56, 39.37007874015748143 ) ;
#321 =( CONVERSION_BASED_UNIT ( 'INCH', #55 ) LENGTH_UNIT ( ) NAMED_UNIT ( #149 ) );
#322 = DIRECTION ( 'NONE',  ( -0.000000000000000000, -1.000000000000000000, -0.000000000000000000 ) ) ;
#323 = ORIENTED_EDGE ( 'NONE', *, *, #138, .T. ) ;
#324 = AXIS2_PLACEMENT_3D ( 'NONE', #283, #252, #372 ) ;
#325 = PRODUCT_RELATED_PRODUCT_CATEGORY ( 'part', '', ( #95 ) ) ;
#326 = SURFACE_STYLE_FILL_AREA ( #208 ) ;
#327 = CIRCLE ( 'NONE', #4, 0.1874999999999999722 ) ;
#328 = PRESENTATION_LAYER_ASSIGNMENT (  '', '', ( #123 ) ) ;
#329 = DIRECTION ( 'NONE',  ( 0.000000000000000000, 0.000000000000000000, -1.000000000000000000 ) ) ;
#330 =( NAMED_UNIT ( * ) SI_UNIT ( $, .STERADIAN. ) SOLID_ANGLE_UNIT ( ) );
#331 = VERTEX_POINT ( 'NONE', #189 ) ;
#332 =( NAMED_UNIT ( * ) PLANE_ANGLE_UNIT ( ) SI_UNIT ( $, .RADIAN. ) );
#333 = DIRECTION ( 'NONE',  ( -1.000000000000000000, 0.000000000000000000, 0.000000000000000000 ) ) ;
#334 = AXIS2_PLACEMENT_3D ( 'NONE', #248, #87, #120 ) ;
#335 = FILL_AREA_STYLE ('',( #216 ) ) ;
#336 = EDGE_CURVE ( 'NONE', #110, #300, #209, .T. ) ;
#337 = LINE ( 'NONE', #317, #234 ) ;
#338 = UNCERTAINTY_MEASURE_WITH_UNIT (LENGTH_MEASURE( 1.000000000000000082E-05 ), #301, 'distance_accuracy_value', 'NONE');
#339 = CIRCLE ( 'NONE', #362, 0.1875000000000000278 ) ;
#340 = PRESENTATION_LAYER_ASSIGNMENT (  '', '', ( #112 ) ) ;
#341 = CARTESIAN_POINT ( 'NONE',  ( -0.1874999999999995282, 2.000000000000000000, 0.000000000000000000 ) ) ;
#342 = CYLINDRICAL_SURFACE ( 'NONE', #35, 0.1874999999999997780 ) ;
#343 = LINE ( 'NONE', #83, #320 ) ;
#344 = CARTESIAN_POINT ( 'NONE',  ( -1.224646799147352714E-16, 4.000000000000000000, 0.000000000000000000 ) ) ;
#345 = VERTEX_POINT ( 'NONE', #361 ) ;
#346 = PRODUCT_CONTEXT ( 'NONE', #219, 'mechanical' ) ;
#347 = DIRECTION ( 'NONE',  ( -1.000000000000000000, 0.000000000000000000, 0.000000000000000000 ) ) ;
#348 = EDGE_CURVE ( 'NONE', #354, #204, #241, .T. ) ;
#349 = ORIENTED_EDGE ( 'NONE', *, *, #282, .F. ) ;
#350 = FACE_OUTER_BOUND ( 'NONE', #176, .T. ) ;
#351 = ADVANCED_FACE ( 'NONE', ( #220 ), #166, .T. ) ;
#352 = FILL_AREA_STYLE_COLOUR ( '', #70 ) ;
#353 = LENGTH_MEASURE_WITH_UNIT ( LENGTH_MEASURE( 0.02539999999999999897 ), #295 );
#354 = VERTEX_POINT ( 'NONE', #62 ) ;
#355 = ORIENTED_EDGE ( 'NONE', *, *, #214, .F. ) ;
#356 = AXIS2_PLACEMENT_3D ( 'NONE', #286, #86, #200 ) ;
#357 = EDGE_CURVE ( 'NONE', #354, #97, #179, .T. ) ;
#358 = CARTESIAN_POINT ( 'NONE',  ( 2.296212748401284952E-17, 2.000000000000000000, 0.1874999999999997780 ) ) ;
#359 = ORIENTED_EDGE ( 'NONE', *, *, #88, .F. ) ;
#360 = FILL_AREA_STYLE ('',( #48 ) ) ;
#361 = CARTESIAN_POINT ( 'NONE',  ( -0.1875000000000000278, 0.1875000000000000555, 2.296212748401287109E-17 ) ) ;
#362 = AXIS2_PLACEMENT_3D ( 'NONE', #256, #140, #15 ) ;
#363 = MECHANICAL_DESIGN_GEOMETRIC_PRESENTATION_REPRESENTATION (  '', ( #112 ), #17 ) ;
#364 =( NAMED_UNIT ( * ) PLANE_ANGLE_UNIT ( ) SI_UNIT ( $, .RADIAN. ) );
#365 = FILL_AREA_STYLE ('',( #78 ) ) ;
#366 = FILL_AREA_STYLE_COLOUR ( '', #178 ) ;
#367 = SURFACE_STYLE_FILL_AREA ( #142 ) ;
#368 = DIRECTION ( 'NONE',  ( 0.000000000000000000, 0.000000000000000000, -1.000000000000000000 ) ) ;
#369 = COLOUR_RGB ( '',1.000000000000000000, 0.000000000000000000, 0.000000000000000000 ) ;
#370 = AXIS2_PLACEMENT_3D ( 'NONE', #58, #194, #368 ) ;
#371 =( NAMED_UNIT ( * ) SI_UNIT ( $, .STERADIAN. ) SOLID_ANGLE_UNIT ( ) );
#372 = DIRECTION ( 'NONE',  ( 0.000000000000000000, -0.000000000000000000, 1.000000000000000000 ) ) ;
#373 = APPLICATION_PROTOCOL_DEFINITION ( 'draft international standard', 'automotive_design', 1998, #219 ) ;
ENDSEC;
END-ISO-10303-21;
