ISO-10303-21;
HEADER;
FILE_DESCRIPTION (( 'STEP AP214' ),
    '1' );
FILE_NAME ('59509.STEP',
    '2023-07-24T15:08:22',
    ( '' ),
    ( '' ),
    'SwSTEP 2.0',
    'SolidWorks 2023',
    '' );
FILE_SCHEMA (( 'AUTOMOTIVE_DESIGN' ));
ENDSEC;

DATA;
#1 = CARTESIAN_POINT ( 'NONE',  ( 0.000000000000000000, 1.000000000000000000, 0.000000000000000000 ) ) ;
#2 = EDGE_CURVE ( 'NONE', #95, #207, #163, .T. ) ;
#3 = SURFACE_STYLE_FILL_AREA ( #81 ) ;
#4 = VERTEX_POINT ( 'NONE', #208 ) ;
#5 = STYLED_ITEM ( 'NONE', ( #209 ), #29 ) ;
#6 = APPLICATION_PROTOCOL_DEFINITION ( 'draft international standard', 'automotive_design', 1998, #54 ) ;
#7 = FILL_AREA_STYLE ('',( #121 ) ) ;
#8 = ORIENTED_EDGE ( 'NONE', *, *, #48, .F. ) ;
#9 = PRESENTATION_STYLE_ASSIGNMENT (( #259 ) ) ;
#10 = ORIENTED_EDGE ( 'NONE', *, *, #278, .T. ) ;
#11 = PRESENTATION_STYLE_ASSIGNMENT (( #109 ) ) ;
#12 = DIRECTION ( 'NONE',  ( -1.000000000000000000, 0.000000000000000000, 0.000000000000000000 ) ) ;
#13 = EDGE_LOOP ( 'NONE', ( #34, #60, #349, #67 ) ) ;
#14 = CIRCLE ( 'NONE', #264, 12.50000000000000000 ) ;
#15 = PRODUCT_DEFINITION_FORMATION_WITH_SPECIFIED_SOURCE ( 'ANY', '', #157, .NOT_KNOWN. ) ;
#16 = FACE_OUTER_BOUND ( 'NONE', #13, .T. ) ;
#17 = EDGE_LOOP ( 'NONE', ( #174, #317, #8, #313 ) ) ;
#18 = CYLINDRICAL_SURFACE ( 'NONE', #203, 12.50000000000000000 ) ;
#19 = ADVANCED_FACE ( 'NONE', ( #324 ), #140, .T. ) ;
#20 = COLOUR_RGB ( '',1.000000000000000000, 0.000000000000000000, 0.000000000000000000 ) ;
#21 = EDGE_CURVE ( 'NONE', #39, #89, #14, .T. ) ;
#22 = PRESENTATION_LAYER_ASSIGNMENT (  '', '', ( #5 ) ) ;
#23 = CIRCLE ( 'NONE', #77, 11.50000000000000000 ) ;
#24 = CARTESIAN_POINT ( 'NONE',  ( 0.000000000000000000, 1.000000000000000000, 0.000000000000000000 ) ) ;
#25 = STYLED_ITEM ( 'NONE', ( #11 ), #165 ) ;
#26 = AXIS2_PLACEMENT_3D ( 'NONE', #47, #296, #301 ) ;
#27 =( NAMED_UNIT ( * ) PLANE_ANGLE_UNIT ( ) SI_UNIT ( $, .RADIAN. ) );
#28 = SURFACE_SIDE_STYLE ('',( #342 ) ) ;
#29 = ADVANCED_FACE ( 'NONE', ( #334 ), #303, .T. ) ;
#30 = SURFACE_SIDE_STYLE ('',( #112 ) ) ;
#31 = ORIENTED_EDGE ( 'NONE', *, *, #178, .F. ) ;
#32 =( LENGTH_UNIT ( ) NAMED_UNIT ( * ) SI_UNIT ( .MILLI., .METRE. ) );
#33 =( NAMED_UNIT ( * ) PLANE_ANGLE_UNIT ( ) SI_UNIT ( $, .RADIAN. ) );
#34 = ORIENTED_EDGE ( 'NONE', *, *, #65, .F. ) ;
#35 = DIRECTION ( 'NONE',  ( -0.000000000000000000, -1.000000000000000000, -0.000000000000000000 ) ) ;
#36 = STYLED_ITEM ( 'NONE', ( #193 ), #329 ) ;
#37 = CYLINDRICAL_SURFACE ( 'NONE', #171, 12.50000000000000000 ) ;
#38 =( NAMED_UNIT ( * ) PLANE_ANGLE_UNIT ( ) SI_UNIT ( $, .RADIAN. ) );
#39 = VERTEX_POINT ( 'NONE', #66 ) ;
#40 = DIRECTION ( 'NONE',  ( -0.000000000000000000, -1.000000000000000000, -0.000000000000000000 ) ) ;
#41 = CARTESIAN_POINT ( 'NONE',  ( 0.000000000000000000, 64.00000000000000000, -12.50000000000000000 ) ) ;
#42 = EDGE_CURVE ( 'NONE', #137, #95, #327, .T. ) ;
#43 = ORIENTED_EDGE ( 'NONE', *, *, #91, .F. ) ;
#44 = DIRECTION ( 'NONE',  ( 0.000000000000000000, 0.000000000000000000, -1.000000000000000000 ) ) ;
#45 = EDGE_LOOP ( 'NONE', ( #69, #236 ) ) ;
#46 = STYLED_ITEM ( 'NONE', ( #277 ), #75 ) ;
#47 = CARTESIAN_POINT ( 'NONE',  ( 7.155734338404329264E-15, 64.00000000000000000, 0.000000000000000000 ) ) ;
#48 = EDGE_CURVE ( 'NONE', #207, #4, #364, .T. ) ;
#49 = MECHANICAL_DESIGN_GEOMETRIC_PRESENTATION_REPRESENTATION (  '', ( #108 ), #83 ) ;
#50 = PRODUCT_DEFINITION_CONTEXT ( 'detailed design', #54, 'design' ) ;
#51 = AXIS2_PLACEMENT_3D ( 'NONE', #231, #343, #258 ) ;
#52 = TOROIDAL_SURFACE ( 'NONE', #254, 11.50000000000000000, 1.000000000000000444 ) ;
#53 = CARTESIAN_POINT ( 'NONE',  ( 12.50000000000000000, 64.00000000000000000, 1.530808498934191916E-15 ) ) ;
#54 = APPLICATION_CONTEXT ( 'automotive_design' ) ;
#55 = DIRECTION ( 'NONE',  ( -0.000000000000000000, -1.000000000000000000, -0.000000000000000000 ) ) ;
#56 = MECHANICAL_DESIGN_GEOMETRIC_PRESENTATION_REPRESENTATION (  '', ( #46 ), #146 ) ;
#57 = CIRCLE ( 'NONE', #51, 12.50000000000000000 ) ;
#58 = PLANE ( 'NONE',  #239 ) ;
#59 = DIRECTION ( 'NONE',  ( 1.895813576284393923E-16, -1.000000000000000000, 0.000000000000000000 ) ) ;
#60 = ORIENTED_EDGE ( 'NONE', *, *, #244, .T. ) ;
#61 = CARTESIAN_POINT ( 'NONE',  ( 0.000000000000000000, 0.000000000000000000, 0.000000000000000000 ) ) ;
#62 = SURFACE_SIDE_STYLE ('',( #117 ) ) ;
#63 = DIRECTION ( 'NONE',  ( -1.895813576284393923E-16, 1.000000000000000000, -0.000000000000000000 ) ) ;
#64 = MECHANICAL_DESIGN_GEOMETRIC_PRESENTATION_REPRESENTATION (  '', ( #36 ), #151 ) ;
#65 = EDGE_CURVE ( 'NONE', #267, #89, #249, .T. ) ;
#66 = CARTESIAN_POINT ( 'NONE',  ( 0.000000000000000000, 1.000000000000000000, -12.50000000000000000 ) ) ;
#67 = ORIENTED_EDGE ( 'NONE', *, *, #154, .F. ) ;
#68 = FACE_OUTER_BOUND ( 'NONE', #45, .T. ) ;
#69 = ORIENTED_EDGE ( 'NONE', *, *, #120, .F. ) ;
#70 =( NAMED_UNIT ( * ) PLANE_ANGLE_UNIT ( ) SI_UNIT ( $, .RADIAN. ) );
#71 = PLANE ( 'NONE',  #333 ) ;
#72 = MECHANICAL_DESIGN_GEOMETRIC_PRESENTATION_REPRESENTATION (  '', ( #225 ), #176 ) ;
#73 = CARTESIAN_POINT ( 'NONE',  ( 1.530808498934191521E-15, 1.000000000000000000, 12.50000000000000000 ) ) ;
#74 = DIRECTION ( 'NONE',  ( 1.000000000000000000, 0.000000000000000000, 0.000000000000000000 ) ) ;
#75 = ADVANCED_FACE ( 'NONE', ( #248 ), #291, .T. ) ;
#76 = VECTOR ( 'NONE', #164, 1000.000000000000000 ) ;
#77 = AXIS2_PLACEMENT_3D ( 'NONE', #256, #234, #44 ) ;
#78 = SURFACE_STYLE_FILL_AREA ( #107 ) ;
#79 = EDGE_CURVE ( 'NONE', #345, #267, #369, .T. ) ;
#80 = DIRECTION ( 'NONE',  ( 0.000000000000000000, -0.000000000000000000, 1.000000000000000000 ) ) ;
#81 = FILL_AREA_STYLE ('',( #307 ) ) ;
#82 = CIRCLE ( 'NONE', #332, 1.000000000000000888 ) ;
#83 =( GEOMETRIC_REPRESENTATION_CONTEXT ( 3 ) GLOBAL_UNCERTAINTY_ASSIGNED_CONTEXT ( ( #98 ) ) GLOBAL_UNIT_ASSIGNED_CONTEXT ( ( #346, #27, #189 ) ) REPRESENTATION_CONTEXT ( 'NONE', 'WORKASPACE' ) );
#84 = DIRECTION ( 'NONE',  ( 0.000000000000000000, 0.000000000000000000, -1.000000000000000000 ) ) ;
#85 = ORIENTED_EDGE ( 'NONE', *, *, #91, .T. ) ;
#86 = CARTESIAN_POINT ( 'NONE',  ( 0.000000000000000000, 64.00000000000000000, 0.000000000000000000 ) ) ;
#87 = LINE ( 'NONE', #265, #255 ) ;
#88 = DIRECTION ( 'NONE',  ( -0.000000000000000000, -1.000000000000000000, -0.000000000000000000 ) ) ;
#89 = VERTEX_POINT ( 'NONE', #73 ) ;
#90 = CARTESIAN_POINT ( 'NONE',  ( 0.000000000000000000, 1.000000000000000000, 0.000000000000000000 ) ) ;
#91 = EDGE_CURVE ( 'NONE', #89, #114, #243, .T. ) ;
#92 = PLANE ( 'NONE',  #26 ) ;
#93 = EDGE_LOOP ( 'NONE', ( #199, #119 ) ) ;
#94 = SURFACE_SIDE_STYLE ('',( #314 ) ) ;
#95 = VERTEX_POINT ( 'NONE', #219 ) ;
#96 =( NAMED_UNIT ( * ) PLANE_ANGLE_UNIT ( ) SI_UNIT ( $, .RADIAN. ) );
#97 = ORIENTED_EDGE ( 'NONE', *, *, #106, .T. ) ;
#98 = UNCERTAINTY_MEASURE_WITH_UNIT (LENGTH_MEASURE( 1.000000000000000082E-05 ), #346, 'distance_accuracy_value', 'NONE');
#99 = AXIS2_PLACEMENT_3D ( 'NONE', #90, #40, #141 ) ;
#100 = CIRCLE ( 'NONE', #253, 11.50000000000000000 ) ;
#101 = PRESENTATION_LAYER_ASSIGNMENT (  '', '', ( #36 ) ) ;
#102 = PRODUCT_DEFINITION ( 'UNKNOWN', '', #15, #50 ) ;
#103 =( NAMED_UNIT ( * ) SI_UNIT ( $, .STERADIAN. ) SOLID_ANGLE_UNIT ( ) );
#104 = MECHANICAL_DESIGN_GEOMETRIC_PRESENTATION_REPRESENTATION (  '', ( #5 ), #215 ) ;
#105 = CARTESIAN_POINT ( 'NONE',  ( 1.408343819019456176E-15, 1.000000000000000000, 11.50000000000000000 ) ) ;
#106 = EDGE_CURVE ( 'NONE', #39, #353, #82, .T. ) ;
#107 = FILL_AREA_STYLE ('',( #127 ) ) ;
#108 = STYLED_ITEM ( 'NONE', ( #205 ), #201 ) ;
#109 = SURFACE_STYLE_USAGE ( .BOTH. , #28 ) ;
#110 = AXIS2_PLACEMENT_3D ( 'NONE', #221, #247, #368 ) ;
#111 = CARTESIAN_POINT ( 'NONE',  ( 0.000000000000000000, 1.000000000000000000, 0.000000000000000000 ) ) ;
#112 = SURFACE_STYLE_FILL_AREA ( #228 ) ;
#113 = DIRECTION ( 'NONE',  ( -1.895813576284393923E-16, 1.000000000000000000, -0.000000000000000000 ) ) ;
#114 = VERTEX_POINT ( 'NONE', #240 ) ;
#115 = EDGE_LOOP ( 'NONE', ( #204, #294 ) ) ;
#116 =( NAMED_UNIT ( * ) PLANE_ANGLE_UNIT ( ) SI_UNIT ( $, .RADIAN. ) );
#117 = SURFACE_STYLE_FILL_AREA ( #229 ) ;
#118 = CLOSED_SHELL ( 'NONE', ( #19, #315, #274, #211 ) ) ;
#119 = ORIENTED_EDGE ( 'NONE', *, *, #293, .T. ) ;
#120 = EDGE_CURVE ( 'NONE', #95, #137, #202, .T. ) ;
#121 = FILL_AREA_STYLE_COLOUR ( '', #328 ) ;
#122 = ORIENTED_EDGE ( 'NONE', *, *, #278, .F. ) ;
#123 =( LENGTH_UNIT ( ) NAMED_UNIT ( * ) SI_UNIT ( .MILLI., .METRE. ) );
#124 = DIRECTION ( 'NONE',  ( 0.000000000000000000, 0.000000000000000000, -1.000000000000000000 ) ) ;
#125 = DIRECTION ( 'NONE',  ( -1.000000000000000000, 0.000000000000000000, 0.000000000000000000 ) ) ;
#126 = AXIS2_PLACEMENT_3D ( 'NONE', #220, #367, #339 ) ;
#127 = FILL_AREA_STYLE_COLOUR ( '', #180 ) ;
#128 = AXIS2_PLACEMENT_3D ( 'NONE', #218, #336, #74 ) ;
#129 = CARTESIAN_POINT ( 'NONE',  ( -4.408728476930471644E-15, 125.0000000000000000, 0.000000000000000000 ) ) ;
#130 = PRODUCT_CONTEXT ( 'NONE', #297, 'mechanical' ) ;
#131 = DIRECTION ( 'NONE',  ( -0.000000000000000000, -1.000000000000000000, -0.000000000000000000 ) ) ;
#132 = ORIENTED_EDGE ( 'NONE', *, *, #65, .T. ) ;
#133 = FACE_OUTER_BOUND ( 'NONE', #115, .T. ) ;
#134 = ADVANCED_FACE ( 'NONE', ( #306 ), #52, .T. ) ;
#135 = PRESENTATION_LAYER_ASSIGNMENT (  '', '', ( #25 ) ) ;
#136 = FILL_AREA_STYLE_COLOUR ( '', #235 ) ;
#137 = VERTEX_POINT ( 'NONE', #53 ) ;
#138 = DIRECTION ( 'NONE',  ( 0.000000000000000000, -1.000000000000000000, -0.000000000000000000 ) ) ;
#139 = SURFACE_STYLE_USAGE ( .BOTH. , #62 ) ;
#140 = CYLINDRICAL_SURFACE ( 'NONE', #214, 12.50000000000000000 ) ;
#141 = DIRECTION ( 'NONE',  ( 0.000000000000000000, 0.000000000000000000, -1.000000000000000000 ) ) ;
#142 =( NAMED_UNIT ( * ) SI_UNIT ( $, .STERADIAN. ) SOLID_ANGLE_UNIT ( ) );
#143 = EDGE_CURVE ( 'NONE', #353, #114, #100, .T. ) ;
#144 = ORIENTED_EDGE ( 'NONE', *, *, #293, .F. ) ;
#145 = CARTESIAN_POINT ( 'NONE',  ( 0.000000000000000000, 0.000000000000000000, -11.50000000000000000 ) ) ;
#146 =( GEOMETRIC_REPRESENTATION_CONTEXT ( 3 ) GLOBAL_UNCERTAINTY_ASSIGNED_CONTEXT ( ( #223 ) ) GLOBAL_UNIT_ASSIGNED_CONTEXT ( ( #275, #268, #182 ) ) REPRESENTATION_CONTEXT ( 'NONE', 'WORKASPACE' ) );
#147 = ORIENTED_EDGE ( 'NONE', *, *, #21, .T. ) ;
#148 = SURFACE_SIDE_STYLE ('',( #237 ) ) ;
#149 =( NAMED_UNIT ( * ) PLANE_ANGLE_UNIT ( ) SI_UNIT ( $, .RADIAN. ) );
#150 =( GEOMETRIC_REPRESENTATION_CONTEXT ( 3 ) GLOBAL_UNCERTAINTY_ASSIGNED_CONTEXT ( ( #177 ) ) GLOBAL_UNIT_ASSIGNED_CONTEXT ( ( #354, #191, #251 ) ) REPRESENTATION_CONTEXT ( 'NONE', 'WORKASPACE' ) );
#151 =( GEOMETRIC_REPRESENTATION_CONTEXT ( 3 ) GLOBAL_UNCERTAINTY_ASSIGNED_CONTEXT ( ( #363 ) ) GLOBAL_UNIT_ASSIGNED_CONTEXT ( ( #198, #38, #287 ) ) REPRESENTATION_CONTEXT ( 'NONE', 'WORKASPACE' ) );
#152 = SURFACE_STYLE_FILL_AREA ( #330 ) ;
#153 = CARTESIAN_POINT ( 'NONE',  ( -12.50000000000001066, 125.0000000000000000, 0.000000000000000000 ) ) ;
#154 = EDGE_CURVE ( 'NONE', #89, #39, #222, .T. ) ;
#155 = DIRECTION ( 'NONE',  ( -0.000000000000000000, -1.000000000000000000, -0.000000000000000000 ) ) ;
#156 = SURFACE_STYLE_USAGE ( .BOTH. , #312 ) ;
#157 = PRODUCT ( '59509', '59509', '', ( #130 ) ) ;
#158 = CARTESIAN_POINT ( 'NONE',  ( 0.000000000000000000, 64.00000000000000000, 0.000000000000000000 ) ) ;
#159 = DIRECTION ( 'NONE',  ( 1.000000000000000000, 0.000000000000000000, -1.224646799147353207E-16 ) ) ;
#160 = VECTOR ( 'NONE', #63, 1000.000000000000000 ) ;
#161 = CARTESIAN_POINT ( 'NONE',  ( 1.530808498934191521E-15, 0.000000000000000000, 12.50000000000000000 ) ) ;
#162 = FILL_AREA_STYLE_COLOUR ( '', #305 ) ;
#163 = LINE ( 'NONE', #226, #160 ) ;
#164 = DIRECTION ( 'NONE',  ( -1.895813576284393923E-16, 1.000000000000000000, -0.000000000000000000 ) ) ;
#165 = ADVANCED_FACE ( 'NONE', ( #133 ), #58, .T. ) ;
#166 = SURFACE_STYLE_USAGE ( .BOTH. , #30 ) ;
#167 = DIRECTION ( 'NONE',  ( -0.000000000000000000, -1.000000000000000000, -0.000000000000000000 ) ) ;
#168 = DIRECTION ( 'NONE',  ( -0.000000000000000000, -1.000000000000000000, -0.000000000000000000 ) ) ;
#169 = DIRECTION ( 'NONE',  ( 0.000000000000000000, 0.000000000000000000, -1.000000000000000000 ) ) ;
#170 = COLOUR_RGB ( '',1.000000000000000000, 0.000000000000000000, 0.000000000000000000 ) ;
#171 = AXIS2_PLACEMENT_3D ( 'NONE', #323, #206, #348 ) ;
#172 = ORIENTED_EDGE ( 'NONE', *, *, #2, .T. ) ;
#173 = CARTESIAN_POINT ( 'NONE',  ( 0.000000000000000000, 0.000000000000000000, 0.000000000000000000 ) ) ;
#174 = ORIENTED_EDGE ( 'NONE', *, *, #120, .T. ) ;
#175 =( GEOMETRIC_REPRESENTATION_CONTEXT ( 3 ) GLOBAL_UNCERTAINTY_ASSIGNED_CONTEXT ( ( #288 ) ) GLOBAL_UNIT_ASSIGNED_CONTEXT ( ( #32, #116, #282 ) ) REPRESENTATION_CONTEXT ( 'NONE', 'WORKASPACE' ) );
#176 =( GEOMETRIC_REPRESENTATION_CONTEXT ( 3 ) GLOBAL_UNCERTAINTY_ASSIGNED_CONTEXT ( ( #179 ) ) GLOBAL_UNIT_ASSIGNED_CONTEXT ( ( #357, #96, #142 ) ) REPRESENTATION_CONTEXT ( 'NONE', 'WORKASPACE' ) );
#177 = UNCERTAINTY_MEASURE_WITH_UNIT (LENGTH_MEASURE( 1.000000000000000082E-05 ), #354, 'distance_accuracy_value', 'NONE');
#178 = EDGE_CURVE ( 'NONE', #137, #4, #196, .T. ) ;
#179 = UNCERTAINTY_MEASURE_WITH_UNIT (LENGTH_MEASURE( 1.000000000000000082E-05 ), #357, 'distance_accuracy_value', 'NONE');
#180 = COLOUR_RGB ( '',1.000000000000000000, 0.000000000000000000, 0.000000000000000000 ) ;
#181 = AXIS2_PLACEMENT_3D ( 'NONE', #61, #138, #169 ) ;
#182 =( NAMED_UNIT ( * ) SI_UNIT ( $, .STERADIAN. ) SOLID_ANGLE_UNIT ( ) );
#183 = DIRECTION ( 'NONE',  ( -1.224646799147353454E-16, 0.000000000000000000, -1.000000000000000000 ) ) ;
#184 = MECHANICAL_DESIGN_GEOMETRIC_PRESENTATION_REPRESENTATION (  '', ( #25 ), #150 ) ;
#185 = SURFACE_SIDE_STYLE ('',( #78 ) ) ;
#186 = PRODUCT_RELATED_PRODUCT_CATEGORY ( 'part', '', ( #157 ) ) ;
#187 = DIRECTION ( 'NONE',  ( -1.895813576284393923E-16, 1.000000000000000000, -0.000000000000000000 ) ) ;
#188 = DIRECTION ( 'NONE',  ( 0.000000000000000000, 0.000000000000000000, -1.000000000000000000 ) ) ;
#189 =( NAMED_UNIT ( * ) SI_UNIT ( $, .STERADIAN. ) SOLID_ANGLE_UNIT ( ) );
#190 = AXIS2_PLACEMENT_3D ( 'NONE', #158, #155, #188 ) ;
#191 =( NAMED_UNIT ( * ) PLANE_ANGLE_UNIT ( ) SI_UNIT ( $, .RADIAN. ) );
#192 = DIRECTION ( 'NONE',  ( 1.000000000000000000, 1.895813576284393923E-16, 0.000000000000000000 ) ) ;
#193 = PRESENTATION_STYLE_ASSIGNMENT (( #139 ) ) ;
#194 = DIRECTION ( 'NONE',  ( 0.000000000000000000, 0.000000000000000000, -1.000000000000000000 ) ) ;
#195 = EDGE_LOOP ( 'NONE', ( #43, #230, #97, #122 ) ) ;
#196 = LINE ( 'NONE', #318, #76 ) ;
#197 =( NAMED_UNIT ( * ) SI_UNIT ( $, .STERADIAN. ) SOLID_ANGLE_UNIT ( ) );
#198 =( LENGTH_UNIT ( ) NAMED_UNIT ( * ) SI_UNIT ( .MILLI., .METRE. ) );
#199 = ORIENTED_EDGE ( 'NONE', *, *, #48, .T. ) ;
#200 = DIRECTION ( 'NONE',  ( 0.000000000000000000, 1.000000000000000000, 0.000000000000000000 ) ) ;
#201 = MANIFOLD_SOLID_BREP ( 'Revolve - Tool Body (Straight Shanked)', #118 ) ;
#202 = CIRCLE ( 'NONE', #126, 12.49999999999999289 ) ;
#203 = AXIS2_PLACEMENT_3D ( 'NONE', #344, #232, #84 ) ;
#204 = ORIENTED_EDGE ( 'NONE', *, *, #79, .F. ) ;
#205 = PRESENTATION_STYLE_ASSIGNMENT (( #285 ) ) ;
#206 = DIRECTION ( 'NONE',  ( -1.895813576284393923E-16, 1.000000000000000000, -0.000000000000000000 ) ) ;
#207 = VERTEX_POINT ( 'NONE', #153 ) ;
#208 = CARTESIAN_POINT ( 'NONE',  ( 12.50000000000000000, 125.0000000000000000, 1.530808498934191916E-15 ) ) ;
#209 = PRESENTATION_STYLE_ASSIGNMENT (( #335 ) ) ;
#210 = AXIS2_PLACEMENT_3D ( 'NONE', #105, #159, #183 ) ;
#211 = ADVANCED_FACE ( 'NONE', ( #242 ), #71, .F. ) ;
#212 = PRODUCT_DEFINITION_SHAPE ( 'NONE', 'NONE',  #102 ) ;
#213 =( LENGTH_UNIT ( ) NAMED_UNIT ( * ) SI_UNIT ( .MILLI., .METRE. ) );
#214 = AXIS2_PLACEMENT_3D ( 'NONE', #261, #233, #325 ) ;
#215 =( GEOMETRIC_REPRESENTATION_CONTEXT ( 3 ) GLOBAL_UNCERTAINTY_ASSIGNED_CONTEXT ( ( #359 ) ) GLOBAL_UNIT_ASSIGNED_CONTEXT ( ( #213, #70, #299 ) ) REPRESENTATION_CONTEXT ( 'NONE', 'WORKASPACE' ) );
#216 = STYLED_ITEM ( 'NONE', ( #286 ), #260 ) ;
#217 = SURFACE_SIDE_STYLE ('',( #152 ) ) ;
#218 = CARTESIAN_POINT ( 'NONE',  ( 0.000000000000000000, 0.000000000000000000, 0.000000000000000000 ) ) ;
#219 = CARTESIAN_POINT ( 'NONE',  ( -12.49999999999998757, 64.00000000000000000, 0.000000000000000000 ) ) ;
#220 = CARTESIAN_POINT ( 'NONE',  ( 7.155734338404330842E-15, 64.00000000000000000, 0.000000000000000000 ) ) ;
#221 = CARTESIAN_POINT ( 'NONE',  ( 7.155734338404330842E-15, 64.00000000000000000, 0.000000000000000000 ) ) ;
#222 = CIRCLE ( 'NONE', #99, 12.50000000000000000 ) ;
#223 = UNCERTAINTY_MEASURE_WITH_UNIT (LENGTH_MEASURE( 1.000000000000000082E-05 ), #275, 'distance_accuracy_value', 'NONE');
#224 = STYLED_ITEM ( 'NONE', ( #276 ), #134 ) ;
#225 = STYLED_ITEM ( 'NONE', ( #9 ), #370 ) ;
#226 = CARTESIAN_POINT ( 'NONE',  ( -12.50000000000000533, 124.9999999999999858, 0.000000000000000000 ) ) ;
#227 = FILL_AREA_STYLE ('',( #322 ) ) ;
#228 = FILL_AREA_STYLE ('',( #311 ) ) ;
#229 = FILL_AREA_STYLE ('',( #136 ) ) ;
#230 = ORIENTED_EDGE ( 'NONE', *, *, #154, .T. ) ;
#231 = CARTESIAN_POINT ( 'NONE',  ( 0.000000000000000000, 64.00000000000000000, 0.000000000000000000 ) ) ;
#232 = DIRECTION ( 'NONE',  ( -0.000000000000000000, -1.000000000000000000, -0.000000000000000000 ) ) ;
#233 = DIRECTION ( 'NONE',  ( -1.895813576284393923E-16, 1.000000000000000000, -0.000000000000000000 ) ) ;
#234 = DIRECTION ( 'NONE',  ( -0.000000000000000000, -1.000000000000000000, -0.000000000000000000 ) ) ;
#235 = COLOUR_RGB ( '',0.7921568627450980005, 0.8196078431372548767, 0.9333333333333333481 ) ;
#236 = ORIENTED_EDGE ( 'NONE', *, *, #42, .F. ) ;
#237 = SURFACE_STYLE_FILL_AREA ( #7 ) ;
#238 = ORIENTED_EDGE ( 'NONE', *, *, #21, .F. ) ;
#239 = AXIS2_PLACEMENT_3D ( 'NONE', #86, #200, #80 ) ;
#240 = CARTESIAN_POINT ( 'NONE',  ( 1.469576158976823947E-15, 0.000000000000000000, 11.50000000000000000 ) ) ;
#241 = APPLICATION_PROTOCOL_DEFINITION ( 'draft international standard', 'automotive_design', 1998, #297 ) ;
#242 = FACE_OUTER_BOUND ( 'NONE', #93, .T. ) ;
#243 = CIRCLE ( 'NONE', #210, 1.000000000000000888 ) ;
#244 = EDGE_CURVE ( 'NONE', #267, #345, #57, .T. ) ;
#245 = AXIS2_PLACEMENT_3D ( 'NONE', #24, #309, #366 ) ;
#246 = PRESENTATION_LAYER_ASSIGNMENT (  '', '', ( #225 ) ) ;
#247 = DIRECTION ( 'NONE',  ( -1.895813576284393923E-16, 1.000000000000000000, -0.000000000000000000 ) ) ;
#248 = FACE_OUTER_BOUND ( 'NONE', #289, .T. ) ;
#249 = LINE ( 'NONE', #161, #360 ) ;
#250 = EDGE_LOOP ( 'NONE', ( #263, #132, #238, #284 ) ) ;
#251 =( NAMED_UNIT ( * ) SI_UNIT ( $, .STERADIAN. ) SOLID_ANGLE_UNIT ( ) );
#252 = SHAPE_DEFINITION_REPRESENTATION ( #212, #362 ) ;
#253 = AXIS2_PLACEMENT_3D ( 'NONE', #173, #35, #350 ) ;
#254 = AXIS2_PLACEMENT_3D ( 'NONE', #1, #131, #290 ) ;
#255 = VECTOR ( 'NONE', #167, 1000.000000000000000 ) ;
#256 = CARTESIAN_POINT ( 'NONE',  ( 0.000000000000000000, 0.000000000000000000, 0.000000000000000000 ) ) ;
#257 = ORIENTED_EDGE ( 'NONE', *, *, #106, .F. ) ;
#258 = DIRECTION ( 'NONE',  ( 0.000000000000000000, 0.000000000000000000, -1.000000000000000000 ) ) ;
#259 = SURFACE_STYLE_USAGE ( .BOTH. , #148 ) ;
#260 = ADVANCED_FACE ( 'NONE', ( #351 ), #316, .T. ) ;
#261 = CARTESIAN_POINT ( 'NONE',  ( -4.408728476930469278E-15, 124.9999999999999858, 0.000000000000000000 ) ) ;
#262 = FILL_AREA_STYLE ('',( #162 ) ) ;
#263 = ORIENTED_EDGE ( 'NONE', *, *, #79, .T. ) ;
#264 = AXIS2_PLACEMENT_3D ( 'NONE', #111, #168, #124 ) ;
#265 = CARTESIAN_POINT ( 'NONE',  ( 0.000000000000000000, 0.000000000000000000, -12.50000000000000000 ) ) ;
#266 = AXIS2_PLACEMENT_3D ( 'NONE', #352, #113, #12 ) ;
#267 = VERTEX_POINT ( 'NONE', #283 ) ;
#268 =( NAMED_UNIT ( * ) PLANE_ANGLE_UNIT ( ) SI_UNIT ( $, .RADIAN. ) );
#269 = CARTESIAN_POINT ( 'NONE',  ( 0.000000000000000000, 0.000000000000000000, 0.000000000000000000 ) ) ;
#270 = COLOUR_RGB ( '',1.000000000000000000, 0.000000000000000000, 0.000000000000000000 ) ;
#271 = FILL_AREA_STYLE_COLOUR ( '', #170 ) ;
#272 = AXIS2_PLACEMENT_3D ( 'NONE', #129, #187, #281 ) ;
#273 = DIRECTION ( 'NONE',  ( 0.000000000000000000, 0.000000000000000000, 1.000000000000000000 ) ) ;
#274 = ADVANCED_FACE ( 'NONE', ( #292 ), #37, .T. ) ;
#275 =( LENGTH_UNIT ( ) NAMED_UNIT ( * ) SI_UNIT ( .MILLI., .METRE. ) );
#276 = PRESENTATION_STYLE_ASSIGNMENT (( #308 ) ) ;
#277 = PRESENTATION_STYLE_ASSIGNMENT (( #156 ) ) ;
#278 = EDGE_CURVE ( 'NONE', #114, #353, #23, .T. ) ;
#279 = PRESENTATION_LAYER_ASSIGNMENT (  '', '', ( #224 ) ) ;
#280 =( GEOMETRIC_REPRESENTATION_CONTEXT ( 3 ) GLOBAL_UNCERTAINTY_ASSIGNED_CONTEXT ( ( #326 ) ) GLOBAL_UNIT_ASSIGNED_CONTEXT ( ( #123, #149, #103 ) ) REPRESENTATION_CONTEXT ( 'NONE', 'WORKASPACE' ) );
#281 = DIRECTION ( 'NONE',  ( -1.000000000000000000, 0.000000000000000000, 0.000000000000000000 ) ) ;
#282 =( NAMED_UNIT ( * ) SI_UNIT ( $, .STERADIAN. ) SOLID_ANGLE_UNIT ( ) );
#283 = CARTESIAN_POINT ( 'NONE',  ( 1.530808498934191521E-15, 64.00000000000000000, 12.50000000000000000 ) ) ;
#284 = ORIENTED_EDGE ( 'NONE', *, *, #304, .F. ) ;
#285 = SURFACE_STYLE_USAGE ( .BOTH. , #94 ) ;
#286 = PRESENTATION_STYLE_ASSIGNMENT (( #166 ) ) ;
#287 =( NAMED_UNIT ( * ) SI_UNIT ( $, .STERADIAN. ) SOLID_ANGLE_UNIT ( ) );
#288 = UNCERTAINTY_MEASURE_WITH_UNIT (LENGTH_MEASURE( 1.000000000000000082E-05 ), #32, 'distance_accuracy_value', 'NONE');
#289 = EDGE_LOOP ( 'NONE', ( #147, #85, #295, #257 ) ) ;
#290 = DIRECTION ( 'NONE',  ( 0.000000000000000000, 0.000000000000000000, -1.000000000000000000 ) ) ;
#291 = TOROIDAL_SURFACE ( 'NONE', #245, 11.50000000000000000, 1.000000000000000444 ) ;
#292 = FACE_OUTER_BOUND ( 'NONE', #356, .T. ) ;
#293 = EDGE_CURVE ( 'NONE', #4, #207, #302, .T. ) ;
#294 = ORIENTED_EDGE ( 'NONE', *, *, #244, .F. ) ;
#295 = ORIENTED_EDGE ( 'NONE', *, *, #143, .F. ) ;
#296 = DIRECTION ( 'NONE',  ( -1.895813576284393923E-16, 1.000000000000000000, 0.000000000000000000 ) ) ;
#297 = APPLICATION_CONTEXT ( 'automotive_design' ) ;
#298 = EDGE_LOOP ( 'NONE', ( #321, #10 ) ) ;
#299 =( NAMED_UNIT ( * ) SI_UNIT ( $, .STERADIAN. ) SOLID_ANGLE_UNIT ( ) );
#300 = MECHANICAL_DESIGN_GEOMETRIC_PRESENTATION_REPRESENTATION (  '', ( #224 ), #175 ) ;
#301 = DIRECTION ( 'NONE',  ( -1.000000000000000000, -1.895813576284393923E-16, 0.000000000000000000 ) ) ;
#302 = CIRCLE ( 'NONE', #266, 12.50000000000000533 ) ;
#303 = CYLINDRICAL_SURFACE ( 'NONE', #355, 12.50000000000000000 ) ;
#304 = EDGE_CURVE ( 'NONE', #345, #39, #87, .T. ) ;
#305 = COLOUR_RGB ( '',1.000000000000000000, 0.000000000000000000, 0.000000000000000000 ) ;
#306 = FACE_OUTER_BOUND ( 'NONE', #195, .T. ) ;
#307 = FILL_AREA_STYLE_COLOUR ( '', #20 ) ;
#308 = SURFACE_STYLE_USAGE ( .BOTH. , #185 ) ;
#309 = DIRECTION ( 'NONE',  ( -0.000000000000000000, -1.000000000000000000, -0.000000000000000000 ) ) ;
#310 = PRESENTATION_LAYER_ASSIGNMENT (  '', '', ( #46 ) ) ;
#311 = FILL_AREA_STYLE_COLOUR ( '', #270 ) ;
#312 = SURFACE_SIDE_STYLE ('',( #3 ) ) ;
#313 = ORIENTED_EDGE ( 'NONE', *, *, #2, .F. ) ;
#314 = SURFACE_STYLE_FILL_AREA ( #227 ) ;
#315 = ADVANCED_FACE ( 'NONE', ( #68 ), #92, .F. ) ;
#316 = PLANE ( 'NONE',  #181 ) ;
#317 = ORIENTED_EDGE ( 'NONE', *, *, #178, .T. ) ;
#318 = CARTESIAN_POINT ( 'NONE',  ( 12.49999999999999467, 124.9999999999999858, 1.530808498934191521E-15 ) ) ;
#319 = PRESENTATION_LAYER_ASSIGNMENT (  '', '', ( #108 ) ) ;
#320 =( GEOMETRIC_REPRESENTATION_CONTEXT ( 3 ) GLOBAL_UNCERTAINTY_ASSIGNED_CONTEXT ( ( #361 ) ) GLOBAL_UNIT_ASSIGNED_CONTEXT ( ( #347, #33, #197 ) ) REPRESENTATION_CONTEXT ( 'NONE', 'WORKASPACE' ) );
#321 = ORIENTED_EDGE ( 'NONE', *, *, #143, .T. ) ;
#322 = FILL_AREA_STYLE_COLOUR ( '', #340 ) ;
#323 = CARTESIAN_POINT ( 'NONE',  ( -4.408728476930469278E-15, 124.9999999999999858, 0.000000000000000000 ) ) ;
#324 = FACE_OUTER_BOUND ( 'NONE', #17, .T. ) ;
#325 = DIRECTION ( 'NONE',  ( -1.000000000000000000, 0.000000000000000000, 0.000000000000000000 ) ) ;
#326 = UNCERTAINTY_MEASURE_WITH_UNIT (LENGTH_MEASURE( 1.000000000000000082E-05 ), #123, 'distance_accuracy_value', 'NONE');
#327 = CIRCLE ( 'NONE', #110, 12.49999999999999289 ) ;
#328 = COLOUR_RGB ( '',1.000000000000000000, 0.000000000000000000, 0.000000000000000000 ) ;
#329 = MANIFOLD_SOLID_BREP ( 'Revolve - Cutting Edge', #331 ) ;
#330 = FILL_AREA_STYLE ('',( #271 ) ) ;
#331 = CLOSED_SHELL ( 'NONE', ( #29, #75, #260, #134, #370, #165 ) ) ;
#332 = AXIS2_PLACEMENT_3D ( 'NONE', #338, #125, #273 ) ;
#333 = AXIS2_PLACEMENT_3D ( 'NONE', #337, #59, #192 ) ;
#334 = FACE_OUTER_BOUND ( 'NONE', #250, .T. ) ;
#335 = SURFACE_STYLE_USAGE ( .BOTH. , #217 ) ;
#336 = DIRECTION ( 'NONE',  ( 0.000000000000000000, 0.000000000000000000, 1.000000000000000000 ) ) ;
#337 = CARTESIAN_POINT ( 'NONE',  ( 12.50000000000000000, 125.0000000000000000, 0.000000000000000000 ) ) ;
#338 = CARTESIAN_POINT ( 'NONE',  ( 0.000000000000000000, 1.000000000000000000, -11.50000000000000000 ) ) ;
#339 = DIRECTION ( 'NONE',  ( -1.000000000000000000, 0.000000000000000000, 0.000000000000000000 ) ) ;
#340 = COLOUR_RGB ( '',0.7921568627450980005, 0.8196078431372548767, 0.9333333333333333481 ) ;
#341 = MECHANICAL_DESIGN_GEOMETRIC_PRESENTATION_REPRESENTATION (  '', ( #216 ), #320 ) ;
#342 = SURFACE_STYLE_FILL_AREA ( #262 ) ;
#343 = DIRECTION ( 'NONE',  ( -0.000000000000000000, -1.000000000000000000, -0.000000000000000000 ) ) ;
#344 = CARTESIAN_POINT ( 'NONE',  ( 0.000000000000000000, 0.000000000000000000, 0.000000000000000000 ) ) ;
#345 = VERTEX_POINT ( 'NONE', #41 ) ;
#346 =( LENGTH_UNIT ( ) NAMED_UNIT ( * ) SI_UNIT ( .MILLI., .METRE. ) );
#347 =( LENGTH_UNIT ( ) NAMED_UNIT ( * ) SI_UNIT ( .MILLI., .METRE. ) );
#348 = DIRECTION ( 'NONE',  ( -1.000000000000000000, 0.000000000000000000, 0.000000000000000000 ) ) ;
#349 = ORIENTED_EDGE ( 'NONE', *, *, #304, .T. ) ;
#350 = DIRECTION ( 'NONE',  ( 0.000000000000000000, 0.000000000000000000, -1.000000000000000000 ) ) ;
#351 = FACE_OUTER_BOUND ( 'NONE', #298, .T. ) ;
#352 = CARTESIAN_POINT ( 'NONE',  ( -4.408728476930471644E-15, 125.0000000000000000, 0.000000000000000000 ) ) ;
#353 = VERTEX_POINT ( 'NONE', #145 ) ;
#354 =( LENGTH_UNIT ( ) NAMED_UNIT ( * ) SI_UNIT ( .MILLI., .METRE. ) );
#355 = AXIS2_PLACEMENT_3D ( 'NONE', #269, #88, #194 ) ;
#356 = EDGE_LOOP ( 'NONE', ( #31, #358, #172, #144 ) ) ;
#357 =( LENGTH_UNIT ( ) NAMED_UNIT ( * ) SI_UNIT ( .MILLI., .METRE. ) );
#358 = ORIENTED_EDGE ( 'NONE', *, *, #42, .T. ) ;
#359 = UNCERTAINTY_MEASURE_WITH_UNIT (LENGTH_MEASURE( 1.000000000000000082E-05 ), #213, 'distance_accuracy_value', 'NONE');
#360 = VECTOR ( 'NONE', #55, 1000.000000000000000 ) ;
#361 = UNCERTAINTY_MEASURE_WITH_UNIT (LENGTH_MEASURE( 1.000000000000000082E-05 ), #347, 'distance_accuracy_value', 'NONE');
#362 = ADVANCED_BREP_SHAPE_REPRESENTATION ( '59509', ( #329, #201, #128 ), #280 ) ;
#363 = UNCERTAINTY_MEASURE_WITH_UNIT (LENGTH_MEASURE( 1.000000000000000082E-05 ), #198, 'distance_accuracy_value', 'NONE');
#364 = CIRCLE ( 'NONE', #272, 12.50000000000000533 ) ;
#365 = PRESENTATION_LAYER_ASSIGNMENT (  '', '', ( #216 ) ) ;
#366 = DIRECTION ( 'NONE',  ( 0.000000000000000000, 0.000000000000000000, -1.000000000000000000 ) ) ;
#367 = DIRECTION ( 'NONE',  ( -1.895813576284393923E-16, 1.000000000000000000, -0.000000000000000000 ) ) ;
#368 = DIRECTION ( 'NONE',  ( -1.000000000000000000, 0.000000000000000000, 0.000000000000000000 ) ) ;
#369 = CIRCLE ( 'NONE', #190, 12.50000000000000000 ) ;
#370 = ADVANCED_FACE ( 'NONE', ( #16 ), #18, .T. ) ;
ENDSEC;
END-ISO-10303-21;
