ISO-10303-21;
HEADER;
FILE_DESCRIPTION (( 'STEP AP214' ),
    '1' );
FILE_NAME ('Micro_SFP-250-43.STEP',
    '2021-09-02T06:21:22',
    ( '' ),
    ( '' ),
    'SwSTEP 2.0',
    'SolidWorks 2020',
    '' );
FILE_SCHEMA (( 'AUTOMOTIVE_DESIGN' ));
ENDSEC;

DATA;
#1 = CARTESIAN_POINT ( 'NONE',  ( 0.1250000000000000000, 1.530808498934191509E-17, 2.500000000000000000 ) ) ;
#2 = APPLICATION_CONTEXT ( 'automotive_design' ) ;
#3 = PRODUCT_RELATED_PRODUCT_CATEGORY ( 'part', '', ( #123 ) ) ;
#4 = DIRECTION ( 'NONE',  ( -1.000000000000000000, 0.0000000000000000000, 0.0000000000000000000 ) ) ;
#5 = AXIS2_PLACEMENT_3D ( 'NONE', #164, #231, #71 ) ;
#6 = CARTESIAN_POINT ( 'NONE',  ( 0.1250000000000000000, 1.530808498934191509E-17, 2.485000000000000320 ) ) ;
#7 = CARTESIAN_POINT ( 'NONE',  ( 4.601107143211894218E-17, 0.0000000000000000000, 0.3757089102274520087 ) ) ;
#8 = EDGE_CURVE ( 'NONE', #113, #174, #264, .T. ) ;
#9 = SURFACE_SIDE_STYLE ('',( #263 ) ) ;
#10 = AXIS2_PLACEMENT_3D ( 'NONE', #258, #45, #122 ) ;
#11 = AXIS2_PLACEMENT_3D ( 'NONE', #299, #163, #74 ) ;
#12 = CARTESIAN_POINT ( 'NONE',  ( -0.1250000000000000000, 0.0000000000000000000, 2.500000000000000000 ) ) ;
#13 = CARTESIAN_POINT ( 'NONE',  ( -0.1248749999999999999, 0.0000000000000000000, 3.058555380870514950E-17 ) ) ;
#14 = CARTESIAN_POINT ( 'NONE',  ( 0.1248750000000000276, 1.529277690435257783E-17, -1.529277690435257783E-17 ) ) ;
#15 = ADVANCED_FACE ( 'NONE', ( #291 ), #272, .F. ) ;
#16 = EDGE_CURVE ( 'NONE', #23, #88, #102, .T. ) ;
#17 = PRODUCT_CONTEXT ( 'NONE', #243, 'mechanical' ) ;
#18 = EDGE_LOOP ( 'NONE', ( #274, #179, #22, #269 ) ) ;
#19 = FILL_AREA_STYLE_COLOUR ( '', #226 ) ;
#20 = ORIENTED_EDGE ( 'NONE', *, *, #180, .T. ) ;
#21 = VECTOR ( 'NONE', #110, 39.37007874015748143 ) ;
#22 = ORIENTED_EDGE ( 'NONE', *, *, #52, .F. ) ;
#23 = VERTEX_POINT ( 'NONE', #136 ) ;
#24 = CARTESIAN_POINT ( 'NONE',  ( 1.872825028598994811E-33, 0.0000000000000000000, 1.529277690435257475E-17 ) ) ;
#25 = CONICAL_SURFACE ( 'NONE', #10, 0.1248750000000000276, 0.1745329251994338082 ) ;
#26 = AXIS2_PLACEMENT_3D ( 'NONE', #286, #168, #191 ) ;
#27 = DIRECTION ( 'NONE',  ( 1.000000000000000000, 0.0000000000000000000, 0.0000000000000000000 ) ) ;
#28 = CARTESIAN_POINT ( 'NONE',  ( 0.1248750000000000693, 0.0000000000000000000, 0.3749999999999999445 ) ) ;
#29 = DIRECTION ( 'NONE',  ( 1.224646799147353207E-16, 0.0000000000000000000, 1.000000000000000000 ) ) ;
#30 = CIRCLE ( 'NONE', #83, 0.1248749999999999999 ) ;
#31 = AXIS2_PLACEMENT_3D ( 'NONE', #235, #80, #193 ) ;
#32 = DIRECTION ( 'NONE',  ( -1.224646799147353207E-16, -0.0000000000000000000, -1.000000000000000000 ) ) ;
#33 = LINE ( 'NONE', #143, #35 ) ;
#34 =( NAMED_UNIT ( * ) SI_UNIT ( $, .STERADIAN. ) SOLID_ANGLE_UNIT ( ) );
#35 = VECTOR ( 'NONE', #56, 39.37007874015747433 ) ;
#36 = DIRECTION ( 'NONE',  ( 0.0000000000000000000, 0.0000000000000000000, -1.000000000000000000 ) ) ;
#37 = EDGE_LOOP ( 'NONE', ( #295, #70, #67, #90 ) ) ;
#38 = PRESENTATION_STYLE_ASSIGNMENT (( #176 ) ) ;
#39 = VERTEX_POINT ( 'NONE', #160 ) ;
#40 = EDGE_LOOP ( 'NONE', ( #245, #134, #115, #293 ) ) ;
#41 = VERTEX_POINT ( 'NONE', #6 ) ;
#42 = AXIS2_PLACEMENT_3D ( 'NONE', #253, #32, #73 ) ;
#43 = ADVANCED_FACE ( 'NONE', ( #94 ), #46, .T. ) ;
#44 = VERTEX_POINT ( 'NONE', #189 ) ;
#45 = DIRECTION ( 'NONE',  ( 1.224646799147353207E-16, 0.0000000000000000000, 1.000000000000000000 ) ) ;
#46 = CYLINDRICAL_SURFACE ( 'NONE', #5, 0.1250000000000000000 ) ;
#47 = CIRCLE ( 'NONE', #213, 0.1248750000000000276 ) ;
#48 = AXIS2_PLACEMENT_3D ( 'NONE', #60, #233, #284 ) ;
#49 = CARTESIAN_POINT ( 'NONE',  ( 0.0000000000000000000, 0.0000000000000000000, 2.500000000000000000 ) ) ;
#50 = FACE_OUTER_BOUND ( 'NONE', #217, .T. ) ;
#51 = CARTESIAN_POINT ( 'NONE',  ( -0.1100000000000001948, 0.0000000000000000000, 2.500000000000000000 ) ) ;
#52 = EDGE_CURVE ( 'NONE', #39, #41, #241, .T. ) ;
#53 =( GEOMETRIC_REPRESENTATION_CONTEXT ( 3 ) GLOBAL_UNCERTAINTY_ASSIGNED_CONTEXT ( ( #211 ) ) GLOBAL_UNIT_ASSIGNED_CONTEXT ( ( #101, #288, #34 ) ) REPRESENTATION_CONTEXT ( 'NONE', 'WORKASPACE' ) );
#54 = FACE_OUTER_BOUND ( 'NONE', #37, .T. ) ;
#55 = LENGTH_MEASURE_WITH_UNIT ( LENGTH_MEASURE( 0.02539999999999999897 ), #165 );
#56 = DIRECTION ( 'NONE',  ( -0.1736481776669311083, 2.126576849575782084E-17, 0.9848077530122080203 ) ) ;
#57 = ADVANCED_FACE ( 'NONE', ( #187 ), #277, .T. ) ;
#58 = VERTEX_POINT ( 'NONE', #281 ) ;
#59 = AXIS2_PLACEMENT_3D ( 'NONE', #238, #107, #172 ) ;
#60 = CARTESIAN_POINT ( 'NONE',  ( 0.0000000000000000000, 0.0000000000000000000, 0.0000000000000000000 ) ) ;
#61 =( LENGTH_UNIT ( ) NAMED_UNIT ( * ) SI_UNIT ( $, .METRE. ) );
#62 = DIRECTION ( 'NONE',  ( 1.000000000000000000, 0.0000000000000000000, 0.0000000000000000000 ) ) ;
#63 = ORIENTED_EDGE ( 'NONE', *, *, #16, .F. ) ;
#64 = DIMENSIONAL_EXPONENTS ( 1.000000000000000000, 0.0000000000000000000, 0.0000000000000000000, 0.0000000000000000000, 0.0000000000000000000, 0.0000000000000000000, 0.0000000000000000000 ) ;
#65 = CLOSED_SHELL ( 'NONE', ( #247, #99, #173, #230, #43, #151, #202, #169, #57, #15 ) ) ;
#66 = ADVANCED_BREP_SHAPE_REPRESENTATION ( 'Micro_SFP-250-43', ( #251, #266 ), #97 ) ;
#67 = ORIENTED_EDGE ( 'NONE', *, *, #205, .F. ) ;
#68 = EDGE_CURVE ( 'NONE', #44, #273, #225, .T. ) ;
#69 = APPLICATION_PROTOCOL_DEFINITION ( 'draft international standard', 'automotive_design', 1998, #2 ) ;
#70 = ORIENTED_EDGE ( 'NONE', *, *, #108, .T. ) ;
#71 = DIRECTION ( 'NONE',  ( -1.000000000000000000, 0.0000000000000000000, 0.0000000000000000000 ) ) ;
#72 = EDGE_CURVE ( 'NONE', #174, #273, #30, .T. ) ;
#73 = DIRECTION ( 'NONE',  ( -1.000000000000000000, 0.0000000000000000000, 1.224646799147353207E-16 ) ) ;
#74 = DIRECTION ( 'NONE',  ( 1.000000000000000000, 0.0000000000000000000, -0.0000000000000000000 ) ) ;
#75 = VECTOR ( 'NONE', #105, 39.37007874015748143 ) ;
#76 = DIRECTION ( 'NONE',  ( -1.000000000000000000, 0.0000000000000000000, 1.224646799147353454E-16 ) ) ;
#77 = DIRECTION ( 'NONE',  ( -0.0000000000000000000, -0.0000000000000000000, -1.000000000000000000 ) ) ;
#78 = FILL_AREA_STYLE_COLOUR ( '', #79 ) ;
#79 = COLOUR_RGB ( '',0.7921568627450980005, 0.8196078431372548767, 0.9333333333333333481 ) ;
#80 = DIRECTION ( 'NONE',  ( 0.0000000000000000000, 0.0000000000000000000, 1.000000000000000000 ) ) ;
#81 = ORIENTED_EDGE ( 'NONE', *, *, #290, .T. ) ;
#82 = LINE ( 'NONE', #147, #75 ) ;
#83 = AXIS2_PLACEMENT_3D ( 'NONE', #24, #206, #76 ) ;
#84 =( NAMED_UNIT ( * ) PLANE_ANGLE_UNIT ( ) SI_UNIT ( $, .RADIAN. ) );
#85 = EDGE_LOOP ( 'NONE', ( #200, #178, #81, #146 ) ) ;
#86 = CIRCLE ( 'NONE', #254, 0.1100000000000001948 ) ;
#87 = STYLED_ITEM ( 'NONE', ( #100 ), #251 ) ;
#88 = VERTEX_POINT ( 'NONE', #159 ) ;
#89 =( LENGTH_UNIT ( ) NAMED_UNIT ( * ) SI_UNIT ( $, .METRE. ) );
#90 = ORIENTED_EDGE ( 'NONE', *, *, #259, .F. ) ;
#91 = APPLICATION_PROTOCOL_DEFINITION ( 'draft international standard', 'automotive_design', 1998, #243 ) ;
#92 = ORIENTED_EDGE ( 'NONE', *, *, #68, .F. ) ;
#93 = CARTESIAN_POINT ( 'NONE',  ( 0.0000000000000000000, 0.0000000000000000000, 2.500000000000000000 ) ) ;
#94 = FACE_OUTER_BOUND ( 'NONE', #221, .T. ) ;
#95 = DIRECTION ( 'NONE',  ( -1.224646799147353207E-16, -0.0000000000000000000, -1.000000000000000000 ) ) ;
#96 = CARTESIAN_POINT ( 'NONE',  ( -0.1248750000000000276, 0.0000000000000000000, 1.529277690435257783E-17 ) ) ;
#97 =( GEOMETRIC_REPRESENTATION_CONTEXT ( 3 ) GLOBAL_UNCERTAINTY_ASSIGNED_CONTEXT ( ( #104 ) ) GLOBAL_UNIT_ASSIGNED_CONTEXT ( ( #244, #84, #153 ) ) REPRESENTATION_CONTEXT ( 'NONE', 'WORKASPACE' ) );
#98 = DIRECTION ( 'NONE',  ( 0.0000000000000000000, 0.0000000000000000000, -1.000000000000000000 ) ) ;
#99 = ADVANCED_FACE ( 'NONE', ( #117 ), #25, .T. ) ;
#100 = PRESENTATION_STYLE_ASSIGNMENT (( #265 ) ) ;
#101 =( CONVERSION_BASED_UNIT ( 'INCH', #55 ) LENGTH_UNIT ( ) NAMED_UNIT ( #64 ) );
#102 = CIRCLE ( 'NONE', #181, 0.1250000000000000000 ) ;
#103 = STYLED_ITEM ( 'NONE', ( #38 ), #66 ) ;
#104 = UNCERTAINTY_MEASURE_WITH_UNIT (LENGTH_MEASURE( 1.000000000000000082E-05 ), #244, 'distance_accuracy_value', 'NONE');
#105 = DIRECTION ( 'NONE',  ( 0.1736481776669313026, 0.0000000000000000000, 0.9848077530122077983 ) ) ;
#106 = DIRECTION ( 'NONE',  ( -1.224646799147353207E-16, -0.0000000000000000000, -1.000000000000000000 ) ) ;
#107 = DIRECTION ( 'NONE',  ( -1.224646799147353207E-16, -0.0000000000000000000, -1.000000000000000000 ) ) ;
#108 = EDGE_CURVE ( 'NONE', #41, #23, #140, .T. ) ;
#109 = ORIENTED_EDGE ( 'NONE', *, *, #290, .F. ) ;
#110 = DIRECTION ( 'NONE',  ( -1.224646799147353207E-16, -0.0000000000000000000, -1.000000000000000000 ) ) ;
#111 = EDGE_CURVE ( 'NONE', #113, #44, #47, .T. ) ;
#112 = SURFACE_SIDE_STYLE ('',( #130 ) ) ;
#113 = VERTEX_POINT ( 'NONE', #28 ) ;
#114 =( CONVERSION_BASED_UNIT ( 'INCH', #149 ) LENGTH_UNIT ( ) NAMED_UNIT ( #145 ) );
#115 = ORIENTED_EDGE ( 'NONE', *, *, #158, .T. ) ;
#116 = ORIENTED_EDGE ( 'NONE', *, *, #111, .T. ) ;
#117 = FACE_OUTER_BOUND ( 'NONE', #157, .T. ) ;
#118 = FACE_OUTER_BOUND ( 'NONE', #18, .T. ) ;
#119 = LINE ( 'NONE', #229, #218 ) ;
#120 = EDGE_CURVE ( 'NONE', #135, #58, #86, .T. ) ;
#121 = CARTESIAN_POINT ( 'NONE',  ( 0.1248749999999999999, 1.529277690435257475E-17, 1.895600338963814870E-33 ) ) ;
#122 = DIRECTION ( 'NONE',  ( 1.000000000000000000, 0.0000000000000000000, 0.0000000000000000000 ) ) ;
#123 = PRODUCT ( 'Micro_SFP-250-43', 'Micro_SFP-250-43', '', ( #17 ) ) ;
#124 = LINE ( 'NONE', #209, #156 ) ;
#125 = CARTESIAN_POINT ( 'NONE',  ( 1.872825028598994811E-33, 0.0000000000000000000, 1.529277690435257475E-17 ) ) ;
#126 = AXIS2_PLACEMENT_3D ( 'NONE', #296, #29, #27 ) ;
#127 = DIRECTION ( 'NONE',  ( 0.0000000000000000000, 0.0000000000000000000, -1.000000000000000000 ) ) ;
#128 = ORIENTED_EDGE ( 'NONE', *, *, #72, .F. ) ;
#129 = FACE_OUTER_BOUND ( 'NONE', #40, .T. ) ;
#130 = SURFACE_STYLE_FILL_AREA ( #294 ) ;
#131 = ORIENTED_EDGE ( 'NONE', *, *, #234, .F. ) ;
#132 = DIMENSIONAL_EXPONENTS ( 1.000000000000000000, 0.0000000000000000000, 0.0000000000000000000, 0.0000000000000000000, 0.0000000000000000000, 0.0000000000000000000, 0.0000000000000000000 ) ;
#133 = ORIENTED_EDGE ( 'NONE', *, *, #297, .T. ) ;
#134 = ORIENTED_EDGE ( 'NONE', *, *, #120, .F. ) ;
#135 = VERTEX_POINT ( 'NONE', #51 ) ;
#136 = CARTESIAN_POINT ( 'NONE',  ( 0.1250000000000000555, 1.530808498934192125E-17, 0.3757089102274520087 ) ) ;
#137 = FACE_OUTER_BOUND ( 'NONE', #85, .T. ) ;
#138 = AXIS2_PLACEMENT_3D ( 'NONE', #262, #127, #239 ) ;
#139 = DIRECTION ( 'NONE',  ( 1.000000000000000000, 0.0000000000000000000, 0.0000000000000000000 ) ) ;
#140 = LINE ( 'NONE', #1, #150 ) ;
#141 = CARTESIAN_POINT ( 'NONE',  ( 0.0000000000000000000, 0.0000000000000000000, 2.485000000000000320 ) ) ;
#142 = CIRCLE ( 'NONE', #59, 0.1248750000000000276 ) ;
#143 = CARTESIAN_POINT ( 'NONE',  ( -0.1248749999999999721, 1.529277690435257783E-17, 0.3749999999999999445 ) ) ;
#144 = UNCERTAINTY_MEASURE_WITH_UNIT (LENGTH_MEASURE( 1.000000000000000082E-05 ), #114, 'distance_accuracy_value', 'NONE');
#145 = DIMENSIONAL_EXPONENTS ( 1.000000000000000000, 0.0000000000000000000, 0.0000000000000000000, 0.0000000000000000000, 0.0000000000000000000, 0.0000000000000000000, 0.0000000000000000000 ) ;
#146 = ORIENTED_EDGE ( 'NONE', *, *, #16, .T. ) ;
#147 = CARTESIAN_POINT ( 'NONE',  ( 0.1248750000000000693, 0.0000000000000000000, 0.3749999999999999445 ) ) ;
#148 = DIRECTION ( 'NONE',  ( 1.000000000000000000, 0.0000000000000000000, 0.0000000000000000000 ) ) ;
#149 = LENGTH_MEASURE_WITH_UNIT ( LENGTH_MEASURE( 0.02539999999999999897 ), #89 );
#150 = VECTOR ( 'NONE', #77, 39.37007874015748143 ) ;
#151 = ADVANCED_FACE ( 'NONE', ( #50 ), #228, .T. ) ;
#152 = ORIENTED_EDGE ( 'NONE', *, *, #108, .F. ) ;
#153 =( NAMED_UNIT ( * ) SI_UNIT ( $, .STERADIAN. ) SOLID_ANGLE_UNIT ( ) );
#154 = ORIENTED_EDGE ( 'NONE', *, *, #120, .T. ) ;
#155 = ORIENTED_EDGE ( 'NONE', *, *, #215, .T. ) ;
#156 = VECTOR ( 'NONE', #282, 39.37007874015748143 ) ;
#157 = EDGE_LOOP ( 'NONE', ( #220, #177, #249, #109 ) ) ;
#158 = EDGE_CURVE ( 'NONE', #135, #39, #119, .T. ) ;
#159 = CARTESIAN_POINT ( 'NONE',  ( -0.1249999999999999445, 0.0000000000000000000, 0.3757089102274520087 ) ) ;
#160 = CARTESIAN_POINT ( 'NONE',  ( -0.1250000000000000000, 0.0000000000000000000, 2.485000000000000320 ) ) ;
#161 = DIRECTION ( 'NONE',  ( 1.000000000000000000, 0.0000000000000000000, 0.0000000000000000000 ) ) ;
#162 = CONICAL_SURFACE ( 'NONE', #138, 0.1100000000000001948, 0.7853981633974517207 ) ;
#163 = DIRECTION ( 'NONE',  ( 0.0000000000000000000, 0.0000000000000000000, 1.000000000000000000 ) ) ;
#164 = CARTESIAN_POINT ( 'NONE',  ( 0.0000000000000000000, 0.0000000000000000000, 2.500000000000000000 ) ) ;
#165 =( LENGTH_UNIT ( ) NAMED_UNIT ( * ) SI_UNIT ( $, .METRE. ) );
#166 = CYLINDRICAL_SURFACE ( 'NONE', #48, 0.1248750000000000276 ) ;
#167 = ORIENTED_EDGE ( 'NONE', *, *, #234, .T. ) ;
#168 = DIRECTION ( 'NONE',  ( -0.0000000000000000000, -0.0000000000000000000, -1.000000000000000000 ) ) ;
#169 = ADVANCED_FACE ( 'NONE', ( #137 ), #214, .T. ) ;
#170 = VECTOR ( 'NONE', #260, 39.37007874015748143 ) ;
#171 = MECHANICAL_DESIGN_GEOMETRIC_PRESENTATION_REPRESENTATION (  '', ( #103 ), #279 ) ;
#172 = DIRECTION ( 'NONE',  ( -1.000000000000000000, 0.0000000000000000000, 0.0000000000000000000 ) ) ;
#173 = ADVANCED_FACE ( 'NONE', ( #118 ), #255, .T. ) ;
#174 = VERTEX_POINT ( 'NONE', #121 ) ;
#175 = CIRCLE ( 'NONE', #31, 0.1100000000000001948 ) ;
#176 = SURFACE_STYLE_USAGE ( .BOTH. , #112 ) ;
#177 = ORIENTED_EDGE ( 'NONE', *, *, #240, .T. ) ;
#178 = ORIENTED_EDGE ( 'NONE', *, *, #111, .F. ) ;
#179 = ORIENTED_EDGE ( 'NONE', *, *, #250, .T. ) ;
#180 = EDGE_CURVE ( 'NONE', #41, #39, #292, .T. ) ;
#181 = AXIS2_PLACEMENT_3D ( 'NONE', #276, #183, #161 ) ;
#182 = PRESENTATION_LAYER_ASSIGNMENT (  '', '', ( #103 ) ) ;
#183 = DIRECTION ( 'NONE',  ( -1.224646799147353207E-16, -0.0000000000000000000, -1.000000000000000000 ) ) ;
#184 = DIRECTION ( 'NONE',  ( -0.7071067811865499042, 0.0000000000000000000, -0.7071067811865451302 ) ) ;
#185 = PRODUCT_DEFINITION ( 'UNKNOWN', '', #298, #285 ) ;
#186 = DIRECTION ( 'NONE',  ( 0.0000000000000000000, 0.0000000000000000000, -1.000000000000000000 ) ) ;
#187 = FACE_OUTER_BOUND ( 'NONE', #203, .T. ) ;
#188 = CIRCLE ( 'NONE', #232, 0.1250000000000000000 ) ;
#189 = CARTESIAN_POINT ( 'NONE',  ( -0.1248749999999999721, 1.530043094684724646E-17, 0.3749999999999999445 ) ) ;
#190 = CYLINDRICAL_SURFACE ( 'NONE', #26, 0.1250000000000000000 ) ;
#191 = DIRECTION ( 'NONE',  ( -1.000000000000000000, 0.0000000000000000000, 0.0000000000000000000 ) ) ;
#192 = CIRCLE ( 'NONE', #236, 0.1248749999999999999 ) ;
#193 = DIRECTION ( 'NONE',  ( 1.000000000000000000, 0.0000000000000000000, 0.0000000000000000000 ) ) ;
#194 = DIRECTION ( 'NONE',  ( -0.0000000000000000000, -0.0000000000000000000, -1.000000000000000000 ) ) ;
#195 = LENGTH_MEASURE_WITH_UNIT ( LENGTH_MEASURE( 0.02539999999999999897 ), #61 );
#196 = EDGE_LOOP ( 'NONE', ( #133, #223, #131, #92 ) ) ;
#197 = SHAPE_DEFINITION_REPRESENTATION ( #257, #66 ) ;
#198 = ORIENTED_EDGE ( 'NONE', *, *, #68, .T. ) ;
#199 = VECTOR ( 'NONE', #194, 39.37007874015748143 ) ;
#200 = ORIENTED_EDGE ( 'NONE', *, *, #240, .F. ) ;
#201 = CARTESIAN_POINT ( 'NONE',  ( 0.0000000000000000000, 0.0000000000000000000, 0.0000000000000000000 ) ) ;
#202 = ADVANCED_FACE ( 'NONE', ( #129 ), #162, .T. ) ;
#203 = EDGE_LOOP ( 'NONE', ( #248, #116, #198, #128 ) ) ;
#204 = CARTESIAN_POINT ( 'NONE',  ( 4.592425496802573602E-17, 0.0000000000000000000, 0.3749999999999999445 ) ) ;
#205 = EDGE_CURVE ( 'NONE', #88, #23, #188, .T. ) ;
#206 = DIRECTION ( 'NONE',  ( -1.224646799147353207E-16, -0.0000000000000000000, -1.000000000000000000 ) ) ;
#207 = DIRECTION ( 'NONE',  ( 0.0000000000000000000, 0.0000000000000000000, 1.000000000000000000 ) ) ;
#208 = CARTESIAN_POINT ( 'NONE',  ( 0.0000000000000000000, 0.0000000000000000000, 2.485000000000000320 ) ) ;
#209 = CARTESIAN_POINT ( 'NONE',  ( 0.1100000000000001948, 1.347111479062090784E-17, 2.500000000000000000 ) ) ;
#210 = FILL_AREA_STYLE ('',( #78 ) ) ;
#211 = UNCERTAINTY_MEASURE_WITH_UNIT (LENGTH_MEASURE( 1.000000000000000082E-05 ), #101, 'distance_accuracy_value', 'NONE');
#212 = LINE ( 'NONE', #12, #199 ) ;
#213 = AXIS2_PLACEMENT_3D ( 'NONE', #204, #95, #4 ) ;
#214 = CONICAL_SURFACE ( 'NONE', #126, 0.1248750000000000276, 0.1745329251994338082 ) ;
#215 = EDGE_CURVE ( 'NONE', #58, #135, #175, .T. ) ;
#216 = FACE_OUTER_BOUND ( 'NONE', #196, .T. ) ;
#217 = EDGE_LOOP ( 'NONE', ( #154, #155 ) ) ;
#218 = VECTOR ( 'NONE', #184, 39.37007874015748143 ) ;
#219 =( NAMED_UNIT ( * ) SI_UNIT ( $, .STERADIAN. ) SOLID_ANGLE_UNIT ( ) );
#220 = ORIENTED_EDGE ( 'NONE', *, *, #297, .F. ) ;
#221 = EDGE_LOOP ( 'NONE', ( #152, #20, #237, #63 ) ) ;
#222 = AXIS2_PLACEMENT_3D ( 'NONE', #93, #186, #278 ) ;
#223 = ORIENTED_EDGE ( 'NONE', *, *, #8, .T. ) ;
#224 = EDGE_LOOP ( 'NONE', ( #167, #246 ) ) ;
#225 = LINE ( 'NONE', #96, #170 ) ;
#226 = COLOUR_RGB ( '',0.7921568627450980005, 0.8196078431372548767, 0.9333333333333333481 ) ;
#227 = DIRECTION ( 'NONE',  ( 1.000000000000000000, 0.0000000000000000000, 0.0000000000000000000 ) ) ;
#228 = PLANE ( 'NONE',  #11 ) ;
#229 = CARTESIAN_POINT ( 'NONE',  ( -0.1100000000000001948, 0.0000000000000000000, 2.500000000000000000 ) ) ;
#230 = ADVANCED_FACE ( 'NONE', ( #54 ), #190, .T. ) ;
#231 = DIRECTION ( 'NONE',  ( -0.0000000000000000000, -0.0000000000000000000, -1.000000000000000000 ) ) ;
#232 = AXIS2_PLACEMENT_3D ( 'NONE', #7, #106, #267 ) ;
#233 = DIRECTION ( 'NONE',  ( -1.224646799147353207E-16, -0.0000000000000000000, -1.000000000000000000 ) ) ;
#234 = EDGE_CURVE ( 'NONE', #273, #174, #192, .T. ) ;
#235 = CARTESIAN_POINT ( 'NONE',  ( 0.0000000000000000000, 0.0000000000000000000, 2.500000000000000000 ) ) ;
#236 = AXIS2_PLACEMENT_3D ( 'NONE', #125, #287, #261 ) ;
#237 = ORIENTED_EDGE ( 'NONE', *, *, #259, .T. ) ;
#238 = CARTESIAN_POINT ( 'NONE',  ( 4.592425496802573602E-17, 0.0000000000000000000, 0.3749999999999999445 ) ) ;
#239 = DIRECTION ( 'NONE',  ( -1.000000000000000000, 0.0000000000000000000, 0.0000000000000000000 ) ) ;
#240 = EDGE_CURVE ( 'NONE', #44, #88, #33, .T. ) ;
#241 = CIRCLE ( 'NONE', #283, 0.1250000000000000000 ) ;
#242 = MECHANICAL_DESIGN_GEOMETRIC_PRESENTATION_REPRESENTATION (  '', ( #87 ), #53 ) ;
#243 = APPLICATION_CONTEXT ( 'automotive_design' ) ;
#244 =( CONVERSION_BASED_UNIT ( 'INCH', #195 ) LENGTH_UNIT ( ) NAMED_UNIT ( #132 ) );
#245 = ORIENTED_EDGE ( 'NONE', *, *, #250, .F. ) ;
#246 = ORIENTED_EDGE ( 'NONE', *, *, #72, .T. ) ;
#247 = ADVANCED_FACE ( 'NONE', ( #216 ), #166, .T. ) ;
#248 = ORIENTED_EDGE ( 'NONE', *, *, #8, .F. ) ;
#249 = ORIENTED_EDGE ( 'NONE', *, *, #205, .T. ) ;
#250 = EDGE_CURVE ( 'NONE', #58, #41, #124, .T. ) ;
#251 = MANIFOLD_SOLID_BREP ( 'Cut-Revolve1', #65 ) ;
#252 = CARTESIAN_POINT ( 'NONE',  ( 0.0000000000000000000, 0.0000000000000000000, 0.0000000000000000000 ) ) ;
#253 = CARTESIAN_POINT ( 'NONE',  ( 0.0000000000000000000, 0.0000000000000000000, 0.0000000000000000000 ) ) ;
#254 = AXIS2_PLACEMENT_3D ( 'NONE', #49, #280, #139 ) ;
#255 = CONICAL_SURFACE ( 'NONE', #222, 0.1100000000000001948, 0.7853981633974517207 ) ;
#256 = DIRECTION ( 'NONE',  ( 1.000000000000000000, 0.0000000000000000000, -0.0000000000000000000 ) ) ;
#257 = PRODUCT_DEFINITION_SHAPE ( 'NONE', 'NONE',  #185 ) ;
#258 = CARTESIAN_POINT ( 'NONE',  ( 4.592425496802573602E-17, 0.0000000000000000000, 0.3749999999999999445 ) ) ;
#259 = EDGE_CURVE ( 'NONE', #39, #88, #212, .T. ) ;
#260 = DIRECTION ( 'NONE',  ( -1.224646799147353207E-16, -0.0000000000000000000, -1.000000000000000000 ) ) ;
#261 = DIRECTION ( 'NONE',  ( -1.000000000000000000, 0.0000000000000000000, 1.224646799147353454E-16 ) ) ;
#262 = CARTESIAN_POINT ( 'NONE',  ( 0.0000000000000000000, 0.0000000000000000000, 2.500000000000000000 ) ) ;
#263 = SURFACE_STYLE_FILL_AREA ( #210 ) ;
#264 = LINE ( 'NONE', #14, #21 ) ;
#265 = SURFACE_STYLE_USAGE ( .BOTH. , #9 ) ;
#266 = AXIS2_PLACEMENT_3D ( 'NONE', #201, #268, #62 ) ;
#267 = DIRECTION ( 'NONE',  ( 1.000000000000000000, 0.0000000000000000000, 0.0000000000000000000 ) ) ;
#268 = DIRECTION ( 'NONE',  ( 0.0000000000000000000, 0.0000000000000000000, 1.000000000000000000 ) ) ;
#269 = ORIENTED_EDGE ( 'NONE', *, *, #158, .F. ) ;
#270 = AXIS2_PLACEMENT_3D ( 'NONE', #252, #207, #256 ) ;
#271 = AXIS2_PLACEMENT_3D ( 'NONE', #208, #36, #148 ) ;
#272 = PLANE ( 'NONE',  #270 ) ;
#273 = VERTEX_POINT ( 'NONE', #13 ) ;
#274 = ORIENTED_EDGE ( 'NONE', *, *, #215, .F. ) ;
#275 = PRESENTATION_LAYER_ASSIGNMENT (  '', '', ( #87 ) ) ;
#276 = CARTESIAN_POINT ( 'NONE',  ( 4.601107143211894218E-17, 0.0000000000000000000, 0.3757089102274520087 ) ) ;
#277 = CYLINDRICAL_SURFACE ( 'NONE', #42, 0.1248750000000000276 ) ;
#278 = DIRECTION ( 'NONE',  ( -1.000000000000000000, 0.0000000000000000000, 0.0000000000000000000 ) ) ;
#279 =( GEOMETRIC_REPRESENTATION_CONTEXT ( 3 ) GLOBAL_UNCERTAINTY_ASSIGNED_CONTEXT ( ( #144 ) ) GLOBAL_UNIT_ASSIGNED_CONTEXT ( ( #114, #289, #219 ) ) REPRESENTATION_CONTEXT ( 'NONE', 'WORKASPACE' ) );
#280 = DIRECTION ( 'NONE',  ( 0.0000000000000000000, 0.0000000000000000000, 1.000000000000000000 ) ) ;
#281 = CARTESIAN_POINT ( 'NONE',  ( 0.1100000000000001948, 1.438959988998141146E-17, 2.500000000000000000 ) ) ;
#282 = DIRECTION ( 'NONE',  ( 0.7071067811865499042, 8.659560562354961208E-17, -0.7071067811865451302 ) ) ;
#283 = AXIS2_PLACEMENT_3D ( 'NONE', #141, #98, #227 ) ;
#284 = DIRECTION ( 'NONE',  ( -1.000000000000000000, 0.0000000000000000000, 1.224646799147353207E-16 ) ) ;
#285 = PRODUCT_DEFINITION_CONTEXT ( 'detailed design', #2, 'design' ) ;
#286 = CARTESIAN_POINT ( 'NONE',  ( 0.0000000000000000000, 0.0000000000000000000, 2.500000000000000000 ) ) ;
#287 = DIRECTION ( 'NONE',  ( -1.224646799147353207E-16, -0.0000000000000000000, -1.000000000000000000 ) ) ;
#288 =( NAMED_UNIT ( * ) PLANE_ANGLE_UNIT ( ) SI_UNIT ( $, .RADIAN. ) );
#289 =( NAMED_UNIT ( * ) PLANE_ANGLE_UNIT ( ) SI_UNIT ( $, .RADIAN. ) );
#290 = EDGE_CURVE ( 'NONE', #113, #23, #82, .T. ) ;
#291 = FACE_OUTER_BOUND ( 'NONE', #224, .T. ) ;
#292 = CIRCLE ( 'NONE', #271, 0.1250000000000000000 ) ;
#293 = ORIENTED_EDGE ( 'NONE', *, *, #180, .F. ) ;
#294 = FILL_AREA_STYLE ('',( #19 ) ) ;
#295 = ORIENTED_EDGE ( 'NONE', *, *, #52, .T. ) ;
#296 = CARTESIAN_POINT ( 'NONE',  ( 4.592425496802573602E-17, 0.0000000000000000000, 0.3749999999999999445 ) ) ;
#297 = EDGE_CURVE ( 'NONE', #44, #113, #142, .T. ) ;
#298 = PRODUCT_DEFINITION_FORMATION_WITH_SPECIFIED_SOURCE ( 'ANY', '', #123, .NOT_KNOWN. ) ;
#299 = CARTESIAN_POINT ( 'NONE',  ( 0.0000000000000000000, 0.0000000000000000000, 2.500000000000000000 ) ) ;
ENDSEC;
END-ISO-10303-21;
