ISO-10303-21;
HEADER;
FILE_DESCRIPTION (( 'STEP AP214' ),
    '1' );
FILE_NAME ('Micro_RME-030-2.STEP',
    '2021-09-01T23:09:20',
    ( '' ),
    ( '' ),
    'SwSTEP 2.0',
    'SolidWorks 2020',
    '' );
FILE_SCHEMA (( 'AUTOMOTIVE_DESIGN' ));
ENDSEC;

DATA;
#1 = CARTESIAN_POINT ( 'NONE',  ( 0.0000000000000000000, 0.0000000000000000000, 1.485000000000000764 ) ) ;
#2 = EDGE_CURVE ( 'NONE', #175, #200, #80, .T. ) ;
#3 = CARTESIAN_POINT ( 'NONE',  ( 4.402249552343988286E-17, 0.0000000000000000000, 0.3594709556591341171 ) ) ;
#4 = DIRECTION ( 'NONE',  ( -1.224646799147353454E-16, -0.0000000000000000000, -1.000000000000000000 ) ) ;
#5 = COLOUR_RGB ( '',0.7921568627450980005, 0.8196078431372548767, 0.9333333333333333481 ) ;
#6 = PRODUCT_DEFINITION ( 'UNKNOWN', '', #281, #278 ) ;
#7 = CYLINDRICAL_SURFACE ( 'NONE', #19, 0.01498500000000000006 ) ;
#8 = FACE_OUTER_BOUND ( 'NONE', #13, .T. ) ;
#9 = DIRECTION ( 'NONE',  ( -1.224646799147353454E-16, -0.0000000000000000000, -1.000000000000000000 ) ) ;
#10 = AXIS2_PLACEMENT_3D ( 'NONE', #271, #86, #297 ) ;
#11 = AXIS2_PLACEMENT_3D ( 'NONE', #54, #191, #60 ) ;
#12 = CARTESIAN_POINT ( 'NONE',  ( 0.0000000000000000000, 0.0000000000000000000, 0.0000000000000000000 ) ) ;
#13 = EDGE_LOOP ( 'NONE', ( #79, #169, #250, #59 ) ) ;
#14 =( GEOMETRIC_REPRESENTATION_CONTEXT ( 3 ) GLOBAL_UNCERTAINTY_ASSIGNED_CONTEXT ( ( #204 ) ) GLOBAL_UNIT_ASSIGNED_CONTEXT ( ( #165, #262, #261 ) ) REPRESENTATION_CONTEXT ( 'NONE', 'WORKASPACE' ) );
#15 = SHAPE_DEFINITION_REPRESENTATION ( #219, #164 ) ;
#16 = ORIENTED_EDGE ( 'NONE', *, *, #295, .F. ) ;
#17 = EDGE_LOOP ( 'NONE', ( #291, #228, #247, #196 ) ) ;
#18 = EDGE_CURVE ( 'NONE', #81, #194, #129, .T. ) ;
#19 = AXIS2_PLACEMENT_3D ( 'NONE', #163, #279, #209 ) ;
#20 = PLANE ( 'NONE',  #276 ) ;
#21 = CARTESIAN_POINT ( 'NONE',  ( -0.01498499999999999312, 4.744587861596634336E-18, 0.08999999999999999667 ) ) ;
#22 = CYLINDRICAL_SURFACE ( 'NONE', #128, 0.06250000000000002776 ) ;
#23 = AXIS2_PLACEMENT_3D ( 'NONE', #87, #151, #83 ) ;
#24 = ORIENTED_EDGE ( 'NONE', *, *, #137, .F. ) ;
#25 = AXIS2_PLACEMENT_3D ( 'NONE', #205, #4, #91 ) ;
#26 = LINE ( 'NONE', #224, #206 ) ;
#27 = CARTESIAN_POINT ( 'NONE',  ( -0.06249999999999997918, 0.0000000000000000000, 0.3594709556591341171 ) ) ;
#28 = SURFACE_STYLE_FILL_AREA ( #296 ) ;
#29 = DIRECTION ( 'NONE',  ( -1.000000000000000000, 0.0000000000000000000, 1.224646799147353454E-16 ) ) ;
#30 = DIRECTION ( 'NONE',  ( 1.000000000000000000, 0.0000000000000000000, -0.0000000000000000000 ) ) ;
#31 = CONICAL_SURFACE ( 'NONE', #23, 0.04750000000000064587, 0.7853981633974466137 ) ;
#32 = LENGTH_MEASURE_WITH_UNIT ( LENGTH_MEASURE( 0.02539999999999999897 ), #170 );
#33 = EDGE_LOOP ( 'NONE', ( #285, #153, #61, #266 ) ) ;
#34 =( NAMED_UNIT ( * ) SI_UNIT ( $, .STERADIAN. ) SOLID_ANGLE_UNIT ( ) );
#35 = VERTEX_POINT ( 'NONE', #68 ) ;
#36 = CARTESIAN_POINT ( 'NONE',  ( 0.01498500000000000006, 1.835133228522308816E-18, 0.0000000000000000000 ) ) ;
#37 = DIRECTION ( 'NONE',  ( 1.000000000000000000, 0.0000000000000000000, 0.0000000000000000000 ) ) ;
#38 = ORIENTED_EDGE ( 'NONE', *, *, #197, .F. ) ;
#39 = VERTEX_POINT ( 'NONE', #201 ) ;
#40 = DIRECTION ( 'NONE',  ( -1.224646799147353454E-16, -0.0000000000000000000, -1.000000000000000000 ) ) ;
#41 = DIRECTION ( 'NONE',  ( 1.000000000000000000, 0.0000000000000000000, 0.0000000000000000000 ) ) ;
#42 = DIRECTION ( 'NONE',  ( -0.1736481776669311916, 2.126576849575783316E-17, 0.9848077530122080203 ) ) ;
#43 = CYLINDRICAL_SURFACE ( 'NONE', #10, 0.06250000000000002776 ) ;
#44 = FACE_OUTER_BOUND ( 'NONE', #121, .T. ) ;
#45 = PRESENTATION_LAYER_ASSIGNMENT (  '', '', ( #241 ) ) ;
#46 =( CONVERSION_BASED_UNIT ( 'INCH', #229 ) LENGTH_UNIT ( ) NAMED_UNIT ( #124 ) );
#47 = ADVANCED_FACE ( 'NONE', ( #130 ), #43, .T. ) ;
#48 = LINE ( 'NONE', #112, #133 ) ;
#49 = CARTESIAN_POINT ( 'NONE',  ( 0.0000000000000000000, 0.0000000000000000000, 1.500000000000000222 ) ) ;
#50 = CIRCLE ( 'NONE', #25, 0.01498500000000000006 ) ;
#51 = DIRECTION ( 'NONE',  ( -1.224646799147353454E-16, -0.0000000000000000000, -1.000000000000000000 ) ) ;
#52 = ORIENTED_EDGE ( 'NONE', *, *, #55, .T. ) ;
#53 = AXIS2_PLACEMENT_3D ( 'NONE', #282, #230, #71 ) ;
#54 = CARTESIAN_POINT ( 'NONE',  ( 1.102182119232618065E-17, 0.0000000000000000000, 0.08999999999999999667 ) ) ;
#55 = EDGE_CURVE ( 'NONE', #39, #287, #26, .T. ) ;
#56 = ORIENTED_EDGE ( 'NONE', *, *, #89, .T. ) ;
#57 = SURFACE_STYLE_USAGE ( .BOTH. , #284 ) ;
#58 = CLOSED_SHELL ( 'NONE', ( #174, #94, #235, #77, #47, #155, #107, #98, #160, #203 ) ) ;
#59 = ORIENTED_EDGE ( 'NONE', *, *, #289, .F. ) ;
#60 = DIRECTION ( 'NONE',  ( -1.000000000000000000, 0.0000000000000000000, 0.0000000000000000000 ) ) ;
#61 = ORIENTED_EDGE ( 'NONE', *, *, #137, .T. ) ;
#62 = PRESENTATION_STYLE_ASSIGNMENT (( #57 ) ) ;
#63 = EDGE_LOOP ( 'NONE', ( #218, #294, #166, #190 ) ) ;
#64 = DIRECTION ( 'NONE',  ( 1.000000000000000000, 0.0000000000000000000, 0.0000000000000000000 ) ) ;
#65 = CARTESIAN_POINT ( 'NONE',  ( 0.01498500000000000006, 1.835133228522308816E-18, -1.835133228522309201E-18 ) ) ;
#66 = DIRECTION ( 'NONE',  ( 1.000000000000000000, 0.0000000000000000000, 0.0000000000000000000 ) ) ;
#67 = CARTESIAN_POINT ( 'NONE',  ( 0.0000000000000000000, 0.0000000000000000000, 1.485000000000000764 ) ) ;
#68 = CARTESIAN_POINT ( 'NONE',  ( -0.04750000000000064587, 0.0000000000000000000, 1.500000000000000222 ) ) ;
#69 = UNCERTAINTY_MEASURE_WITH_UNIT (LENGTH_MEASURE( 1.000000000000000082E-05 ), #46, 'distance_accuracy_value', 'NONE');
#70 = EDGE_CURVE ( 'NONE', #39, #273, #150, .T. ) ;
#71 = DIRECTION ( 'NONE',  ( 1.000000000000000000, 0.0000000000000000000, 0.0000000000000000000 ) ) ;
#72 = AXIS2_PLACEMENT_3D ( 'NONE', #12, #51, #29 ) ;
#73 =( LENGTH_UNIT ( ) NAMED_UNIT ( * ) SI_UNIT ( $, .METRE. ) );
#74 = CARTESIAN_POINT ( 'NONE',  ( 0.06250000000000002776, 7.654042494670959086E-18, 1.485000000000000764 ) ) ;
#75 =( NAMED_UNIT ( * ) SI_UNIT ( $, .STERADIAN. ) SOLID_ANGLE_UNIT ( ) );
#76 = AXIS2_PLACEMENT_3D ( 'NONE', #67, #127, #41 ) ;
#77 = ADVANCED_FACE ( 'NONE', ( #152 ), #22, .T. ) ;
#78 = EDGE_CURVE ( 'NONE', #200, #194, #245, .T. ) ;
#79 = ORIENTED_EDGE ( 'NONE', *, *, #213, .F. ) ;
#80 = CIRCLE ( 'NONE', #76, 0.06250000000000002776 ) ;
#81 = VERTEX_POINT ( 'NONE', #21 ) ;
#82 = DIRECTION ( 'NONE',  ( 1.000000000000000000, 0.0000000000000000000, 0.0000000000000000000 ) ) ;
#83 = DIRECTION ( 'NONE',  ( -1.000000000000000000, 0.0000000000000000000, 0.0000000000000000000 ) ) ;
#84 = CIRCLE ( 'NONE', #185, 0.01498500000000000006 ) ;
#85 = AXIS2_PLACEMENT_3D ( 'NONE', #113, #182, #37 ) ;
#86 = DIRECTION ( 'NONE',  ( -0.0000000000000000000, -0.0000000000000000000, -1.000000000000000000 ) ) ;
#87 = CARTESIAN_POINT ( 'NONE',  ( 0.0000000000000000000, 0.0000000000000000000, 1.500000000000000222 ) ) ;
#88 = DIRECTION ( 'NONE',  ( 1.000000000000000000, 0.0000000000000000000, 0.0000000000000000000 ) ) ;
#89 = EDGE_CURVE ( 'NONE', #200, #175, #239, .T. ) ;
#90 = UNCERTAINTY_MEASURE_WITH_UNIT (LENGTH_MEASURE( 1.000000000000000082E-05 ), #216, 'distance_accuracy_value', 'NONE');
#91 = DIRECTION ( 'NONE',  ( -1.000000000000000000, 0.0000000000000000000, 1.224646799147353454E-16 ) ) ;
#92 = CARTESIAN_POINT ( 'NONE',  ( 0.06250000000000002776, 7.654042494670959086E-18, 1.500000000000000222 ) ) ;
#93 = DIRECTION ( 'NONE',  ( 0.0000000000000000000, 0.0000000000000000000, -1.000000000000000000 ) ) ;
#94 = ADVANCED_FACE ( 'NONE', ( #202 ), #96, .T. ) ;
#95 = FACE_OUTER_BOUND ( 'NONE', #236, .T. ) ;
#96 = CONICAL_SURFACE ( 'NONE', #138, 0.01498500000000000353, 0.1745329251994338915 ) ;
#97 = DIRECTION ( 'NONE',  ( 0.0000000000000000000, 0.0000000000000000000, 1.000000000000000000 ) ) ;
#98 = ADVANCED_FACE ( 'NONE', ( #44 ), #147, .T. ) ;
#99 = APPLICATION_PROTOCOL_DEFINITION ( 'draft international standard', 'automotive_design', 1998, #103 ) ;
#100 = ORIENTED_EDGE ( 'NONE', *, *, #18, .F. ) ;
#101 = CARTESIAN_POINT ( 'NONE',  ( -0.04750000000000064587, 0.0000000000000000000, 1.500000000000000222 ) ) ;
#102 = ORIENTED_EDGE ( 'NONE', *, *, #258, .T. ) ;
#103 = APPLICATION_CONTEXT ( 'automotive_design' ) ;
#104 = ORIENTED_EDGE ( 'NONE', *, *, #188, .F. ) ;
#105 =( GEOMETRIC_REPRESENTATION_CONTEXT ( 3 ) GLOBAL_UNCERTAINTY_ASSIGNED_CONTEXT ( ( #69 ) ) GLOBAL_UNIT_ASSIGNED_CONTEXT ( ( #46, #231, #75 ) ) REPRESENTATION_CONTEXT ( 'NONE', 'WORKASPACE' ) );
#106 = DIRECTION ( 'NONE',  ( 1.224646799147353454E-16, 0.0000000000000000000, 1.000000000000000000 ) ) ;
#107 = ADVANCED_FACE ( 'NONE', ( #110 ), #31, .T. ) ;
#108 = DIRECTION ( 'NONE',  ( 0.0000000000000000000, 0.0000000000000000000, -1.000000000000000000 ) ) ;
#109 = DIRECTION ( 'NONE',  ( 0.1736481776669313859, 0.0000000000000000000, 0.9848077530122077983 ) ) ;
#110 = FACE_OUTER_BOUND ( 'NONE', #221, .T. ) ;
#111 = DIRECTION ( 'NONE',  ( -0.0000000000000000000, -0.0000000000000000000, -1.000000000000000000 ) ) ;
#112 = CARTESIAN_POINT ( 'NONE',  ( 0.04750000000000064587, 5.817072295950006528E-18, 1.500000000000000222 ) ) ;
#113 = CARTESIAN_POINT ( 'NONE',  ( 0.0000000000000000000, 0.0000000000000000000, 1.500000000000000222 ) ) ;
#114 = DIRECTION ( 'NONE',  ( 0.0000000000000000000, 0.0000000000000000000, 1.000000000000000000 ) ) ;
#115 = LINE ( 'NONE', #136, #122 ) ;
#116 = AXIS2_PLACEMENT_3D ( 'NONE', #3, #40, #88 ) ;
#117 = EDGE_CURVE ( 'NONE', #193, #273, #84, .T. ) ;
#118 = VECTOR ( 'NONE', #220, 39.37007874015748854 ) ;
#119 =( NAMED_UNIT ( * ) PLANE_ANGLE_UNIT ( ) SI_UNIT ( $, .RADIAN. ) );
#120 = LINE ( 'NONE', #101, #118 ) ;
#121 = EDGE_LOOP ( 'NONE', ( #100, #16, #52, #237 ) ) ;
#122 = VECTOR ( 'NONE', #9, 39.37007874015748143 ) ;
#123 = DIRECTION ( 'NONE',  ( -1.000000000000000000, 0.0000000000000000000, 0.0000000000000000000 ) ) ;
#124 = DIMENSIONAL_EXPONENTS ( 1.000000000000000000, 0.0000000000000000000, 0.0000000000000000000, 0.0000000000000000000, 0.0000000000000000000, 0.0000000000000000000, 0.0000000000000000000 ) ;
#125 = VERTEX_POINT ( 'NONE', #274 ) ;
#126 = ORIENTED_EDGE ( 'NONE', *, *, #78, .F. ) ;
#127 = DIRECTION ( 'NONE',  ( 0.0000000000000000000, 0.0000000000000000000, -1.000000000000000000 ) ) ;
#128 = AXIS2_PLACEMENT_3D ( 'NONE', #131, #111, #177 ) ;
#129 = LINE ( 'NONE', #251, #227 ) ;
#130 = FACE_OUTER_BOUND ( 'NONE', #17, .T. ) ;
#131 = CARTESIAN_POINT ( 'NONE',  ( 0.0000000000000000000, 0.0000000000000000000, 1.500000000000000222 ) ) ;
#132 = VECTOR ( 'NONE', #226, 39.37007874015748143 ) ;
#133 = VECTOR ( 'NONE', #135, 39.37007874015748854 ) ;
#134 = CARTESIAN_POINT ( 'NONE',  ( 4.402249552343988286E-17, 0.0000000000000000000, 0.3594709556591341171 ) ) ;
#135 = DIRECTION ( 'NONE',  ( 0.7071067811865462405, 8.659560562354916834E-17, -0.7071067811865486830 ) ) ;
#136 = CARTESIAN_POINT ( 'NONE',  ( -0.01498500000000000006, 0.0000000000000000000, 1.835133228522309201E-18 ) ) ;
#137 = EDGE_CURVE ( 'NONE', #194, #287, #246, .T. ) ;
#138 = AXIS2_PLACEMENT_3D ( 'NONE', #252, #106, #82 ) ;
#139 = SURFACE_STYLE_USAGE ( .BOTH. , #256 ) ;
#140 =( LENGTH_UNIT ( ) NAMED_UNIT ( * ) SI_UNIT ( $, .METRE. ) );
#141 = ORIENTED_EDGE ( 'NONE', *, *, #70, .T. ) ;
#142 = AXIS2_PLACEMENT_3D ( 'NONE', #146, #97, #240 ) ;
#143 = ORIENTED_EDGE ( 'NONE', *, *, #289, .T. ) ;
#144 = LENGTH_MEASURE_WITH_UNIT ( LENGTH_MEASURE( 0.02539999999999999897 ), #140 );
#145 = ORIENTED_EDGE ( 'NONE', *, *, #117, .F. ) ;
#146 = CARTESIAN_POINT ( 'NONE',  ( 0.0000000000000000000, 0.0000000000000000000, 0.0000000000000000000 ) ) ;
#147 = CONICAL_SURFACE ( 'NONE', #215, 0.01498500000000000353, 0.1745329251994338915 ) ;
#148 = APPLICATION_CONTEXT ( 'automotive_design' ) ;
#149 = EDGE_CURVE ( 'NONE', #287, #194, #267, .T. ) ;
#150 = LINE ( 'NONE', #65, #298 ) ;
#151 = DIRECTION ( 'NONE',  ( 0.0000000000000000000, 0.0000000000000000000, -1.000000000000000000 ) ) ;
#152 = FACE_OUTER_BOUND ( 'NONE', #244, .T. ) ;
#153 = ORIENTED_EDGE ( 'NONE', *, *, #18, .T. ) ;
#154 = MANIFOLD_SOLID_BREP ( 'Cut-Revolve1', #58 ) ;
#155 = ADVANCED_FACE ( 'NONE', ( #184 ), #20, .T. ) ;
#156 = DIRECTION ( 'NONE',  ( -1.224646799147353454E-16, -0.0000000000000000000, -1.000000000000000000 ) ) ;
#157 = MECHANICAL_DESIGN_GEOMETRIC_PRESENTATION_REPRESENTATION (  '', ( #233 ), #105 ) ;
#158 = DIRECTION ( 'NONE',  ( -1.000000000000000000, 0.0000000000000000000, 0.0000000000000000000 ) ) ;
#159 = LINE ( 'NONE', #92, #181 ) ;
#160 = ADVANCED_FACE ( 'NONE', ( #211 ), #7, .T. ) ;
#161 = CYLINDRICAL_SURFACE ( 'NONE', #72, 0.01498500000000000006 ) ;
#162 = CONICAL_SURFACE ( 'NONE', #223, 0.04750000000000064587, 0.7853981633974466137 ) ;
#163 = CARTESIAN_POINT ( 'NONE',  ( 0.0000000000000000000, 0.0000000000000000000, 0.0000000000000000000 ) ) ;
#164 = ADVANCED_BREP_SHAPE_REPRESENTATION ( 'Micro_RME-030-2', ( #154, #142 ), #14 ) ;
#165 =( CONVERSION_BASED_UNIT ( 'INCH', #32 ) LENGTH_UNIT ( ) NAMED_UNIT ( #242 ) );
#166 = ORIENTED_EDGE ( 'NONE', *, *, #197, .T. ) ;
#167 = EDGE_CURVE ( 'NONE', #175, #287, #159, .T. ) ;
#168 = ORIENTED_EDGE ( 'NONE', *, *, #213, .T. ) ;
#169 = ORIENTED_EDGE ( 'NONE', *, *, #188, .T. ) ;
#170 =( LENGTH_UNIT ( ) NAMED_UNIT ( * ) SI_UNIT ( $, .METRE. ) );
#171 = ORIENTED_EDGE ( 'NONE', *, *, #117, .T. ) ;
#172 = AXIS2_PLACEMENT_3D ( 'NONE', #134, #270, #64 ) ;
#173 = CIRCLE ( 'NONE', #293, 0.01498500000000000353 ) ;
#174 = ADVANCED_FACE ( 'NONE', ( #259 ), #161, .T. ) ;
#175 = VERTEX_POINT ( 'NONE', #74 ) ;
#176 = EDGE_LOOP ( 'NONE', ( #102, #168 ) ) ;
#177 = DIRECTION ( 'NONE',  ( -1.000000000000000000, 0.0000000000000000000, 0.0000000000000000000 ) ) ;
#178 = CARTESIAN_POINT ( 'NONE',  ( 2.247390034318794663E-34, 0.0000000000000000000, 1.835133228522309201E-18 ) ) ;
#179 = DIRECTION ( 'NONE',  ( -1.000000000000000000, 0.0000000000000000000, 1.224646799147353454E-16 ) ) ;
#180 = CARTESIAN_POINT ( 'NONE',  ( 0.0000000000000000000, 0.0000000000000000000, 0.0000000000000000000 ) ) ;
#181 = VECTOR ( 'NONE', #275, 39.37007874015748143 ) ;
#182 = DIRECTION ( 'NONE',  ( 0.0000000000000000000, 0.0000000000000000000, 1.000000000000000000 ) ) ;
#183 = PRESENTATION_STYLE_ASSIGNMENT (( #139 ) ) ;
#184 = FACE_OUTER_BOUND ( 'NONE', #176, .T. ) ;
#185 = AXIS2_PLACEMENT_3D ( 'NONE', #178, #272, #179 ) ;
#186 = MECHANICAL_DESIGN_GEOMETRIC_PRESENTATION_REPRESENTATION (  '', ( #241 ), #249 ) ;
#187 = DIRECTION ( 'NONE',  ( 1.000000000000000000, 0.0000000000000000000, -0.0000000000000000000 ) ) ;
#188 = EDGE_CURVE ( 'NONE', #125, #175, #48, .T. ) ;
#189 = SURFACE_STYLE_FILL_AREA ( #265 ) ;
#190 = ORIENTED_EDGE ( 'NONE', *, *, #243, .F. ) ;
#191 = DIRECTION ( 'NONE',  ( -1.224646799147353454E-16, -0.0000000000000000000, -1.000000000000000000 ) ) ;
#192 = CIRCLE ( 'NONE', #53, 0.04750000000000064587 ) ;
#193 = VERTEX_POINT ( 'NONE', #208 ) ;
#194 = VERTEX_POINT ( 'NONE', #27 ) ;
#195 = ORIENTED_EDGE ( 'NONE', *, *, #258, .F. ) ;
#196 = ORIENTED_EDGE ( 'NONE', *, *, #149, .F. ) ;
#197 = EDGE_CURVE ( 'NONE', #81, #193, #115, .T. ) ;
#198 = FILL_AREA_STYLE_COLOUR ( '', #253 ) ;
#199 = CARTESIAN_POINT ( 'NONE',  ( 1.102182119232618065E-17, 0.0000000000000000000, 0.08999999999999999667 ) ) ;
#200 = VERTEX_POINT ( 'NONE', #280 ) ;
#201 = CARTESIAN_POINT ( 'NONE',  ( 0.01498500000000001393, 0.0000000000000000000, 0.08999999999999999667 ) ) ;
#202 = FACE_OUTER_BOUND ( 'NONE', #33, .T. ) ;
#203 = ADVANCED_FACE ( 'NONE', ( #95 ), #257, .F. ) ;
#204 = UNCERTAINTY_MEASURE_WITH_UNIT (LENGTH_MEASURE( 1.000000000000000082E-05 ), #165, 'distance_accuracy_value', 'NONE');
#205 = CARTESIAN_POINT ( 'NONE',  ( 2.247390034318794663E-34, 0.0000000000000000000, 1.835133228522309201E-18 ) ) ;
#206 = VECTOR ( 'NONE', #109, 39.37007874015748143 ) ;
#207 = CIRCLE ( 'NONE', #85, 0.04750000000000064587 ) ;
#208 = CARTESIAN_POINT ( 'NONE',  ( -0.01498500000000000006, 0.0000000000000000000, 3.670266457044618402E-18 ) ) ;
#209 = DIRECTION ( 'NONE',  ( -1.000000000000000000, 0.0000000000000000000, 1.224646799147353454E-16 ) ) ;
#210 = AXIS2_PLACEMENT_3D ( 'NONE', #1, #108, #66 ) ;
#211 = FACE_OUTER_BOUND ( 'NONE', #63, .T. ) ;
#212 = ORIENTED_EDGE ( 'NONE', *, *, #243, .T. ) ;
#213 = EDGE_CURVE ( 'NONE', #125, #35, #192, .T. ) ;
#214 = ORIENTED_EDGE ( 'NONE', *, *, #260, .T. ) ;
#215 = AXIS2_PLACEMENT_3D ( 'NONE', #199, #225, #299 ) ;
#216 =( CONVERSION_BASED_UNIT ( 'INCH', #144 ) LENGTH_UNIT ( ) NAMED_UNIT ( #264 ) );
#217 = CARTESIAN_POINT ( 'NONE',  ( 0.06250000000000006939, 7.654042494670963708E-18, 0.3594709556591341171 ) ) ;
#218 = ORIENTED_EDGE ( 'NONE', *, *, #70, .F. ) ;
#219 = PRODUCT_DEFINITION_SHAPE ( 'NONE', 'NONE',  #6 ) ;
#220 = DIRECTION ( 'NONE',  ( -0.7071067811865462405, 0.0000000000000000000, -0.7071067811865486830 ) ) ;
#221 = EDGE_LOOP ( 'NONE', ( #104, #195, #143, #269 ) ) ;
#222 = CARTESIAN_POINT ( 'NONE',  ( -0.06250000000000002776, 0.0000000000000000000, 1.500000000000000222 ) ) ;
#223 = AXIS2_PLACEMENT_3D ( 'NONE', #255, #93, #158 ) ;
#224 = CARTESIAN_POINT ( 'NONE',  ( 0.01498500000000001393, 0.0000000000000000000, 0.08999999999999999667 ) ) ;
#225 = DIRECTION ( 'NONE',  ( 1.224646799147353454E-16, 0.0000000000000000000, 1.000000000000000000 ) ) ;
#226 = DIRECTION ( 'NONE',  ( -0.0000000000000000000, -0.0000000000000000000, -1.000000000000000000 ) ) ;
#227 = VECTOR ( 'NONE', #42, 39.37007874015747433 ) ;
#228 = ORIENTED_EDGE ( 'NONE', *, *, #2, .T. ) ;
#229 = LENGTH_MEASURE_WITH_UNIT ( LENGTH_MEASURE( 0.02539999999999999897 ), #73 );
#230 = DIRECTION ( 'NONE',  ( 0.0000000000000000000, 0.0000000000000000000, 1.000000000000000000 ) ) ;
#231 =( NAMED_UNIT ( * ) PLANE_ANGLE_UNIT ( ) SI_UNIT ( $, .RADIAN. ) );
#232 = DIRECTION ( 'NONE',  ( 0.0000000000000000000, 0.0000000000000000000, 1.000000000000000000 ) ) ;
#233 = STYLED_ITEM ( 'NONE', ( #183 ), #154 ) ;
#234 = CARTESIAN_POINT ( 'NONE',  ( 1.102182119232618065E-17, 0.0000000000000000000, 0.08999999999999999667 ) ) ;
#235 = ADVANCED_FACE ( 'NONE', ( #8 ), #162, .T. ) ;
#236 = EDGE_LOOP ( 'NONE', ( #171, #212 ) ) ;
#237 = ORIENTED_EDGE ( 'NONE', *, *, #149, .T. ) ;
#238 = PRODUCT ( 'Micro_RME-030-2', 'Micro_RME-030-2', '', ( #288 ) ) ;
#239 = CIRCLE ( 'NONE', #210, 0.06250000000000002776 ) ;
#240 = DIRECTION ( 'NONE',  ( 1.000000000000000000, 0.0000000000000000000, 0.0000000000000000000 ) ) ;
#241 = STYLED_ITEM ( 'NONE', ( #62 ), #164 ) ;
#242 = DIMENSIONAL_EXPONENTS ( 1.000000000000000000, 0.0000000000000000000, 0.0000000000000000000, 0.0000000000000000000, 0.0000000000000000000, 0.0000000000000000000, 0.0000000000000000000 ) ;
#243 = EDGE_CURVE ( 'NONE', #273, #193, #50, .T. ) ;
#244 = EDGE_LOOP ( 'NONE', ( #56, #263, #24, #126 ) ) ;
#245 = LINE ( 'NONE', #222, #132 ) ;
#246 = CIRCLE ( 'NONE', #116, 0.06250000000000002776 ) ;
#247 = ORIENTED_EDGE ( 'NONE', *, *, #78, .T. ) ;
#248 = PRODUCT_RELATED_PRODUCT_CATEGORY ( 'part', '', ( #238 ) ) ;
#249 =( GEOMETRIC_REPRESENTATION_CONTEXT ( 3 ) GLOBAL_UNCERTAINTY_ASSIGNED_CONTEXT ( ( #90 ) ) GLOBAL_UNIT_ASSIGNED_CONTEXT ( ( #216, #119, #34 ) ) REPRESENTATION_CONTEXT ( 'NONE', 'WORKASPACE' ) );
#250 = ORIENTED_EDGE ( 'NONE', *, *, #89, .F. ) ;
#251 = CARTESIAN_POINT ( 'NONE',  ( -0.01498499999999999312, 1.835133228522309201E-18, 0.08999999999999999667 ) ) ;
#252 = CARTESIAN_POINT ( 'NONE',  ( 1.102182119232618065E-17, 0.0000000000000000000, 0.08999999999999999667 ) ) ;
#253 = COLOUR_RGB ( '',0.7921568627450980005, 0.8196078431372548767, 0.9333333333333333481 ) ;
#254 = AXIS2_PLACEMENT_3D ( 'NONE', #180, #114, #187 ) ;
#255 = CARTESIAN_POINT ( 'NONE',  ( 0.0000000000000000000, 0.0000000000000000000, 1.500000000000000222 ) ) ;
#256 = SURFACE_SIDE_STYLE ('',( #28 ) ) ;
#257 = PLANE ( 'NONE',  #254 ) ;
#258 = EDGE_CURVE ( 'NONE', #35, #125, #207, .T. ) ;
#259 = FACE_OUTER_BOUND ( 'NONE', #290, .T. ) ;
#260 = EDGE_CURVE ( 'NONE', #81, #39, #173, .T. ) ;
#261 =( NAMED_UNIT ( * ) SI_UNIT ( $, .STERADIAN. ) SOLID_ANGLE_UNIT ( ) );
#262 =( NAMED_UNIT ( * ) PLANE_ANGLE_UNIT ( ) SI_UNIT ( $, .RADIAN. ) );
#263 = ORIENTED_EDGE ( 'NONE', *, *, #167, .T. ) ;
#264 = DIMENSIONAL_EXPONENTS ( 1.000000000000000000, 0.0000000000000000000, 0.0000000000000000000, 0.0000000000000000000, 0.0000000000000000000, 0.0000000000000000000, 0.0000000000000000000 ) ;
#265 = FILL_AREA_STYLE ('',( #268 ) ) ;
#266 = ORIENTED_EDGE ( 'NONE', *, *, #55, .F. ) ;
#267 = CIRCLE ( 'NONE', #172, 0.06250000000000002776 ) ;
#268 = FILL_AREA_STYLE_COLOUR ( '', #5 ) ;
#269 = ORIENTED_EDGE ( 'NONE', *, *, #2, .F. ) ;
#270 = DIRECTION ( 'NONE',  ( -1.224646799147353454E-16, -0.0000000000000000000, -1.000000000000000000 ) ) ;
#271 = CARTESIAN_POINT ( 'NONE',  ( 0.0000000000000000000, 0.0000000000000000000, 1.500000000000000222 ) ) ;
#272 = DIRECTION ( 'NONE',  ( -1.224646799147353454E-16, -0.0000000000000000000, -1.000000000000000000 ) ) ;
#273 = VERTEX_POINT ( 'NONE', #36 ) ;
#274 = CARTESIAN_POINT ( 'NONE',  ( 0.04750000000000064587, 6.735557395310483192E-18, 1.500000000000000222 ) ) ;
#275 = DIRECTION ( 'NONE',  ( -0.0000000000000000000, -0.0000000000000000000, -1.000000000000000000 ) ) ;
#276 = AXIS2_PLACEMENT_3D ( 'NONE', #49, #232, #30 ) ;
#277 = CIRCLE ( 'NONE', #11, 0.01498500000000000353 ) ;
#278 = PRODUCT_DEFINITION_CONTEXT ( 'detailed design', #148, 'design' ) ;
#279 = DIRECTION ( 'NONE',  ( -1.224646799147353454E-16, -0.0000000000000000000, -1.000000000000000000 ) ) ;
#280 = CARTESIAN_POINT ( 'NONE',  ( -0.06250000000000002776, 0.0000000000000000000, 1.485000000000000764 ) ) ;
#281 = PRODUCT_DEFINITION_FORMATION_WITH_SPECIFIED_SOURCE ( 'ANY', '', #238, .NOT_KNOWN. ) ;
#282 = CARTESIAN_POINT ( 'NONE',  ( 0.0000000000000000000, 0.0000000000000000000, 1.500000000000000222 ) ) ;
#283 = APPLICATION_PROTOCOL_DEFINITION ( 'draft international standard', 'automotive_design', 1998, #148 ) ;
#284 = SURFACE_SIDE_STYLE ('',( #189 ) ) ;
#285 = ORIENTED_EDGE ( 'NONE', *, *, #260, .F. ) ;
#286 = DIRECTION ( 'NONE',  ( -1.224646799147353454E-16, -0.0000000000000000000, -1.000000000000000000 ) ) ;
#287 = VERTEX_POINT ( 'NONE', #217 ) ;
#288 = PRODUCT_CONTEXT ( 'NONE', #103, 'mechanical' ) ;
#289 = EDGE_CURVE ( 'NONE', #35, #200, #120, .T. ) ;
#290 = EDGE_LOOP ( 'NONE', ( #214, #141, #145, #38 ) ) ;
#291 = ORIENTED_EDGE ( 'NONE', *, *, #167, .F. ) ;
#292 = PRESENTATION_LAYER_ASSIGNMENT (  '', '', ( #233 ) ) ;
#293 = AXIS2_PLACEMENT_3D ( 'NONE', #234, #286, #123 ) ;
#294 = ORIENTED_EDGE ( 'NONE', *, *, #295, .T. ) ;
#295 = EDGE_CURVE ( 'NONE', #39, #81, #277, .T. ) ;
#296 = FILL_AREA_STYLE ('',( #198 ) ) ;
#297 = DIRECTION ( 'NONE',  ( -1.000000000000000000, 0.0000000000000000000, 0.0000000000000000000 ) ) ;
#298 = VECTOR ( 'NONE', #156, 39.37007874015748143 ) ;
#299 = DIRECTION ( 'NONE',  ( 1.000000000000000000, 0.0000000000000000000, 0.0000000000000000000 ) ) ;
ENDSEC;
END-ISO-10303-21;
