ISO-10303-21;
HEADER;
FILE_DESCRIPTION (( 'STEP AP214' ),
    '1' );
FILE_NAME ('83796.STEP',
    '2023-07-05T16:07:10',
    ( '' ),
    ( '' ),
    'SwSTEP 2.0',
    'SolidWorks 2023',
    '' );
FILE_SCHEMA (( 'AUTOMOTIVE_DESIGN' ));
ENDSEC;

DATA;
#1 = VERTEX_POINT ( 'NONE', #236 ) ;
#2 = EDGE_CURVE ( 'NONE', #25, #15, #102, .T. ) ;
#3 =( GEOMETRIC_REPRESENTATION_CONTEXT ( 3 ) GLOBAL_UNCERTAINTY_ASSIGNED_CONTEXT ( ( #122 ) ) GLOBAL_UNIT_ASSIGNED_CONTEXT ( ( #217, #212, #242 ) ) REPRESENTATION_CONTEXT ( 'NONE', 'WORKASPACE' ) );
#4 = DIRECTION ( 'NONE',  ( 0.000000000000000000, 1.000000000000000000, 0.000000000000000000 ) ) ;
#5 = CARTESIAN_POINT ( 'NONE',  ( 0.2499999999999999722, 3.000000000000000444, 0.000000000000000000 ) ) ;
#6 = EDGE_LOOP ( 'NONE', ( #116, #137 ) ) ;
#7 = DIRECTION ( 'NONE',  ( -1.252875704100928464E-16, 1.000000000000000000, -0.000000000000000000 ) ) ;
#8 = ORIENTED_EDGE ( 'NONE', *, *, #82, .F. ) ;
#9 =( NAMED_UNIT ( * ) SI_UNIT ( $, .STERADIAN. ) SOLID_ANGLE_UNIT ( ) );
#10 =( LENGTH_UNIT ( ) NAMED_UNIT ( * ) SI_UNIT ( $, .METRE. ) );
#11 = AXIS2_PLACEMENT_3D ( 'NONE', #5, #81, #234 ) ;
#12 = FILL_AREA_STYLE_COLOUR ( '', #99 ) ;
#13 = DIRECTION ( 'NONE',  ( 0.000000000000000000, 0.000000000000000000, 1.000000000000000000 ) ) ;
#14 = DIRECTION ( 'NONE',  ( -0.000000000000000000, -1.000000000000000000, -0.000000000000000000 ) ) ;
#15 = VERTEX_POINT ( 'NONE', #194 ) ;
#16 = EDGE_CURVE ( 'NONE', #94, #1, #165, .T. ) ;
#17 = PRESENTATION_LAYER_ASSIGNMENT (  '', '', ( #79 ) ) ;
#18 = VECTOR ( 'NONE', #52, 39.37007874015748143 ) ;
#19 =( NAMED_UNIT ( * ) SI_UNIT ( $, .STERADIAN. ) SOLID_ANGLE_UNIT ( ) );
#20 =( LENGTH_UNIT ( ) NAMED_UNIT ( * ) SI_UNIT ( $, .METRE. ) );
#21 = PRESENTATION_STYLE_ASSIGNMENT (( #200 ) ) ;
#22 = ADVANCED_FACE ( 'NONE', ( #147 ), #222, .T. ) ;
#23 =( NAMED_UNIT ( * ) PLANE_ANGLE_UNIT ( ) SI_UNIT ( $, .RADIAN. ) );
#24 = DIMENSIONAL_EXPONENTS ( 1.000000000000000000, 0.000000000000000000, 0.000000000000000000, 0.000000000000000000, 0.000000000000000000, 0.000000000000000000, 0.000000000000000000 ) ;
#25 = VERTEX_POINT ( 'NONE', #237 ) ;
#26 = CYLINDRICAL_SURFACE ( 'NONE', #264, 0.2499999999999998612 ) ;
#27 = EDGE_CURVE ( 'NONE', #1, #181, #215, .T. ) ;
#28 = VERTEX_POINT ( 'NONE', #72 ) ;
#29 = SHAPE_DEFINITION_REPRESENTATION ( #193, #159 ) ;
#30 = FACE_OUTER_BOUND ( 'NONE', #6, .T. ) ;
#31 = MECHANICAL_DESIGN_GEOMETRIC_PRESENTATION_REPRESENTATION (  '', ( #260 ), #48 ) ;
#32 = FILL_AREA_STYLE ('',( #251 ) ) ;
#33 = ORIENTED_EDGE ( 'NONE', *, *, #59, .T. ) ;
#34 = CARTESIAN_POINT ( 'NONE',  ( 0.000000000000000000, 0.4330127018922180770, 0.000000000000000000 ) ) ;
#35 = CARTESIAN_POINT ( 'NONE',  ( -0.2499999999999999167, 3.000000000000000444, 0.000000000000000000 ) ) ;
#36 = UNCERTAINTY_MEASURE_WITH_UNIT (LENGTH_MEASURE( 1.000000000000000082E-05 ), #157, 'distance_accuracy_value', 'NONE');
#37 = LENGTH_MEASURE_WITH_UNIT ( LENGTH_MEASURE( 0.02539999999999999897 ), #20 );
#38 =( LENGTH_UNIT ( ) NAMED_UNIT ( * ) SI_UNIT ( $, .METRE. ) );
#39 = FACE_OUTER_BOUND ( 'NONE', #132, .T. ) ;
#40 = AXIS2_PLACEMENT_3D ( 'NONE', #191, #174, #153 ) ;
#41 = PRODUCT_DEFINITION ( 'UNKNOWN', '', #239, #152 ) ;
#42 = EDGE_LOOP ( 'NONE', ( #207, #187, #125 ) ) ;
#43 = CARTESIAN_POINT ( 'NONE',  ( 0.000000000000000000, 0.4330127018922180770, 0.000000000000000000 ) ) ;
#44 = AXIS2_PLACEMENT_3D ( 'NONE', #51, #124, #123 ) ;
#45 = DIMENSIONAL_EXPONENTS ( 1.000000000000000000, 0.000000000000000000, 0.000000000000000000, 0.000000000000000000, 0.000000000000000000, 0.000000000000000000, 0.000000000000000000 ) ;
#46 = CARTESIAN_POINT ( 'NONE',  ( -6.123233995736772199E-17, 3.000000000000000444, 0.000000000000000000 ) ) ;
#47 = MANIFOLD_SOLID_BREP ( 'Revolve - Cutting Edge', #155 ) ;
#48 =( GEOMETRIC_REPRESENTATION_CONTEXT ( 3 ) GLOBAL_UNCERTAINTY_ASSIGNED_CONTEXT ( ( #36 ) ) GLOBAL_UNIT_ASSIGNED_CONTEXT ( ( #157, #203, #19 ) ) REPRESENTATION_CONTEXT ( 'NONE', 'WORKASPACE' ) );
#49 = CARTESIAN_POINT ( 'NONE',  ( -0.2499999999999994449, 0.4330127018922179105, 0.000000000000000000 ) ) ;
#50 = CARTESIAN_POINT ( 'NONE',  ( 0.000000000000000000, 0.000000000000000000, 0.000000000000000000 ) ) ;
#51 = CARTESIAN_POINT ( 'NONE',  ( -6.123233995736770966E-17, 3.000000000000000444, 0.000000000000000000 ) ) ;
#52 = DIRECTION ( 'NONE',  ( 6.123233995736778362E-17, 0.8660254037844380415, -0.5000000000000009992 ) ) ;
#53 = AXIS2_PLACEMENT_3D ( 'NONE', #34, #14, #86 ) ;
#54 = LENGTH_MEASURE_WITH_UNIT ( LENGTH_MEASURE( 0.02539999999999999897 ), #10 );
#55 = UNCERTAINTY_MEASURE_WITH_UNIT (LENGTH_MEASURE( 1.000000000000000082E-05 ), #154, 'distance_accuracy_value', 'NONE');
#56 = SURFACE_STYLE_FILL_AREA ( #32 ) ;
#57 = FILL_AREA_STYLE ('',( #213 ) ) ;
#58 = AXIS2_PLACEMENT_3D ( 'NONE', #96, #162, #64 ) ;
#59 = EDGE_CURVE ( 'NONE', #25, #254, #258, .T. ) ;
#60 = FACE_OUTER_BOUND ( 'NONE', #173, .T. ) ;
#61 = MECHANICAL_DESIGN_GEOMETRIC_PRESENTATION_REPRESENTATION (  '', ( #226 ), #85 ) ;
#62 = DIRECTION ( 'NONE',  ( 0.000000000000000000, 0.000000000000000000, -1.000000000000000000 ) ) ;
#63 =( LENGTH_UNIT ( ) NAMED_UNIT ( * ) SI_UNIT ( $, .METRE. ) );
#64 = DIRECTION ( 'NONE',  ( -1.000000000000000000, 0.000000000000000000, 0.000000000000000000 ) ) ;
#65 = EDGE_CURVE ( 'NONE', #254, #15, #189, .T. ) ;
#66 = DIRECTION ( 'NONE',  ( 1.000000000000000000, 0.000000000000000000, 0.000000000000000000 ) ) ;
#67 = LENGTH_MEASURE_WITH_UNIT ( LENGTH_MEASURE( 0.02539999999999999897 ), #87 );
#68 = ORIENTED_EDGE ( 'NONE', *, *, #211, .F. ) ;
#69 = APPLICATION_PROTOCOL_DEFINITION ( 'draft international standard', 'automotive_design', 1998, #243 ) ;
#70 = ORIENTED_EDGE ( 'NONE', *, *, #82, .T. ) ;
#71 =( NAMED_UNIT ( * ) SI_UNIT ( $, .STERADIAN. ) SOLID_ANGLE_UNIT ( ) );
#72 = CARTESIAN_POINT ( 'NONE',  ( 0.2500000000000000000, 0.4330127018922179105, 3.061616997868383018E-17 ) ) ;
#73 = DIRECTION ( 'NONE',  ( -1.252875704100928464E-16, 1.000000000000000000, -0.000000000000000000 ) ) ;
#74 = CONICAL_SURFACE ( 'NONE', #198, 22.73032555864674364, 0.5235987755983000369 ) ;
#75 = SURFACE_SIDE_STYLE ('',( #88 ) ) ;
#76 = FILL_AREA_STYLE_COLOUR ( '', #253 ) ;
#77 = PRODUCT ( '83796', '83796', '', ( #103 ) ) ;
#78 = ORIENTED_EDGE ( 'NONE', *, *, #65, .F. ) ;
#79 = STYLED_ITEM ( 'NONE', ( #218 ), #22 ) ;
#80 = COLOUR_RGB ( '',0.7921568627450980005, 0.8196078431372548767, 0.9333333333333333481 ) ;
#81 = DIRECTION ( 'NONE',  ( 1.252875704100928464E-16, -1.000000000000000000, 0.000000000000000000 ) ) ;
#82 = EDGE_CURVE ( 'NONE', #28, #94, #163, .T. ) ;
#83 = DIRECTION ( 'NONE',  ( -1.252875704100928464E-16, 1.000000000000000000, -0.000000000000000000 ) ) ;
#84 = SURFACE_STYLE_USAGE ( .BOTH. , #146 ) ;
#85 =( GEOMETRIC_REPRESENTATION_CONTEXT ( 3 ) GLOBAL_UNCERTAINTY_ASSIGNED_CONTEXT ( ( #55 ) ) GLOBAL_UNIT_ASSIGNED_CONTEXT ( ( #154, #109, #128 ) ) REPRESENTATION_CONTEXT ( 'NONE', 'WORKASPACE' ) );
#86 = DIRECTION ( 'NONE',  ( 0.000000000000000000, 0.000000000000000000, -1.000000000000000000 ) ) ;
#87 =( LENGTH_UNIT ( ) NAMED_UNIT ( * ) SI_UNIT ( $, .METRE. ) );
#88 = SURFACE_STYLE_FILL_AREA ( #57 ) ;
#89 = FILL_AREA_STYLE ('',( #225 ) ) ;
#90 = FACE_OUTER_BOUND ( 'NONE', #107, .T. ) ;
#91 = PRESENTATION_LAYER_ASSIGNMENT (  '', '', ( #244 ) ) ;
#92 = PLANE ( 'NONE',  #196 ) ;
#93 = AXIS2_PLACEMENT_3D ( 'NONE', #149, #7, #118 ) ;
#94 = VERTEX_POINT ( 'NONE', #49 ) ;
#95 = DIRECTION ( 'NONE',  ( -1.000000000000000000, 0.000000000000000000, 0.000000000000000000 ) ) ;
#96 = CARTESIAN_POINT ( 'NONE',  ( -6.123233995736772199E-17, 3.000000000000000444, 0.000000000000000000 ) ) ;
#97 = ADVANCED_FACE ( 'NONE', ( #30 ), #98, .F. ) ;
#98 = PLANE ( 'NONE',  #11 ) ;
#99 = COLOUR_RGB ( '',1.000000000000000000, 0.000000000000000000, 0.000000000000000000 ) ;
#100 = CIRCLE ( 'NONE', #134, 0.2500000000000000555 ) ;
#101 = CARTESIAN_POINT ( 'NONE',  ( -6.123233995736770966E-17, 3.000000000000000444, 0.000000000000000000 ) ) ;
#102 = LINE ( 'NONE', #50, #197 ) ;
#103 = PRODUCT_CONTEXT ( 'NONE', #243, 'mechanical' ) ;
#104 = ORIENTED_EDGE ( 'NONE', *, *, #138, .F. ) ;
#105 = ORIENTED_EDGE ( 'NONE', *, *, #27, .F. ) ;
#106 = LINE ( 'NONE', #238, #156 ) ;
#107 = EDGE_LOOP ( 'NONE', ( #184, #33, #202 ) ) ;
#108 = UNCERTAINTY_MEASURE_WITH_UNIT (LENGTH_MEASURE( 1.000000000000000082E-05 ), #139, 'distance_accuracy_value', 'NONE');
#109 =( NAMED_UNIT ( * ) PLANE_ANGLE_UNIT ( ) SI_UNIT ( $, .RADIAN. ) );
#110 = DIMENSIONAL_EXPONENTS ( 1.000000000000000000, 0.000000000000000000, 0.000000000000000000, 0.000000000000000000, 0.000000000000000000, 0.000000000000000000, 0.000000000000000000 ) ;
#111 = LENGTH_MEASURE_WITH_UNIT ( LENGTH_MEASURE( 0.02539999999999999897 ), #38 );
#112 = MECHANICAL_DESIGN_GEOMETRIC_PRESENTATION_REPRESENTATION (  '', ( #79 ), #143 ) ;
#113 = SURFACE_STYLE_FILL_AREA ( #89 ) ;
#114 = SURFACE_SIDE_STYLE ('',( #227 ) ) ;
#115 = COLOUR_RGB ( '',0.7921568627450980005, 0.8196078431372548767, 0.9333333333333333481 ) ;
#116 = ORIENTED_EDGE ( 'NONE', *, *, #27, .T. ) ;
#117 = CARTESIAN_POINT ( 'NONE',  ( 0.2499999999999999722, 3.000000000000000444, 3.061616997868383018E-17 ) ) ;
#118 = DIRECTION ( 'NONE',  ( -1.000000000000000000, 0.000000000000000000, 0.000000000000000000 ) ) ;
#119 = DIRECTION ( 'NONE',  ( -1.252875704100928464E-16, 1.000000000000000000, 0.000000000000000000 ) ) ;
#120 = CLOSED_SHELL ( 'NONE', ( #129, #185, #179, #97 ) ) ;
#121 = COLOUR_RGB ( '',1.000000000000000000, 0.000000000000000000, 0.000000000000000000 ) ;
#122 = UNCERTAINTY_MEASURE_WITH_UNIT (LENGTH_MEASURE( 1.000000000000000082E-05 ), #217, 'distance_accuracy_value', 'NONE');
#123 = DIRECTION ( 'NONE',  ( -1.000000000000000000, 0.000000000000000000, 0.000000000000000000 ) ) ;
#124 = DIRECTION ( 'NONE',  ( -1.252875704100928464E-16, 1.000000000000000000, -0.000000000000000000 ) ) ;
#125 = ORIENTED_EDGE ( 'NONE', *, *, #138, .T. ) ;
#126 = ADVANCED_FACE ( 'NONE', ( #90 ), #74, .T. ) ;
#127 = MECHANICAL_DESIGN_GEOMETRIC_PRESENTATION_REPRESENTATION (  '', ( #178 ), #158 ) ;
#128 =( NAMED_UNIT ( * ) SI_UNIT ( $, .STERADIAN. ) SOLID_ANGLE_UNIT ( ) );
#129 = ADVANCED_FACE ( 'NONE', ( #231 ), #182, .T. ) ;
#130 = FILL_AREA_STYLE ('',( #76 ) ) ;
#131 = PRESENTATION_LAYER_ASSIGNMENT (  '', '', ( #260 ) ) ;
#132 = EDGE_LOOP ( 'NONE', ( #104, #78 ) ) ;
#133 = CARTESIAN_POINT ( 'NONE',  ( 0.000000000000000000, 0.4330127018922180770, 0.000000000000000000 ) ) ;
#134 = AXIS2_PLACEMENT_3D ( 'NONE', #101, #83, #142 ) ;
#135 = AXIS2_PLACEMENT_3D ( 'NONE', #43, #250, #62 ) ;
#136 = DIMENSIONAL_EXPONENTS ( 1.000000000000000000, 0.000000000000000000, 0.000000000000000000, 0.000000000000000000, 0.000000000000000000, 0.000000000000000000, 0.000000000000000000 ) ;
#137 = ORIENTED_EDGE ( 'NONE', *, *, #211, .T. ) ;
#138 = EDGE_CURVE ( 'NONE', #15, #254, #168, .T. ) ;
#139 =( CONVERSION_BASED_UNIT ( 'INCH', #247 ) LENGTH_UNIT ( ) NAMED_UNIT ( #136 ) );
#140 = CARTESIAN_POINT ( 'NONE',  ( 2.603792618961250911E-16, 0.4330127018922180770, 0.000000000000000000 ) ) ;
#141 = DIRECTION ( 'NONE',  ( -1.252875704100928464E-16, 1.000000000000000000, -0.000000000000000000 ) ) ;
#142 = DIRECTION ( 'NONE',  ( -1.000000000000000000, 0.000000000000000000, 0.000000000000000000 ) ) ;
#143 =( GEOMETRIC_REPRESENTATION_CONTEXT ( 3 ) GLOBAL_UNCERTAINTY_ASSIGNED_CONTEXT ( ( #195 ) ) GLOBAL_UNIT_ASSIGNED_CONTEXT ( ( #249, #166, #235 ) ) REPRESENTATION_CONTEXT ( 'NONE', 'WORKASPACE' ) );
#144 =( GEOMETRIC_REPRESENTATION_CONTEXT ( 3 ) GLOBAL_UNCERTAINTY_ASSIGNED_CONTEXT ( ( #219 ) ) GLOBAL_UNIT_ASSIGNED_CONTEXT ( ( #172, #210, #71 ) ) REPRESENTATION_CONTEXT ( 'NONE', 'WORKASPACE' ) );
#145 = CARTESIAN_POINT ( 'NONE',  ( 0.000000000000000000, 39.37007874015748143, 0.000000000000000000 ) ) ;
#146 = SURFACE_SIDE_STYLE ('',( #240 ) ) ;
#147 = FACE_OUTER_BOUND ( 'NONE', #42, .T. ) ;
#148 =( LENGTH_UNIT ( ) NAMED_UNIT ( * ) SI_UNIT ( $, .METRE. ) );
#149 = CARTESIAN_POINT ( 'NONE',  ( 2.603792618961250418E-16, 0.4330127018922179105, 0.000000000000000000 ) ) ;
#150 = FILL_AREA_STYLE ('',( #12 ) ) ;
#151 = CIRCLE ( 'NONE', #40, 0.2499999999999997224 ) ;
#152 = PRODUCT_DEFINITION_CONTEXT ( 'detailed design', #252, 'design' ) ;
#153 = DIRECTION ( 'NONE',  ( -1.000000000000000000, 0.000000000000000000, 0.000000000000000000 ) ) ;
#154 =( CONVERSION_BASED_UNIT ( 'INCH', #111 ) LENGTH_UNIT ( ) NAMED_UNIT ( #110 ) );
#155 = CLOSED_SHELL ( 'NONE', ( #126, #263, #22 ) ) ;
#156 = VECTOR ( 'NONE', #73, 39.37007874015748143 ) ;
#157 =( CONVERSION_BASED_UNIT ( 'INCH', #37 ) LENGTH_UNIT ( ) NAMED_UNIT ( #24 ) );
#158 =( GEOMETRIC_REPRESENTATION_CONTEXT ( 3 ) GLOBAL_UNCERTAINTY_ASSIGNED_CONTEXT ( ( #108 ) ) GLOBAL_UNIT_ASSIGNED_CONTEXT ( ( #139, #23, #9 ) ) REPRESENTATION_CONTEXT ( 'NONE', 'WORKASPACE' ) );
#159 = ADVANCED_BREP_SHAPE_REPRESENTATION ( '83796', ( #47, #224, #180 ), #144 ) ;
#160 = ORIENTED_EDGE ( 'NONE', *, *, #214, .F. ) ;
#161 = DIMENSIONAL_EXPONENTS ( 1.000000000000000000, 0.000000000000000000, 0.000000000000000000, 0.000000000000000000, 0.000000000000000000, 0.000000000000000000, 0.000000000000000000 ) ;
#162 = DIRECTION ( 'NONE',  ( -1.252875704100928464E-16, 1.000000000000000000, -0.000000000000000000 ) ) ;
#163 = CIRCLE ( 'NONE', #93, 0.2499999999999997224 ) ;
#164 = FACE_OUTER_BOUND ( 'NONE', #245, .T. ) ;
#165 = LINE ( 'NONE', #35, #175 ) ;
#166 =( NAMED_UNIT ( * ) PLANE_ANGLE_UNIT ( ) SI_UNIT ( $, .RADIAN. ) );
#167 = SURFACE_STYLE_USAGE ( .BOTH. , #256 ) ;
#168 = CIRCLE ( 'NONE', #135, 0.2499999999999999722 ) ;
#169 = DIRECTION ( 'NONE',  ( 0.000000000000000000, 1.000000000000000000, 0.000000000000000000 ) ) ;
#170 = CARTESIAN_POINT ( 'NONE',  ( 0.000000000000000000, 0.000000000000000000, 0.000000000000000000 ) ) ;
#171 = DIRECTION ( 'NONE',  ( 0.000000000000000000, 0.8660254037844380415, 0.5000000000000009992 ) ) ;
#172 =( CONVERSION_BASED_UNIT ( 'INCH', #188 ) LENGTH_UNIT ( ) NAMED_UNIT ( #45 ) );
#173 = EDGE_LOOP ( 'NONE', ( #160, #70, #208, #68 ) ) ;
#174 = DIRECTION ( 'NONE',  ( -1.252875704100928464E-16, 1.000000000000000000, -0.000000000000000000 ) ) ;
#175 = VECTOR ( 'NONE', #141, 39.37007874015748143 ) ;
#176 = PRESENTATION_STYLE_ASSIGNMENT (( #228 ) ) ;
#177 = SURFACE_SIDE_STYLE ('',( #113 ) ) ;
#178 = STYLED_ITEM ( 'NONE', ( #21 ), #126 ) ;
#179 = ADVANCED_FACE ( 'NONE', ( #60 ), #26, .T. ) ;
#180 = AXIS2_PLACEMENT_3D ( 'NONE', #170, #13, #66 ) ;
#181 = VERTEX_POINT ( 'NONE', #117 ) ;
#182 = CYLINDRICAL_SURFACE ( 'NONE', #58, 0.2499999999999998612 ) ;
#183 = AXIS2_PLACEMENT_3D ( 'NONE', #145, #169, #255 ) ;
#184 = ORIENTED_EDGE ( 'NONE', *, *, #2, .F. ) ;
#185 = ADVANCED_FACE ( 'NONE', ( #164 ), #248, .F. ) ;
#186 = CARTESIAN_POINT ( 'NONE',  ( 0.000000000000000000, 0.000000000000000000, 0.000000000000000000 ) ) ;
#187 = ORIENTED_EDGE ( 'NONE', *, *, #2, .T. ) ;
#188 = LENGTH_MEASURE_WITH_UNIT ( LENGTH_MEASURE( 0.02539999999999999897 ), #148 );
#189 = CIRCLE ( 'NONE', #53, 0.2499999999999999722 ) ;
#190 = EDGE_LOOP ( 'NONE', ( #216, #232, #105, #201 ) ) ;
#191 = CARTESIAN_POINT ( 'NONE',  ( 2.603792618961250418E-16, 0.4330127018922179105, 0.000000000000000000 ) ) ;
#192 = APPLICATION_PROTOCOL_DEFINITION ( 'draft international standard', 'automotive_design', 1998, #252 ) ;
#193 = PRODUCT_DEFINITION_SHAPE ( 'NONE', 'NONE',  #41 ) ;
#194 = CARTESIAN_POINT ( 'NONE',  ( 0.000000000000000000, 0.4330127018922180770, 0.2499999999999999722 ) ) ;
#195 = UNCERTAINTY_MEASURE_WITH_UNIT (LENGTH_MEASURE( 1.000000000000000082E-05 ), #249, 'distance_accuracy_value', 'NONE');
#196 = AXIS2_PLACEMENT_3D ( 'NONE', #133, #206, #257 ) ;
#197 = VECTOR ( 'NONE', #171, 39.37007874015748143 ) ;
#198 = AXIS2_PLACEMENT_3D ( 'NONE', #199, #4, #229 ) ;
#199 = CARTESIAN_POINT ( 'NONE',  ( 0.000000000000000000, 39.37007874015748143, 0.000000000000000000 ) ) ;
#200 = SURFACE_STYLE_USAGE ( .BOTH. , #114 ) ;
#201 = ORIENTED_EDGE ( 'NONE', *, *, #16, .F. ) ;
#202 = ORIENTED_EDGE ( 'NONE', *, *, #65, .T. ) ;
#203 =( NAMED_UNIT ( * ) PLANE_ANGLE_UNIT ( ) SI_UNIT ( $, .RADIAN. ) );
#204 = DIRECTION ( 'NONE',  ( -1.252875704100928464E-16, 1.000000000000000000, -0.000000000000000000 ) ) ;
#205 = AXIS2_PLACEMENT_3D ( 'NONE', #140, #119, #209 ) ;
#206 = DIRECTION ( 'NONE',  ( 0.000000000000000000, 1.000000000000000000, 0.000000000000000000 ) ) ;
#207 = ORIENTED_EDGE ( 'NONE', *, *, #59, .F. ) ;
#208 = ORIENTED_EDGE ( 'NONE', *, *, #16, .T. ) ;
#209 = DIRECTION ( 'NONE',  ( -1.000000000000000000, -1.252875704100928464E-16, 0.000000000000000000 ) ) ;
#210 =( NAMED_UNIT ( * ) PLANE_ANGLE_UNIT ( ) SI_UNIT ( $, .RADIAN. ) );
#211 = EDGE_CURVE ( 'NONE', #181, #1, #100, .T. ) ;
#212 =( NAMED_UNIT ( * ) PLANE_ANGLE_UNIT ( ) SI_UNIT ( $, .RADIAN. ) );
#213 = FILL_AREA_STYLE_COLOUR ( '', #115 ) ;
#214 = EDGE_CURVE ( 'NONE', #28, #181, #106, .T. ) ;
#215 = CIRCLE ( 'NONE', #44, 0.2500000000000000555 ) ;
#216 = ORIENTED_EDGE ( 'NONE', *, *, #233, .T. ) ;
#217 =( CONVERSION_BASED_UNIT ( 'INCH', #67 ) LENGTH_UNIT ( ) NAMED_UNIT ( #161 ) );
#218 = PRESENTATION_STYLE_ASSIGNMENT (( #84 ) ) ;
#219 = UNCERTAINTY_MEASURE_WITH_UNIT (LENGTH_MEASURE( 1.000000000000000082E-05 ), #172, 'distance_accuracy_value', 'NONE');
#220 = CARTESIAN_POINT ( 'NONE',  ( 3.061616997868382402E-17, 0.4330127018922180770, -0.2499999999999999722 ) ) ;
#221 = DIMENSIONAL_EXPONENTS ( 1.000000000000000000, 0.000000000000000000, 0.000000000000000000, 0.000000000000000000, 0.000000000000000000, 0.000000000000000000, 0.000000000000000000 ) ;
#222 = CONICAL_SURFACE ( 'NONE', #183, 22.73032555864674364, 0.5235987755983000369 ) ;
#223 = PRESENTATION_STYLE_ASSIGNMENT (( #262 ) ) ;
#224 = MANIFOLD_SOLID_BREP ( 'Revolve - Tool Body (Pointed)', #120 ) ;
#225 = FILL_AREA_STYLE_COLOUR ( '', #121 ) ;
#226 = STYLED_ITEM ( 'NONE', ( #223 ), #47 ) ;
#227 = SURFACE_STYLE_FILL_AREA ( #130 ) ;
#228 = SURFACE_STYLE_USAGE ( .BOTH. , #177 ) ;
#229 = DIRECTION ( 'NONE',  ( 0.000000000000000000, 0.000000000000000000, 1.000000000000000000 ) ) ;
#230 = PRESENTATION_LAYER_ASSIGNMENT (  '', '', ( #226 ) ) ;
#231 = FACE_OUTER_BOUND ( 'NONE', #190, .T. ) ;
#232 = ORIENTED_EDGE ( 'NONE', *, *, #214, .T. ) ;
#233 = EDGE_CURVE ( 'NONE', #94, #28, #151, .T. ) ;
#234 = DIRECTION ( 'NONE',  ( 1.000000000000000000, 1.252875704100928464E-16, 0.000000000000000000 ) ) ;
#235 =( NAMED_UNIT ( * ) SI_UNIT ( $, .STERADIAN. ) SOLID_ANGLE_UNIT ( ) );
#236 = CARTESIAN_POINT ( 'NONE',  ( -0.2500000000000001110, 3.000000000000000444, 0.000000000000000000 ) ) ;
#237 = CARTESIAN_POINT ( 'NONE',  ( 0.000000000000000000, 0.000000000000000000, 0.000000000000000000 ) ) ;
#238 = CARTESIAN_POINT ( 'NONE',  ( 0.2499999999999998057, 3.000000000000000444, 3.061616997868381785E-17 ) ) ;
#239 = PRODUCT_DEFINITION_FORMATION_WITH_SPECIFIED_SOURCE ( 'ANY', '', #77, .NOT_KNOWN. ) ;
#240 = SURFACE_STYLE_FILL_AREA ( #150 ) ;
#241 = PRESENTATION_STYLE_ASSIGNMENT (( #167 ) ) ;
#242 =( NAMED_UNIT ( * ) SI_UNIT ( $, .STERADIAN. ) SOLID_ANGLE_UNIT ( ) );
#243 = APPLICATION_CONTEXT ( 'automotive_design' ) ;
#244 = STYLED_ITEM ( 'NONE', ( #241 ), #224 ) ;
#245 = EDGE_LOOP ( 'NONE', ( #259, #8 ) ) ;
#246 = MECHANICAL_DESIGN_GEOMETRIC_PRESENTATION_REPRESENTATION (  '', ( #244 ), #3 ) ;
#247 = LENGTH_MEASURE_WITH_UNIT ( LENGTH_MEASURE( 0.02539999999999999897 ), #63 );
#248 = PLANE ( 'NONE',  #205 ) ;
#249 =( CONVERSION_BASED_UNIT ( 'INCH', #54 ) LENGTH_UNIT ( ) NAMED_UNIT ( #221 ) );
#250 = DIRECTION ( 'NONE',  ( -0.000000000000000000, -1.000000000000000000, -0.000000000000000000 ) ) ;
#251 = FILL_AREA_STYLE_COLOUR ( '', #80 ) ;
#252 = APPLICATION_CONTEXT ( 'automotive_design' ) ;
#253 = COLOUR_RGB ( '',1.000000000000000000, 0.000000000000000000, 0.000000000000000000 ) ;
#254 = VERTEX_POINT ( 'NONE', #220 ) ;
#255 = DIRECTION ( 'NONE',  ( 0.000000000000000000, 0.000000000000000000, 1.000000000000000000 ) ) ;
#256 = SURFACE_SIDE_STYLE ('',( #56 ) ) ;
#257 = DIRECTION ( 'NONE',  ( 0.000000000000000000, -0.000000000000000000, 1.000000000000000000 ) ) ;
#258 = LINE ( 'NONE', #186, #18 ) ;
#259 = ORIENTED_EDGE ( 'NONE', *, *, #233, .F. ) ;
#260 = STYLED_ITEM ( 'NONE', ( #176 ), #263 ) ;
#261 = PRODUCT_RELATED_PRODUCT_CATEGORY ( 'part', '', ( #77 ) ) ;
#262 = SURFACE_STYLE_USAGE ( .BOTH. , #75 ) ;
#263 = ADVANCED_FACE ( 'NONE', ( #39 ), #92, .T. ) ;
#264 = AXIS2_PLACEMENT_3D ( 'NONE', #46, #204, #95 ) ;
#265 = PRESENTATION_LAYER_ASSIGNMENT (  '', '', ( #178 ) ) ;
ENDSEC;
END-ISO-10303-21;
