ISO-10303-21;
HEADER;
FILE_DESCRIPTION (( 'STEP AP214' ),
    '1' );
FILE_NAME ('Micro_AEMM-015-3X.STEP',
    '2022-03-15T14:22:50',
    ( '' ),
    ( '' ),
    'SwSTEP 2.0',
    'SolidWorks 2022',
    '' );
FILE_SCHEMA (( 'AUTOMOTIVE_DESIGN' ));
ENDSEC;

DATA;
#1 = DIRECTION ( 'NONE',  ( 1.000000000000000000, 0.000000000000000000, 0.000000000000000000 ) ) ;
#2 = DIRECTION ( 'NONE',  ( -1.224646799147353207E-16, -0.000000000000000000, -1.000000000000000000 ) ) ;
#3 = EDGE_CURVE ( 'NONE', #27, #105, #192, .T. ) ;
#4 = ORIENTED_EDGE ( 'NONE', *, *, #33, .F. ) ;
#5 = CARTESIAN_POINT ( 'NONE',  ( -0.07874000000000000443, 0.000000000000000000, 1.968503999999999809 ) ) ;
#6 = ORIENTED_EDGE ( 'NONE', *, *, #287, .F. ) ;
#7 =( NAMED_UNIT ( * ) PLANE_ANGLE_UNIT ( ) SI_UNIT ( $, .RADIAN. ) );
#8 = CARTESIAN_POINT ( 'NONE',  ( -0.07874000000000000443, 0.000000000000000000, 1.953504000000000129 ) ) ;
#9 = CARTESIAN_POINT ( 'NONE',  ( 0.02949797250000001092, 0.000000000000000000, 0.1574800000000000089 ) ) ;
#10 = AXIS2_PLACEMENT_3D ( 'NONE', #43, #135, #24 ) ;
#11 = CYLINDRICAL_SURFACE ( 'NONE', #191, 0.02949797249999999357 ) ;
#12 = PRODUCT_DEFINITION_CONTEXT ( 'detailed design', #94, 'design' ) ;
#13 = CARTESIAN_POINT ( 'NONE',  ( 4.423987282556545948E-34, 0.000000000000000000, 3.612459760346164844E-18 ) ) ;
#14 = AXIS2_PLACEMENT_3D ( 'NONE', #19, #206, #1 ) ;
#15 = ADVANCED_FACE ( 'NONE', ( #103 ), #286, .T. ) ;
#16 = CYLINDRICAL_SURFACE ( 'NONE', #72, 0.07874000000000000443 ) ;
#17 = ORIENTED_EDGE ( 'NONE', *, *, #74, .F. ) ;
#18 = DIRECTION ( 'NONE',  ( -0.000000000000000000, -0.000000000000000000, -1.000000000000000000 ) ) ;
#19 = CARTESIAN_POINT ( 'NONE',  ( 0.000000000000000000, 0.000000000000000000, 1.953504000000000129 ) ) ;
#20 = MECHANICAL_DESIGN_GEOMETRIC_PRESENTATION_REPRESENTATION (  '', ( #83 ), #45 ) ;
#21 = DIRECTION ( 'NONE',  ( 1.000000000000000000, 0.000000000000000000, 0.000000000000000000 ) ) ;
#22 = EDGE_CURVE ( 'NONE', #262, #190, #239, .T. ) ;
#23 = CARTESIAN_POINT ( 'NONE',  ( -0.02949797250000000398, 0.000000000000000000, 7.224919520692329689E-18 ) ) ;
#24 = DIRECTION ( 'NONE',  ( 1.000000000000000000, 0.000000000000000000, -0.000000000000000000 ) ) ;
#25 =( LENGTH_UNIT ( ) NAMED_UNIT ( * ) SI_UNIT ( $, .METRE. ) );
#26 = AXIS2_PLACEMENT_3D ( 'NONE', #158, #182, #280 ) ;
#27 = VERTEX_POINT ( 'NONE', #8 ) ;
#28 = EDGE_LOOP ( 'NONE', ( #80, #71, #4, #174 ) ) ;
#29 = SHAPE_DEFINITION_REPRESENTATION ( #56, #257 ) ;
#30 = CARTESIAN_POINT ( 'NONE',  ( 0.02949797249999999357, 3.612459760346164074E-18, -3.612459760346164074E-18 ) ) ;
#31 = ORIENTED_EDGE ( 'NONE', *, *, #91, .F. ) ;
#32 = ORIENTED_EDGE ( 'NONE', *, *, #240, .T. ) ;
#33 = EDGE_CURVE ( 'NONE', #284, #190, #132, .T. ) ;
#34 = LENGTH_MEASURE_WITH_UNIT ( LENGTH_MEASURE( 0.02539999999999999897 ), #36 );
#35 =( GEOMETRIC_REPRESENTATION_CONTEXT ( 3 ) GLOBAL_UNCERTAINTY_ASSIGNED_CONTEXT ( ( #64 ) ) GLOBAL_UNIT_ASSIGNED_CONTEXT ( ( #117, #7, #170 ) ) REPRESENTATION_CONTEXT ( 'NONE', 'WORKASPACE' ) );
#36 =( LENGTH_UNIT ( ) NAMED_UNIT ( * ) SI_UNIT ( $, .METRE. ) );
#37 = CARTESIAN_POINT ( 'NONE',  ( 0.000000000000000000, 0.000000000000000000, 1.968503999999999809 ) ) ;
#38 = ADVANCED_FACE ( 'NONE', ( #249 ), #11, .T. ) ;
#39 = CARTESIAN_POINT ( 'NONE',  ( 0.000000000000000000, 0.000000000000000000, 0.000000000000000000 ) ) ;
#40 = ORIENTED_EDGE ( 'NONE', *, *, #33, .T. ) ;
#41 = VECTOR ( 'NONE', #292, 39.37007874015748143 ) ;
#42 = CARTESIAN_POINT ( 'NONE',  ( 1.928573779297251702E-17, 0.000000000000000000, 0.1574800000000000089 ) ) ;
#43 = CARTESIAN_POINT ( 'NONE',  ( 0.000000000000000000, 0.000000000000000000, 0.000000000000000000 ) ) ;
#44 = CARTESIAN_POINT ( 'NONE',  ( -0.02949797249999996929, 3.612459760346163304E-18, 0.1574800000000000089 ) ) ;
#45 =( GEOMETRIC_REPRESENTATION_CONTEXT ( 3 ) GLOBAL_UNCERTAINTY_ASSIGNED_CONTEXT ( ( #113 ) ) GLOBAL_UNIT_ASSIGNED_CONTEXT ( ( #180, #154, #296 ) ) REPRESENTATION_CONTEXT ( 'NONE', 'WORKASPACE' ) );
#46 = DIRECTION ( 'NONE',  ( 0.000000000000000000, 0.000000000000000000, -1.000000000000000000 ) ) ;
#47 = ORIENTED_EDGE ( 'NONE', *, *, #155, .T. ) ;
#48 = FACE_OUTER_BOUND ( 'NONE', #99, .T. ) ;
#49 = DIRECTION ( 'NONE',  ( -1.224646799147353207E-16, -0.000000000000000000, -1.000000000000000000 ) ) ;
#50 = AXIS2_PLACEMENT_3D ( 'NONE', #255, #161, #76 ) ;
#51 = ORIENTED_EDGE ( 'NONE', *, *, #216, .F. ) ;
#52 =( NAMED_UNIT ( * ) PLANE_ANGLE_UNIT ( ) SI_UNIT ( $, .RADIAN. ) );
#53 = VERTEX_POINT ( 'NONE', #107 ) ;
#54 = ORIENTED_EDGE ( 'NONE', *, *, #287, .T. ) ;
#55 = CIRCLE ( 'NONE', #87, 0.02949797249999999010 ) ;
#56 = PRODUCT_DEFINITION_SHAPE ( 'NONE', 'NONE',  #176 ) ;
#57 = EDGE_LOOP ( 'NONE', ( #78, #32, #278, #125 ) ) ;
#58 = EDGE_CURVE ( 'NONE', #262, #79, #221, .T. ) ;
#59 = DIRECTION ( 'NONE',  ( 1.000000000000000000, 0.000000000000000000, 0.000000000000000000 ) ) ;
#60 = FILL_AREA_STYLE_COLOUR ( '', #237 ) ;
#61 = CIRCLE ( 'NONE', #274, 0.07874000000000000443 ) ;
#62 = CARTESIAN_POINT ( 'NONE',  ( 0.000000000000000000, 0.000000000000000000, 1.968503999999999809 ) ) ;
#63 = ORIENTED_EDGE ( 'NONE', *, *, #3, .F. ) ;
#64 = UNCERTAINTY_MEASURE_WITH_UNIT (LENGTH_MEASURE( 1.000000000000000082E-05 ), #117, 'distance_accuracy_value', 'NONE');
#65 = PRESENTATION_STYLE_ASSIGNMENT (( #203 ) ) ;
#66 = AXIS2_PLACEMENT_3D ( 'NONE', #37, #268, #271 ) ;
#67 = CARTESIAN_POINT ( 'NONE',  ( -0.06374000000000018540, 0.000000000000000000, 1.968503999999999809 ) ) ;
#68 = ADVANCED_FACE ( 'NONE', ( #243 ), #197, .T. ) ;
#69 = DIRECTION ( 'NONE',  ( -1.224646799147353207E-16, -0.000000000000000000, -1.000000000000000000 ) ) ;
#70 = DIRECTION ( 'NONE',  ( 0.7071067811865502373, 8.659560562354966138E-17, -0.7071067811865446862 ) ) ;
#71 = ORIENTED_EDGE ( 'NONE', *, *, #22, .T. ) ;
#72 = AXIS2_PLACEMENT_3D ( 'NONE', #294, #85, #130 ) ;
#73 =( LENGTH_UNIT ( ) NAMED_UNIT ( * ) SI_UNIT ( $, .METRE. ) );
#74 = EDGE_CURVE ( 'NONE', #168, #53, #179, .T. ) ;
#75 = DIMENSIONAL_EXPONENTS ( 1.000000000000000000, 0.000000000000000000, 0.000000000000000000, 0.000000000000000000, 0.000000000000000000, 0.000000000000000000, 0.000000000000000000 ) ;
#76 = DIRECTION ( 'NONE',  ( -1.000000000000000000, 0.000000000000000000, 1.224646799147352961E-16 ) ) ;
#77 = COLOUR_RGB ( '',0.7921568627450980005, 0.8196078431372548767, 0.9333333333333333481 ) ;
#78 = ORIENTED_EDGE ( 'NONE', *, *, #101, .F. ) ;
#79 = VERTEX_POINT ( 'NONE', #128 ) ;
#80 = ORIENTED_EDGE ( 'NONE', *, *, #152, .T. ) ;
#81 = PRODUCT_DEFINITION_FORMATION_WITH_SPECIFIED_SOURCE ( 'ANY', '', #144, .NOT_KNOWN. ) ;
#82 = ORIENTED_EDGE ( 'NONE', *, *, #91, .T. ) ;
#83 = STYLED_ITEM ( 'NONE', ( #65 ), #151 ) ;
#84 = DIRECTION ( 'NONE',  ( 1.000000000000000000, 0.000000000000000000, 0.000000000000000000 ) ) ;
#85 = DIRECTION ( 'NONE',  ( -0.000000000000000000, -0.000000000000000000, -1.000000000000000000 ) ) ;
#86 = FACE_OUTER_BOUND ( 'NONE', #267, .T. ) ;
#87 = AXIS2_PLACEMENT_3D ( 'NONE', #42, #69, #159 ) ;
#88 = DIRECTION ( 'NONE',  ( -1.000000000000000000, 0.000000000000000000, 0.000000000000000000 ) ) ;
#89 = DIRECTION ( 'NONE',  ( 1.000000000000000000, 0.000000000000000000, 0.000000000000000000 ) ) ;
#90 = LENGTH_MEASURE_WITH_UNIT ( LENGTH_MEASURE( 0.02539999999999999897 ), #73 );
#91 = EDGE_CURVE ( 'NONE', #262, #123, #111, .T. ) ;
#92 = VECTOR ( 'NONE', #18, 39.37007874015748143 ) ;
#93 = DIRECTION ( 'NONE',  ( 1.000000000000000000, 0.000000000000000000, 0.000000000000000000 ) ) ;
#94 = APPLICATION_CONTEXT ( 'automotive_design' ) ;
#95 = LINE ( 'NONE', #224, #212 ) ;
#96 = ORIENTED_EDGE ( 'NONE', *, *, #74, .T. ) ;
#97 = AXIS2_PLACEMENT_3D ( 'NONE', #276, #207, #93 ) ;
#98 = DIRECTION ( 'NONE',  ( -0.7071067811865502373, 0.000000000000000000, -0.7071067811865446862 ) ) ;
#99 = EDGE_LOOP ( 'NONE', ( #148, #17, #47, #6 ) ) ;
#100 = STYLED_ITEM ( 'NONE', ( #166 ), #257 ) ;
#101 = EDGE_CURVE ( 'NONE', #53, #168, #183, .T. ) ;
#102 = VECTOR ( 'NONE', #172, 39.37007874015748143 ) ;
#103 = FACE_OUTER_BOUND ( 'NONE', #28, .T. ) ;
#104 = ORIENTED_EDGE ( 'NONE', *, *, #184, .T. ) ;
#105 = VERTEX_POINT ( 'NONE', #181 ) ;
#106 =( GEOMETRIC_REPRESENTATION_CONTEXT ( 3 ) GLOBAL_UNCERTAINTY_ASSIGNED_CONTEXT ( ( #247 ) ) GLOBAL_UNIT_ASSIGNED_CONTEXT ( ( #282, #52, #238 ) ) REPRESENTATION_CONTEXT ( 'NONE', 'WORKASPACE' ) );
#107 = CARTESIAN_POINT ( 'NONE',  ( 0.06374000000000018540, 8.724383797125754882E-18, 1.968503999999999809 ) ) ;
#108 = CIRCLE ( 'NONE', #153, 0.07874000000000000443 ) ;
#109 = DIRECTION ( 'NONE',  ( -1.000000000000000000, 0.000000000000000000, 1.224646799147353207E-16 ) ) ;
#110 = DIRECTION ( 'NONE',  ( -1.224646799147353207E-16, -0.000000000000000000, -1.000000000000000000 ) ) ;
#111 = LINE ( 'NONE', #9, #41 ) ;
#112 = AXIS2_PLACEMENT_3D ( 'NONE', #202, #218, #59 ) ;
#113 = UNCERTAINTY_MEASURE_WITH_UNIT (LENGTH_MEASURE( 1.000000000000000082E-05 ), #180, 'distance_accuracy_value', 'NONE');
#114 = CARTESIAN_POINT ( 'NONE',  ( 0.000000000000000000, 0.000000000000000000, 1.968503999999999809 ) ) ;
#115 = PLANE ( 'NONE',  #10 ) ;
#116 = ADVANCED_FACE ( 'NONE', ( #220 ), #16, .T. ) ;
#117 =( CONVERSION_BASED_UNIT ( 'INCH', #90 ) LENGTH_UNIT ( ) NAMED_UNIT ( #169 ) );
#118 = CONICAL_SURFACE ( 'NONE', #26, 0.02949797249999999010, 0.1745329251994338915 ) ;
#119 = CARTESIAN_POINT ( 'NONE',  ( 0.02949797250000000745, 3.612459760346164844E-18, -9.478001694819074349E-34 ) ) ;
#120 = EDGE_LOOP ( 'NONE', ( #96, #290 ) ) ;
#121 = PRODUCT_RELATED_PRODUCT_CATEGORY ( 'part', '', ( #144 ) ) ;
#122 = ORIENTED_EDGE ( 'NONE', *, *, #165, .T. ) ;
#123 = VERTEX_POINT ( 'NONE', #244 ) ;
#124 = DIRECTION ( 'NONE',  ( -1.224646799147353207E-16, -0.000000000000000000, -1.000000000000000000 ) ) ;
#125 = ORIENTED_EDGE ( 'NONE', *, *, #155, .F. ) ;
#126 = CARTESIAN_POINT ( 'NONE',  ( 0.000000000000000000, 0.000000000000000000, 1.968503999999999809 ) ) ;
#127 = CIRCLE ( 'NONE', #14, 0.07874000000000000443 ) ;
#128 = CARTESIAN_POINT ( 'NONE',  ( -0.02949797249999996929, 6.627664328416210521E-18, 0.1574800000000000089 ) ) ;
#129 = ADVANCED_FACE ( 'NONE', ( #175 ), #265, .T. ) ;
#130 = DIRECTION ( 'NONE',  ( -1.000000000000000000, 0.000000000000000000, 0.000000000000000000 ) ) ;
#131 = MECHANICAL_DESIGN_GEOMETRIC_PRESENTATION_REPRESENTATION (  '', ( #100 ), #106 ) ;
#132 = CIRCLE ( 'NONE', #248, 0.02949797250000000398 ) ;
#133 = ADVANCED_FACE ( 'NONE', ( #86 ), #219, .T. ) ;
#134 = DIRECTION ( 'NONE',  ( -1.000000000000000000, 0.000000000000000000, 0.000000000000000000 ) ) ;
#135 = DIRECTION ( 'NONE',  ( 0.000000000000000000, 0.000000000000000000, 1.000000000000000000 ) ) ;
#136 = FACE_OUTER_BOUND ( 'NONE', #209, .T. ) ;
#137 = PRESENTATION_LAYER_ASSIGNMENT (  '', '', ( #100 ) ) ;
#138 = AXIS2_PLACEMENT_3D ( 'NONE', #145, #124, #215 ) ;
#139 = DIRECTION ( 'NONE',  ( -1.000000000000000000, 0.000000000000000000, 0.000000000000000000 ) ) ;
#140 = EDGE_LOOP ( 'NONE', ( #40, #241 ) ) ;
#141 = DIRECTION ( 'NONE',  ( 0.000000000000000000, 0.000000000000000000, -1.000000000000000000 ) ) ;
#142 = CONICAL_SURFACE ( 'NONE', #146, 0.06374000000000018540, 0.7853981633974522758 ) ;
#143 = VERTEX_POINT ( 'NONE', #177 ) ;
#144 = PRODUCT ( 'Micro_AEMM-015-3X', 'Micro_AEMM-015-3X', '', ( #189 ) ) ;
#145 = CARTESIAN_POINT ( 'NONE',  ( 0.000000000000000000, 0.000000000000000000, 0.000000000000000000 ) ) ;
#146 = AXIS2_PLACEMENT_3D ( 'NONE', #252, #46, #275 ) ;
#147 = SURFACE_STYLE_USAGE ( .BOTH. , #214 ) ;
#148 = ORIENTED_EDGE ( 'NONE', *, *, #240, .F. ) ;
#149 = ORIENTED_EDGE ( 'NONE', *, *, #152, .F. ) ;
#150 = FILL_AREA_STYLE ('',( #60 ) ) ;
#151 = MANIFOLD_SOLID_BREP ( 'Cut-Revolve1', #178 ) ;
#152 = EDGE_CURVE ( 'NONE', #79, #262, #55, .T. ) ;
#153 = AXIS2_PLACEMENT_3D ( 'NONE', #228, #205, #21 ) ;
#154 =( NAMED_UNIT ( * ) PLANE_ANGLE_UNIT ( ) SI_UNIT ( $, .RADIAN. ) );
#155 = EDGE_CURVE ( 'NONE', #168, #27, #188, .T. ) ;
#156 = CARTESIAN_POINT ( 'NONE',  ( 1.928573779297251702E-17, 0.000000000000000000, 0.1574800000000000089 ) ) ;
#157 = VECTOR ( 'NONE', #98, 39.37007874015748854 ) ;
#158 = CARTESIAN_POINT ( 'NONE',  ( 1.928573779297251702E-17, 0.000000000000000000, 0.1574800000000000089 ) ) ;
#159 = DIRECTION ( 'NONE',  ( -1.000000000000000000, 0.000000000000000000, 0.000000000000000000 ) ) ;
#160 = APPLICATION_CONTEXT ( 'automotive_design' ) ;
#161 = DIRECTION ( 'NONE',  ( -1.224646799147353207E-16, -0.000000000000000000, -1.000000000000000000 ) ) ;
#162 = ORIENTED_EDGE ( 'NONE', *, *, #58, .F. ) ;
#163 = CARTESIAN_POINT ( 'NONE',  ( 5.348588749162019150E-17, 0.000000000000000000, 0.4367454153218638391 ) ) ;
#164 = FACE_OUTER_BOUND ( 'NONE', #57, .T. ) ;
#165 = EDGE_CURVE ( 'NONE', #79, #105, #251, .T. ) ;
#166 = PRESENTATION_STYLE_ASSIGNMENT (( #147 ) ) ;
#167 = FILL_AREA_STYLE_COLOUR ( '', #77 ) ;
#168 = VERTEX_POINT ( 'NONE', #67 ) ;
#169 = DIMENSIONAL_EXPONENTS ( 1.000000000000000000, 0.000000000000000000, 0.000000000000000000, 0.000000000000000000, 0.000000000000000000, 0.000000000000000000, 0.000000000000000000 ) ;
#170 =( NAMED_UNIT ( * ) SI_UNIT ( $, .STERADIAN. ) SOLID_ANGLE_UNIT ( ) );
#171 = EDGE_LOOP ( 'NONE', ( #149, #122, #246, #31 ) ) ;
#172 = DIRECTION ( 'NONE',  ( -1.224646799147353207E-16, -0.000000000000000000, -1.000000000000000000 ) ) ;
#173 = AXIS2_PLACEMENT_3D ( 'NONE', #156, #110, #134 ) ;
#174 = ORIENTED_EDGE ( 'NONE', *, *, #204, .F. ) ;
#175 = FACE_OUTER_BOUND ( 'NONE', #171, .T. ) ;
#176 = PRODUCT_DEFINITION ( 'UNKNOWN', '', #81, #12 ) ;
#177 = CARTESIAN_POINT ( 'NONE',  ( 0.07874000000000000443, 9.642868896486258509E-18, 1.953504000000000129 ) ) ;
#178 = CLOSED_SHELL ( 'NONE', ( #15, #129, #264, #133, #116, #68, #250, #198, #38, #273 ) ) ;
#179 = CIRCLE ( 'NONE', #196, 0.06374000000000018540 ) ;
#180 =( CONVERSION_BASED_UNIT ( 'INCH', #34 ) LENGTH_UNIT ( ) NAMED_UNIT ( #281 ) );
#181 = CARTESIAN_POINT ( 'NONE',  ( -0.07873999999999994892, 0.000000000000000000, 0.4367454153218638391 ) ) ;
#182 = DIRECTION ( 'NONE',  ( 1.224646799147353207E-16, 0.000000000000000000, 1.000000000000000000 ) ) ;
#183 = CIRCLE ( 'NONE', #259, 0.06374000000000018540 ) ;
#184 = EDGE_CURVE ( 'NONE', #27, #143, #291, .T. ) ;
#185 = DIRECTION ( 'NONE',  ( 1.000000000000000000, 0.000000000000000000, 0.000000000000000000 ) ) ;
#186 = ORIENTED_EDGE ( 'NONE', *, *, #283, .F. ) ;
#187 = LINE ( 'NONE', #277, #253 ) ;
#188 = LINE ( 'NONE', #299, #157 ) ;
#189 = PRODUCT_CONTEXT ( 'NONE', #160, 'mechanical' ) ;
#190 = VERTEX_POINT ( 'NONE', #119 ) ;
#191 = AXIS2_PLACEMENT_3D ( 'NONE', #39, #269, #109 ) ;
#192 = LINE ( 'NONE', #5, #211 ) ;
#193 = ORIENTED_EDGE ( 'NONE', *, *, #22, .F. ) ;
#194 = EDGE_LOOP ( 'NONE', ( #193, #261, #263, #51 ) ) ;
#195 = AXIS2_PLACEMENT_3D ( 'NONE', #258, #208, #266 ) ;
#196 = AXIS2_PLACEMENT_3D ( 'NONE', #114, #199, #89 ) ;
#197 = PLANE ( 'NONE',  #66 ) ;
#198 = ADVANCED_FACE ( 'NONE', ( #136 ), #118, .T. ) ;
#199 = DIRECTION ( 'NONE',  ( 0.000000000000000000, 0.000000000000000000, 1.000000000000000000 ) ) ;
#200 = DIRECTION ( 'NONE',  ( -1.000000000000000000, 0.000000000000000000, 1.224646799147352961E-16 ) ) ;
#201 = CONICAL_SURFACE ( 'NONE', #279, 0.06374000000000018540, 0.7853981633974522758 ) ;
#202 = CARTESIAN_POINT ( 'NONE',  ( 1.928573779297251702E-17, 0.000000000000000000, 0.1574800000000000089 ) ) ;
#203 = SURFACE_STYLE_USAGE ( .BOTH. , #242 ) ;
#204 = EDGE_CURVE ( 'NONE', #79, #284, #95, .T. ) ;
#205 = DIRECTION ( 'NONE',  ( -1.224646799147353207E-16, -0.000000000000000000, -1.000000000000000000 ) ) ;
#206 = DIRECTION ( 'NONE',  ( 0.000000000000000000, 0.000000000000000000, -1.000000000000000000 ) ) ;
#207 = DIRECTION ( 'NONE',  ( 0.000000000000000000, 0.000000000000000000, -1.000000000000000000 ) ) ;
#208 = DIRECTION ( 'NONE',  ( 0.000000000000000000, 0.000000000000000000, 1.000000000000000000 ) ) ;
#209 = EDGE_LOOP ( 'NONE', ( #213, #162, #82, #210 ) ) ;
#210 = ORIENTED_EDGE ( 'NONE', *, *, #234, .T. ) ;
#211 = VECTOR ( 'NONE', #236, 39.37007874015748143 ) ;
#212 = VECTOR ( 'NONE', #2, 39.37007874015748143 ) ;
#213 = ORIENTED_EDGE ( 'NONE', *, *, #165, .F. ) ;
#214 = SURFACE_SIDE_STYLE ('',( #289 ) ) ;
#215 = DIRECTION ( 'NONE',  ( -1.000000000000000000, 0.000000000000000000, 1.224646799147353207E-16 ) ) ;
#216 = EDGE_CURVE ( 'NONE', #190, #284, #229, .T. ) ;
#217 = ORIENTED_EDGE ( 'NONE', *, *, #3, .T. ) ;
#218 = DIRECTION ( 'NONE',  ( 1.224646799147353207E-16, 0.000000000000000000, 1.000000000000000000 ) ) ;
#219 = CYLINDRICAL_SURFACE ( 'NONE', #285, 0.07874000000000000443 ) ;
#220 = FACE_OUTER_BOUND ( 'NONE', #233, .T. ) ;
#221 = CIRCLE ( 'NONE', #173, 0.02949797249999999010 ) ;
#222 = FACE_OUTER_BOUND ( 'NONE', #140, .T. ) ;
#223 = LINE ( 'NONE', #226, #92 ) ;
#224 = CARTESIAN_POINT ( 'NONE',  ( -0.02949797249999999357, 0.000000000000000000, 3.612459760346164074E-18 ) ) ;
#225 = VECTOR ( 'NONE', #298, 39.37007874015747433 ) ;
#226 = CARTESIAN_POINT ( 'NONE',  ( 0.07874000000000000443, 9.642868896486258509E-18, 1.968503999999999809 ) ) ;
#227 = EDGE_CURVE ( 'NONE', #105, #123, #108, .T. ) ;
#228 = CARTESIAN_POINT ( 'NONE',  ( 5.348588749162019150E-17, 0.000000000000000000, 0.4367454153218638391 ) ) ;
#229 = CIRCLE ( 'NONE', #50, 0.02949797250000000398 ) ;
#230 = FILL_AREA_STYLE ('',( #167 ) ) ;
#231 = ORIENTED_EDGE ( 'NONE', *, *, #234, .F. ) ;
#232 = APPLICATION_PROTOCOL_DEFINITION ( 'draft international standard', 'automotive_design', 1998, #160 ) ;
#233 = EDGE_LOOP ( 'NONE', ( #186, #54, #217, #231 ) ) ;
#234 = EDGE_CURVE ( 'NONE', #123, #105, #61, .T. ) ;
#235 = APPLICATION_PROTOCOL_DEFINITION ( 'draft international standard', 'automotive_design', 1998, #94 ) ;
#236 = DIRECTION ( 'NONE',  ( -0.000000000000000000, -0.000000000000000000, -1.000000000000000000 ) ) ;
#237 = COLOUR_RGB ( '',0.7921568627450980005, 0.8196078431372548767, 0.9333333333333333481 ) ;
#238 =( NAMED_UNIT ( * ) SI_UNIT ( $, .STERADIAN. ) SOLID_ANGLE_UNIT ( ) );
#239 = LINE ( 'NONE', #30, #102 ) ;
#240 = EDGE_CURVE ( 'NONE', #53, #143, #187, .T. ) ;
#241 = ORIENTED_EDGE ( 'NONE', *, *, #216, .T. ) ;
#242 = SURFACE_SIDE_STYLE ('',( #295 ) ) ;
#243 = FACE_OUTER_BOUND ( 'NONE', #120, .T. ) ;
#244 = CARTESIAN_POINT ( 'NONE',  ( 0.07874000000000004607, 9.642868896486264672E-18, 0.4367454153218638391 ) ) ;
#245 = DIRECTION ( 'NONE',  ( 0.000000000000000000, 0.000000000000000000, 1.000000000000000000 ) ) ;
#246 = ORIENTED_EDGE ( 'NONE', *, *, #227, .T. ) ;
#247 = UNCERTAINTY_MEASURE_WITH_UNIT (LENGTH_MEASURE( 1.000000000000000082E-05 ), #282, 'distance_accuracy_value', 'NONE');
#248 = AXIS2_PLACEMENT_3D ( 'NONE', #13, #272, #200 ) ;
#249 = FACE_OUTER_BOUND ( 'NONE', #194, .T. ) ;
#250 = ADVANCED_FACE ( 'NONE', ( #48 ), #142, .T. ) ;
#251 = LINE ( 'NONE', #44, #225 ) ;
#252 = CARTESIAN_POINT ( 'NONE',  ( 0.000000000000000000, 0.000000000000000000, 1.968503999999999809 ) ) ;
#253 = VECTOR ( 'NONE', #70, 39.37007874015748854 ) ;
#254 = ORIENTED_EDGE ( 'NONE', *, *, #283, .T. ) ;
#255 = CARTESIAN_POINT ( 'NONE',  ( 4.423987282556545948E-34, 0.000000000000000000, 3.612459760346164844E-18 ) ) ;
#256 = CARTESIAN_POINT ( 'NONE',  ( 0.000000000000000000, 0.000000000000000000, 1.968503999999999809 ) ) ;
#257 = ADVANCED_BREP_SHAPE_REPRESENTATION ( 'Micro_AEMM-015-3X', ( #151, #195 ), #35 ) ;
#258 = CARTESIAN_POINT ( 'NONE',  ( 0.000000000000000000, 0.000000000000000000, 0.000000000000000000 ) ) ;
#259 = AXIS2_PLACEMENT_3D ( 'NONE', #62, #245, #84 ) ;
#260 = LENGTH_MEASURE_WITH_UNIT ( LENGTH_MEASURE( 0.02539999999999999897 ), #25 );
#261 = ORIENTED_EDGE ( 'NONE', *, *, #58, .T. ) ;
#262 = VERTEX_POINT ( 'NONE', #297 ) ;
#263 = ORIENTED_EDGE ( 'NONE', *, *, #204, .T. ) ;
#264 = ADVANCED_FACE ( 'NONE', ( #164 ), #201, .T. ) ;
#265 = CONICAL_SURFACE ( 'NONE', #112, 0.02949797249999999010, 0.1745329251994338915 ) ;
#266 = DIRECTION ( 'NONE',  ( 1.000000000000000000, 0.000000000000000000, 0.000000000000000000 ) ) ;
#267 = EDGE_LOOP ( 'NONE', ( #104, #254, #288, #63 ) ) ;
#268 = DIRECTION ( 'NONE',  ( 0.000000000000000000, 0.000000000000000000, 1.000000000000000000 ) ) ;
#269 = DIRECTION ( 'NONE',  ( -1.224646799147353207E-16, -0.000000000000000000, -1.000000000000000000 ) ) ;
#270 = PRESENTATION_LAYER_ASSIGNMENT (  '', '', ( #83 ) ) ;
#271 = DIRECTION ( 'NONE',  ( 1.000000000000000000, 0.000000000000000000, -0.000000000000000000 ) ) ;
#272 = DIRECTION ( 'NONE',  ( -1.224646799147353207E-16, -0.000000000000000000, -1.000000000000000000 ) ) ;
#273 = ADVANCED_FACE ( 'NONE', ( #222 ), #115, .F. ) ;
#274 = AXIS2_PLACEMENT_3D ( 'NONE', #163, #49, #185 ) ;
#275 = DIRECTION ( 'NONE',  ( -1.000000000000000000, 0.000000000000000000, 0.000000000000000000 ) ) ;
#276 = CARTESIAN_POINT ( 'NONE',  ( 0.000000000000000000, 0.000000000000000000, 1.953504000000000129 ) ) ;
#277 = CARTESIAN_POINT ( 'NONE',  ( 0.06374000000000018540, 7.805898697765251255E-18, 1.968503999999999809 ) ) ;
#278 = ORIENTED_EDGE ( 'NONE', *, *, #184, .F. ) ;
#279 = AXIS2_PLACEMENT_3D ( 'NONE', #256, #141, #139 ) ;
#280 = DIRECTION ( 'NONE',  ( 1.000000000000000000, 0.000000000000000000, 0.000000000000000000 ) ) ;
#281 = DIMENSIONAL_EXPONENTS ( 1.000000000000000000, 0.000000000000000000, 0.000000000000000000, 0.000000000000000000, 0.000000000000000000, 0.000000000000000000, 0.000000000000000000 ) ;
#282 =( CONVERSION_BASED_UNIT ( 'INCH', #260 ) LENGTH_UNIT ( ) NAMED_UNIT ( #75 ) );
#283 = EDGE_CURVE ( 'NONE', #143, #123, #223, .T. ) ;
#284 = VERTEX_POINT ( 'NONE', #23 ) ;
#285 = AXIS2_PLACEMENT_3D ( 'NONE', #126, #293, #88 ) ;
#286 = CYLINDRICAL_SURFACE ( 'NONE', #138, 0.02949797249999999357 ) ;
#287 = EDGE_CURVE ( 'NONE', #143, #27, #127, .T. ) ;
#288 = ORIENTED_EDGE ( 'NONE', *, *, #227, .F. ) ;
#289 = SURFACE_STYLE_FILL_AREA ( #230 ) ;
#290 = ORIENTED_EDGE ( 'NONE', *, *, #101, .T. ) ;
#291 = CIRCLE ( 'NONE', #97, 0.07874000000000000443 ) ;
#292 = DIRECTION ( 'NONE',  ( 0.1736481776669313859, 0.000000000000000000, 0.9848077530122077983 ) ) ;
#293 = DIRECTION ( 'NONE',  ( -0.000000000000000000, -0.000000000000000000, -1.000000000000000000 ) ) ;
#294 = CARTESIAN_POINT ( 'NONE',  ( 0.000000000000000000, 0.000000000000000000, 1.968503999999999809 ) ) ;
#295 = SURFACE_STYLE_FILL_AREA ( #150 ) ;
#296 =( NAMED_UNIT ( * ) SI_UNIT ( $, .STERADIAN. ) SOLID_ANGLE_UNIT ( ) );
#297 = CARTESIAN_POINT ( 'NONE',  ( 0.02949797250000001092, 0.000000000000000000, 0.1574800000000000089 ) ) ;
#298 = DIRECTION ( 'NONE',  ( -0.1736481776669311916, 2.126576849575783316E-17, 0.9848077530122080203 ) ) ;
#299 = CARTESIAN_POINT ( 'NONE',  ( -0.06374000000000018540, 0.000000000000000000, 1.968503999999999809 ) ) ;
ENDSEC;
END-ISO-10303-21;
