ISO-10303-21;
HEADER;
FILE_DESCRIPTION (( 'STEP AP214' ),
    '1' );
FILE_NAME ('59644.STEP',
    '2023-07-24T15:51:28',
    ( '' ),
    ( '' ),
    'SwSTEP 2.0',
    'SolidWorks 2023',
    '' );
FILE_SCHEMA (( 'AUTOMOTIVE_DESIGN' ));
ENDSEC;

DATA;
#1 = DIRECTION ( 'NONE',  ( -2.637700798163528719E-17, 1.000000000000000000, -0.000000000000000000 ) ) ;
#2 = ORIENTED_EDGE ( 'NONE', *, *, #128, .T. ) ;
#3 = AXIS2_PLACEMENT_3D ( 'NONE', #255, #253, #79 ) ;
#4 = AXIS2_PLACEMENT_3D ( 'NONE', #107, #121, #213 ) ;
#5 =( NAMED_UNIT ( * ) PLANE_ANGLE_UNIT ( ) SI_UNIT ( $, .RADIAN. ) );
#6 = SURFACE_SIDE_STYLE ('',( #89 ) ) ;
#7 =( GEOMETRIC_REPRESENTATION_CONTEXT ( 3 ) GLOBAL_UNCERTAINTY_ASSIGNED_CONTEXT ( ( #235 ) ) GLOBAL_UNIT_ASSIGNED_CONTEXT ( ( #190, #252, #93 ) ) REPRESENTATION_CONTEXT ( 'NONE', 'WORKASPACE' ) );
#8 = DIRECTION ( 'NONE',  ( 0.000000000000000000, 0.000000000000000000, -1.000000000000000000 ) ) ;
#9 = DIRECTION ( 'NONE',  ( 0.000000000000000000, -0.000000000000000000, 1.000000000000000000 ) ) ;
#10 = DIRECTION ( 'NONE',  ( -1.000000000000000000, 0.000000000000000000, 0.000000000000000000 ) ) ;
#11 = MANIFOLD_SOLID_BREP ( 'Revolve - Tool Body (Straight Shanked)', #233 ) ;
#12 =( GEOMETRIC_REPRESENTATION_CONTEXT ( 3 ) GLOBAL_UNCERTAINTY_ASSIGNED_CONTEXT ( ( #240 ) ) GLOBAL_UNIT_ASSIGNED_CONTEXT ( ( #264, #5, #119 ) ) REPRESENTATION_CONTEXT ( 'NONE', 'WORKASPACE' ) );
#13 = PLANE ( 'NONE',  #185 ) ;
#14 = PRESENTATION_LAYER_ASSIGNMENT (  '', '', ( #43 ) ) ;
#15 = MECHANICAL_DESIGN_GEOMETRIC_PRESENTATION_REPRESENTATION (  '', ( #87 ), #217 ) ;
#16 = EDGE_CURVE ( 'NONE', #42, #201, #83, .T. ) ;
#17 = PRODUCT_DEFINITION ( 'UNKNOWN', '', #221, #286 ) ;
#18 = FACE_OUTER_BOUND ( 'NONE', #182, .T. ) ;
#19 = ADVANCED_FACE ( 'NONE', ( #33 ), #13, .T. ) ;
#20 = FACE_OUTER_BOUND ( 'NONE', #230, .T. ) ;
#21 = PRESENTATION_LAYER_ASSIGNMENT (  '', '', ( #199 ) ) ;
#22 = ORIENTED_EDGE ( 'NONE', *, *, #176, .T. ) ;
#23 = FILL_AREA_STYLE_COLOUR ( '', #103 ) ;
#24 = ADVANCED_FACE ( 'NONE', ( #34 ), #100, .T. ) ;
#25 = DIRECTION ( 'NONE',  ( 0.000000000000000000, 0.000000000000000000, -1.000000000000000000 ) ) ;
#26 = ORIENTED_EDGE ( 'NONE', *, *, #39, .F. ) ;
#27 =( GEOMETRIC_REPRESENTATION_CONTEXT ( 3 ) GLOBAL_UNCERTAINTY_ASSIGNED_CONTEXT ( ( #132 ) ) GLOBAL_UNIT_ASSIGNED_CONTEXT ( ( #271, #140, #183 ) ) REPRESENTATION_CONTEXT ( 'NONE', 'WORKASPACE' ) );
#28 = AXIS2_PLACEMENT_3D ( 'NONE', #45, #68, #64 ) ;
#29 =( NAMED_UNIT ( * ) PLANE_ANGLE_UNIT ( ) SI_UNIT ( $, .RADIAN. ) );
#30 = VERTEX_POINT ( 'NONE', #276 ) ;
#31 = PRESENTATION_STYLE_ASSIGNMENT (( #212 ) ) ;
#32 = SURFACE_STYLE_FILL_AREA ( #274 ) ;
#33 = FACE_OUTER_BOUND ( 'NONE', #151, .T. ) ;
#34 = FACE_OUTER_BOUND ( 'NONE', #115, .T. ) ;
#35 = DIRECTION ( 'NONE',  ( 0.000000000000000000, 0.000000000000000000, -1.000000000000000000 ) ) ;
#36 = DIRECTION ( 'NONE',  ( 1.000000000000000000, 2.637700798163528719E-17, 0.000000000000000000 ) ) ;
#37 = DIRECTION ( 'NONE',  ( -1.000000000000000000, 0.000000000000000000, 0.000000000000000000 ) ) ;
#38 = CIRCLE ( 'NONE', #214, 8.000000000000001776 ) ;
#39 = EDGE_CURVE ( 'NONE', #71, #134, #226, .T. ) ;
#40 = DIRECTION ( 'NONE',  ( 0.000000000000000000, 0.000000000000000000, -1.000000000000000000 ) ) ;
#41 = DIRECTION ( 'NONE',  ( -2.637700798163528719E-17, 1.000000000000000000, -0.000000000000000000 ) ) ;
#42 = VERTEX_POINT ( 'NONE', #74 ) ;
#43 = STYLED_ITEM ( 'NONE', ( #222 ), #112 ) ;
#44 = ORIENTED_EDGE ( 'NONE', *, *, #279, .F. ) ;
#45 = CARTESIAN_POINT ( 'NONE',  ( 0.000000000000000000, 0.000000000000000000, 0.000000000000000000 ) ) ;
#46 =( NAMED_UNIT ( * ) SI_UNIT ( $, .STERADIAN. ) SOLID_ANGLE_UNIT ( ) );
#47 = DIRECTION ( 'NONE',  ( 0.000000000000000000, 0.000000000000000000, -1.000000000000000000 ) ) ;
#48 = PRESENTATION_STYLE_ASSIGNMENT (( #204 ) ) ;
#49 = DIRECTION ( 'NONE',  ( -2.637700798163528719E-17, 1.000000000000000000, -0.000000000000000000 ) ) ;
#50 = ORIENTED_EDGE ( 'NONE', *, *, #39, .T. ) ;
#51 = ADVANCED_FACE ( 'NONE', ( #78 ), #165, .F. ) ;
#52 = LINE ( 'NONE', #141, #273 ) ;
#53 = AXIS2_PLACEMENT_3D ( 'NONE', #220, #104, #35 ) ;
#54 =( NAMED_UNIT ( * ) PLANE_ANGLE_UNIT ( ) SI_UNIT ( $, .RADIAN. ) );
#55 = CARTESIAN_POINT ( 'NONE',  ( 2.782986200253006795E-33, 24.00000000000000000, 0.000000000000000000 ) ) ;
#56 = DIRECTION ( 'NONE',  ( -2.637700798163528719E-17, 1.000000000000000000, 0.000000000000000000 ) ) ;
#57 = DIRECTION ( 'NONE',  ( -2.637700798163528719E-17, 1.000000000000000000, -0.000000000000000000 ) ) ;
#58 = UNCERTAINTY_MEASURE_WITH_UNIT (LENGTH_MEASURE( 1.000000000000000082E-05 ), #92, 'distance_accuracy_value', 'NONE');
#59 = PRESENTATION_LAYER_ASSIGNMENT (  '', '', ( #254 ) ) ;
#60 =( NAMED_UNIT ( * ) SI_UNIT ( $, .STERADIAN. ) SOLID_ANGLE_UNIT ( ) );
#61 = SURFACE_SIDE_STYLE ('',( #260 ) ) ;
#62 = LINE ( 'NONE', #268, #197 ) ;
#63 = VERTEX_POINT ( 'NONE', #143 ) ;
#64 = DIRECTION ( 'NONE',  ( 0.000000000000000000, 0.000000000000000000, -1.000000000000000000 ) ) ;
#65 = ORIENTED_EDGE ( 'NONE', *, *, #102, .F. ) ;
#66 = DIRECTION ( 'NONE',  ( -1.000000000000000000, 0.000000000000000000, 0.000000000000000000 ) ) ;
#67 = CARTESIAN_POINT ( 'NONE',  ( 0.000000000000000000, 23.99999999999999289, 0.000000000000000000 ) ) ;
#68 = DIRECTION ( 'NONE',  ( -0.000000000000000000, -1.000000000000000000, -0.000000000000000000 ) ) ;
#69 = APPLICATION_PROTOCOL_DEFINITION ( 'draft international standard', 'automotive_design', 1998, #167 ) ;
#70 = UNCERTAINTY_MEASURE_WITH_UNIT (LENGTH_MEASURE( 1.000000000000000082E-05 ), #243, 'distance_accuracy_value', 'NONE');
#71 = VERTEX_POINT ( 'NONE', #251 ) ;
#72 = EDGE_CURVE ( 'NONE', #63, #30, #52, .T. ) ;
#73 = CARTESIAN_POINT ( 'NONE',  ( 0.000000000000000000, 0.000000000000000000, 0.000000000000000000 ) ) ;
#74 = CARTESIAN_POINT ( 'NONE',  ( -8.000000000000000000, 23.99999999999999289, 0.000000000000000000 ) ) ;
#75 = MECHANICAL_DESIGN_GEOMETRIC_PRESENTATION_REPRESENTATION (  '', ( #199 ), #7 ) ;
#76 = MECHANICAL_DESIGN_GEOMETRIC_PRESENTATION_REPRESENTATION (  '', ( #133 ), #188 ) ;
#77 = APPLICATION_PROTOCOL_DEFINITION ( 'draft international standard', 'automotive_design', 1998, #85 ) ;
#78 = FACE_OUTER_BOUND ( 'NONE', #181, .T. ) ;
#79 = DIRECTION ( 'NONE',  ( -1.000000000000000000, 0.000000000000000000, 0.000000000000000000 ) ) ;
#80 = CYLINDRICAL_SURFACE ( 'NONE', #95, 8.000000000000000000 ) ;
#81 = DIRECTION ( 'NONE',  ( -1.000000000000000000, 0.000000000000000000, 0.000000000000000000 ) ) ;
#82 = FILL_AREA_STYLE ('',( #281 ) ) ;
#83 = CIRCLE ( 'NONE', #179, 8.000000000000000000 ) ;
#84 = ORIENTED_EDGE ( 'NONE', *, *, #232, .T. ) ;
#85 = APPLICATION_CONTEXT ( 'automotive_design' ) ;
#86 = ORIENTED_EDGE ( 'NONE', *, *, #257, .F. ) ;
#87 = STYLED_ITEM ( 'NONE', ( #48 ), #11 ) ;
#88 = DIRECTION ( 'NONE',  ( -0.000000000000000000, -1.000000000000000000, -0.000000000000000000 ) ) ;
#89 = SURFACE_STYLE_FILL_AREA ( #153 ) ;
#90 = AXIS2_PLACEMENT_3D ( 'NONE', #241, #106, #36 ) ;
#91 = PLANE ( 'NONE',  #216 ) ;
#92 =( LENGTH_UNIT ( ) NAMED_UNIT ( * ) SI_UNIT ( .MILLI., .METRE. ) );
#93 =( NAMED_UNIT ( * ) SI_UNIT ( $, .STERADIAN. ) SOLID_ANGLE_UNIT ( ) );
#94 = SURFACE_STYLE_FILL_AREA ( #99 ) ;
#95 = AXIS2_PLACEMENT_3D ( 'NONE', #282, #149, #37 ) ;
#96 = ADVANCED_FACE ( 'NONE', ( #236 ), #80, .T. ) ;
#97 = FILL_AREA_STYLE_COLOUR ( '', #130 ) ;
#98 = CARTESIAN_POINT ( 'NONE',  ( -8.000000000000001776, 89.00000000000000000, 0.000000000000000000 ) ) ;
#99 = FILL_AREA_STYLE ('',( #234 ) ) ;
#100 = CYLINDRICAL_SURFACE ( 'NONE', #164, 8.000000000000000000 ) ;
#101 = SURFACE_SIDE_STYLE ('',( #219 ) ) ;
#102 = EDGE_CURVE ( 'NONE', #134, #71, #38, .T. ) ;
#103 = COLOUR_RGB ( '',0.7921568627450980005, 0.8196078431372548767, 0.9333333333333333481 ) ;
#104 = DIRECTION ( 'NONE',  ( -0.000000000000000000, -1.000000000000000000, -0.000000000000000000 ) ) ;
#105 = CARTESIAN_POINT ( 'NONE',  ( 9.797174393178825657E-16, 24.00000000000000000, 8.000000000000000000 ) ) ;
#106 = DIRECTION ( 'NONE',  ( 2.637700798163528719E-17, -1.000000000000000000, 0.000000000000000000 ) ) ;
#107 = CARTESIAN_POINT ( 'NONE',  ( 0.000000000000000000, 0.000000000000000000, 0.000000000000000000 ) ) ;
#108 = CIRCLE ( 'NONE', #284, 8.000000000000000000 ) ;
#109 =( NAMED_UNIT ( * ) SI_UNIT ( $, .STERADIAN. ) SOLID_ANGLE_UNIT ( ) );
#110 = MECHANICAL_DESIGN_GEOMETRIC_PRESENTATION_REPRESENTATION (  '', ( #254 ), #159 ) ;
#111 = DIRECTION ( 'NONE',  ( -0.000000000000000000, -1.000000000000000000, -0.000000000000000000 ) ) ;
#112 = MANIFOLD_SOLID_BREP ( 'Revolve - Cutting Edge', #174 ) ;
#113 = ORIENTED_EDGE ( 'NONE', *, *, #257, .T. ) ;
#114 = FILL_AREA_STYLE_COLOUR ( '', #215 ) ;
#115 = EDGE_LOOP ( 'NONE', ( #288, #113, #269, #158 ) ) ;
#116 = AXIS2_PLACEMENT_3D ( 'NONE', #73, #186, #8 ) ;
#117 = CYLINDRICAL_SURFACE ( 'NONE', #242, 8.000000000000000000 ) ;
#118 = VERTEX_POINT ( 'NONE', #105 ) ;
#119 =( NAMED_UNIT ( * ) SI_UNIT ( $, .STERADIAN. ) SOLID_ANGLE_UNIT ( ) );
#120 = ORIENTED_EDGE ( 'NONE', *, *, #16, .T. ) ;
#121 = DIRECTION ( 'NONE',  ( 0.000000000000000000, 0.000000000000000000, 1.000000000000000000 ) ) ;
#122 = CIRCLE ( 'NONE', #116, 8.000000000000000000 ) ;
#123 =( LENGTH_UNIT ( ) NAMED_UNIT ( * ) SI_UNIT ( .MILLI., .METRE. ) );
#124 = ADVANCED_FACE ( 'NONE', ( #18 ), #147, .F. ) ;
#125 = MECHANICAL_DESIGN_GEOMETRIC_PRESENTATION_REPRESENTATION (  '', ( #249 ), #12 ) ;
#126 = CARTESIAN_POINT ( 'NONE',  ( 0.000000000000000000, 24.00000000000000000, 0.000000000000000000 ) ) ;
#127 = CIRCLE ( 'NONE', #238, 8.000000000000000000 ) ;
#128 = EDGE_CURVE ( 'NONE', #63, #118, #139, .T. ) ;
#129 = SURFACE_STYLE_USAGE ( .BOTH. , #61 ) ;
#130 = COLOUR_RGB ( '',1.000000000000000000, 0.000000000000000000, 0.000000000000000000 ) ;
#131 = FILL_AREA_STYLE_COLOUR ( '', #191 ) ;
#132 = UNCERTAINTY_MEASURE_WITH_UNIT (LENGTH_MEASURE( 1.000000000000000082E-05 ), #271, 'distance_accuracy_value', 'NONE');
#133 = STYLED_ITEM ( 'NONE', ( #229 ), #168 ) ;
#134 = VERTEX_POINT ( 'NONE', #258 ) ;
#135 = ORIENTED_EDGE ( 'NONE', *, *, #16, .F. ) ;
#136 = EDGE_LOOP ( 'NONE', ( #206, #262, #208, #65 ) ) ;
#137 = DIRECTION ( 'NONE',  ( -1.000000000000000000, 0.000000000000000000, 0.000000000000000000 ) ) ;
#138 = VERTEX_POINT ( 'NONE', #170 ) ;
#139 = CIRCLE ( 'NONE', #53, 8.000000000000000000 ) ;
#140 =( NAMED_UNIT ( * ) PLANE_ANGLE_UNIT ( ) SI_UNIT ( $, .RADIAN. ) );
#141 = CARTESIAN_POINT ( 'NONE',  ( 0.000000000000000000, 0.000000000000000000, -8.000000000000000000 ) ) ;
#142 =( NAMED_UNIT ( * ) SI_UNIT ( $, .STERADIAN. ) SOLID_ANGLE_UNIT ( ) );
#143 = CARTESIAN_POINT ( 'NONE',  ( 0.000000000000000000, 24.00000000000000000, -8.000000000000000000 ) ) ;
#144 = DIRECTION ( 'NONE',  ( -2.637700798163528719E-17, 1.000000000000000000, -0.000000000000000000 ) ) ;
#145 = SURFACE_STYLE_USAGE ( .BOTH. , #101 ) ;
#146 = COLOUR_RGB ( '',1.000000000000000000, 0.000000000000000000, 0.000000000000000000 ) ;
#147 = PLANE ( 'NONE',  #90 ) ;
#148 = CARTESIAN_POINT ( 'NONE',  ( -1.714505518806293849E-15, 89.00000000000000000, 0.000000000000000000 ) ) ;
#149 = DIRECTION ( 'NONE',  ( -2.637700798163528719E-17, 1.000000000000000000, -0.000000000000000000 ) ) ;
#150 = DIRECTION ( 'NONE',  ( -0.000000000000000000, -1.000000000000000000, -0.000000000000000000 ) ) ;
#151 = EDGE_LOOP ( 'NONE', ( #172, #86 ) ) ;
#152 = CARTESIAN_POINT ( 'NONE',  ( 8.000000000000000000, 23.99999999999999289, 9.797174393178825657E-16 ) ) ;
#153 = FILL_AREA_STYLE ('',( #23 ) ) ;
#154 = MECHANICAL_DESIGN_GEOMETRIC_PRESENTATION_REPRESENTATION (  '', ( #43 ), #161 ) ;
#155 = AXIS2_PLACEMENT_3D ( 'NONE', #224, #111, #40 ) ;
#156 = PRODUCT_RELATED_PRODUCT_CATEGORY ( 'part', '', ( #205 ) ) ;
#157 = CARTESIAN_POINT ( 'NONE',  ( 0.000000000000000000, 24.00000000000000000, 0.000000000000000000 ) ) ;
#158 = ORIENTED_EDGE ( 'NONE', *, *, #202, .F. ) ;
#159 =( GEOMETRIC_REPRESENTATION_CONTEXT ( 3 ) GLOBAL_UNCERTAINTY_ASSIGNED_CONTEXT ( ( #231 ) ) GLOBAL_UNIT_ASSIGNED_CONTEXT ( ( #123, #54, #142 ) ) REPRESENTATION_CONTEXT ( 'NONE', 'WORKASPACE' ) );
#160 = DIRECTION ( 'NONE',  ( -1.000000000000000000, -2.637700798163528719E-17, 0.000000000000000000 ) ) ;
#161 =( GEOMETRIC_REPRESENTATION_CONTEXT ( 3 ) GLOBAL_UNCERTAINTY_ASSIGNED_CONTEXT ( ( #70 ) ) GLOBAL_UNIT_ASSIGNED_CONTEXT ( ( #243, #239, #60 ) ) REPRESENTATION_CONTEXT ( 'NONE', 'WORKASPACE' ) );
#162 = DIRECTION ( 'NONE',  ( -0.000000000000000000, -1.000000000000000000, -0.000000000000000000 ) ) ;
#163 = SURFACE_STYLE_USAGE ( .BOTH. , #272 ) ;
#164 = AXIS2_PLACEMENT_3D ( 'NONE', #189, #184, #256 ) ;
#165 = PLANE ( 'NONE',  #207 ) ;
#166 = PRESENTATION_STYLE_ASSIGNMENT (( #163 ) ) ;
#167 = APPLICATION_CONTEXT ( 'automotive_design' ) ;
#168 = ADVANCED_FACE ( 'NONE', ( #195 ), #193, .T. ) ;
#169 = PRESENTATION_LAYER_ASSIGNMENT (  '', '', ( #133 ) ) ;
#170 = CARTESIAN_POINT ( 'NONE',  ( 9.797174393178825657E-16, 0.000000000000000000, 8.000000000000000000 ) ) ;
#171 = DIRECTION ( 'NONE',  ( 0.000000000000000000, -1.000000000000000000, -0.000000000000000000 ) ) ;
#172 = ORIENTED_EDGE ( 'NONE', *, *, #128, .F. ) ;
#173 = PRESENTATION_STYLE_ASSIGNMENT (( #285 ) ) ;
#174 = CLOSED_SHELL ( 'NONE', ( #168, #19, #24, #196 ) ) ;
#175 = ORIENTED_EDGE ( 'NONE', *, *, #102, .T. ) ;
#176 = EDGE_CURVE ( 'NONE', #201, #134, #200, .T. ) ;
#177 = CARTESIAN_POINT ( 'NONE',  ( 0.000000000000000000, 23.99999999999999289, 0.000000000000000000 ) ) ;
#178 =( NAMED_UNIT ( * ) PLANE_ANGLE_UNIT ( ) SI_UNIT ( $, .RADIAN. ) );
#179 = AXIS2_PLACEMENT_3D ( 'NONE', #67, #144, #10 ) ;
#180 = LINE ( 'NONE', #98, #283 ) ;
#181 = EDGE_LOOP ( 'NONE', ( #135, #266 ) ) ;
#182 = EDGE_LOOP ( 'NONE', ( #50, #175 ) ) ;
#183 =( NAMED_UNIT ( * ) SI_UNIT ( $, .STERADIAN. ) SOLID_ANGLE_UNIT ( ) );
#184 = DIRECTION ( 'NONE',  ( -0.000000000000000000, -1.000000000000000000, -0.000000000000000000 ) ) ;
#185 = AXIS2_PLACEMENT_3D ( 'NONE', #126, #192, #9 ) ;
#186 = DIRECTION ( 'NONE',  ( -0.000000000000000000, -1.000000000000000000, -0.000000000000000000 ) ) ;
#187 = SHAPE_DEFINITION_REPRESENTATION ( #267, #277 ) ;
#188 =( GEOMETRIC_REPRESENTATION_CONTEXT ( 3 ) GLOBAL_UNCERTAINTY_ASSIGNED_CONTEXT ( ( #250 ) ) GLOBAL_UNIT_ASSIGNED_CONTEXT ( ( #223, #29, #109 ) ) REPRESENTATION_CONTEXT ( 'NONE', 'WORKASPACE' ) );
#189 = CARTESIAN_POINT ( 'NONE',  ( 0.000000000000000000, 0.000000000000000000, 0.000000000000000000 ) ) ;
#190 =( LENGTH_UNIT ( ) NAMED_UNIT ( * ) SI_UNIT ( .MILLI., .METRE. ) );
#191 = COLOUR_RGB ( '',0.7921568627450980005, 0.8196078431372548767, 0.9333333333333333481 ) ;
#192 = DIRECTION ( 'NONE',  ( 0.000000000000000000, 1.000000000000000000, 0.000000000000000000 ) ) ;
#193 = CYLINDRICAL_SURFACE ( 'NONE', #155, 8.000000000000000000 ) ;
#194 = VECTOR ( 'NONE', #41, 1000.000000000000000 ) ;
#195 = FACE_OUTER_BOUND ( 'NONE', #246, .T. ) ;
#196 = ADVANCED_FACE ( 'NONE', ( #20 ), #91, .T. ) ;
#197 = VECTOR ( 'NONE', #150, 1000.000000000000000 ) ;
#198 = ORIENTED_EDGE ( 'NONE', *, *, #202, .T. ) ;
#199 = STYLED_ITEM ( 'NONE', ( #31 ), #19 ) ;
#200 = LINE ( 'NONE', #287, #194 ) ;
#201 = VERTEX_POINT ( 'NONE', #152 ) ;
#202 = EDGE_CURVE ( 'NONE', #138, #30, #211, .T. ) ;
#203 = SURFACE_SIDE_STYLE ('',( #227 ) ) ;
#204 = SURFACE_STYLE_USAGE ( .BOTH. , #6 ) ;
#205 = PRODUCT ( '59644', '59644', '', ( #209 ) ) ;
#206 = ORIENTED_EDGE ( 'NONE', *, *, #176, .F. ) ;
#207 = AXIS2_PLACEMENT_3D ( 'NONE', #55, #56, #160 ) ;
#208 = ORIENTED_EDGE ( 'NONE', *, *, #279, .T. ) ;
#209 = PRODUCT_CONTEXT ( 'NONE', #85, 'mechanical' ) ;
#210 = EDGE_CURVE ( 'NONE', #201, #42, #127, .T. ) ;
#211 = CIRCLE ( 'NONE', #28, 8.000000000000000000 ) ;
#212 = SURFACE_STYLE_USAGE ( .BOTH. , #278 ) ;
#213 = DIRECTION ( 'NONE',  ( 1.000000000000000000, 0.000000000000000000, 0.000000000000000000 ) ) ;
#214 = AXIS2_PLACEMENT_3D ( 'NONE', #148, #57, #81 ) ;
#215 = COLOUR_RGB ( '',1.000000000000000000, 0.000000000000000000, 0.000000000000000000 ) ;
#216 = AXIS2_PLACEMENT_3D ( 'NONE', #270, #171, #47 ) ;
#217 =( GEOMETRIC_REPRESENTATION_CONTEXT ( 3 ) GLOBAL_UNCERTAINTY_ASSIGNED_CONTEXT ( ( #58 ) ) GLOBAL_UNIT_ASSIGNED_CONTEXT ( ( #92, #178, #46 ) ) REPRESENTATION_CONTEXT ( 'NONE', 'WORKASPACE' ) );
#218 = FILL_AREA_STYLE ('',( #131 ) ) ;
#219 = SURFACE_STYLE_FILL_AREA ( #218 ) ;
#220 = CARTESIAN_POINT ( 'NONE',  ( 0.000000000000000000, 24.00000000000000000, 0.000000000000000000 ) ) ;
#221 = PRODUCT_DEFINITION_FORMATION_WITH_SPECIFIED_SOURCE ( 'ANY', '', #205, .NOT_KNOWN. ) ;
#222 = PRESENTATION_STYLE_ASSIGNMENT (( #145 ) ) ;
#223 =( LENGTH_UNIT ( ) NAMED_UNIT ( * ) SI_UNIT ( .MILLI., .METRE. ) );
#224 = CARTESIAN_POINT ( 'NONE',  ( 0.000000000000000000, 0.000000000000000000, 0.000000000000000000 ) ) ;
#225 = ORIENTED_EDGE ( 'NONE', *, *, #72, .F. ) ;
#226 = CIRCLE ( 'NONE', #3, 8.000000000000001776 ) ;
#227 = SURFACE_STYLE_FILL_AREA ( #244 ) ;
#228 = ORIENTED_EDGE ( 'NONE', *, *, #280, .F. ) ;
#229 = PRESENTATION_STYLE_ASSIGNMENT (( #129 ) ) ;
#230 = EDGE_LOOP ( 'NONE', ( #248, #198 ) ) ;
#231 = UNCERTAINTY_MEASURE_WITH_UNIT (LENGTH_MEASURE( 1.000000000000000082E-05 ), #123, 'distance_accuracy_value', 'NONE');
#232 = EDGE_CURVE ( 'NONE', #118, #138, #62, .T. ) ;
#233 = CLOSED_SHELL ( 'NONE', ( #96, #51, #259, #124 ) ) ;
#234 = FILL_AREA_STYLE_COLOUR ( '', #146 ) ;
#235 = UNCERTAINTY_MEASURE_WITH_UNIT (LENGTH_MEASURE( 1.000000000000000082E-05 ), #190, 'distance_accuracy_value', 'NONE');
#236 = FACE_OUTER_BOUND ( 'NONE', #265, .T. ) ;
#237 = PRESENTATION_LAYER_ASSIGNMENT (  '', '', ( #249 ) ) ;
#238 = AXIS2_PLACEMENT_3D ( 'NONE', #177, #261, #66 ) ;
#239 =( NAMED_UNIT ( * ) PLANE_ANGLE_UNIT ( ) SI_UNIT ( $, .RADIAN. ) );
#240 = UNCERTAINTY_MEASURE_WITH_UNIT (LENGTH_MEASURE( 1.000000000000000082E-05 ), #264, 'distance_accuracy_value', 'NONE');
#241 = CARTESIAN_POINT ( 'NONE',  ( 8.000000000000000000, 89.00000000000000000, 0.000000000000000000 ) ) ;
#242 = AXIS2_PLACEMENT_3D ( 'NONE', #247, #1, #137 ) ;
#243 =( LENGTH_UNIT ( ) NAMED_UNIT ( * ) SI_UNIT ( .MILLI., .METRE. ) );
#244 = FILL_AREA_STYLE ('',( #114 ) ) ;
#245 = FACE_OUTER_BOUND ( 'NONE', #136, .T. ) ;
#246 = EDGE_LOOP ( 'NONE', ( #2, #84, #228, #225 ) ) ;
#247 = CARTESIAN_POINT ( 'NONE',  ( -1.714505518806293849E-15, 89.00000000000000000, 0.000000000000000000 ) ) ;
#248 = ORIENTED_EDGE ( 'NONE', *, *, #280, .T. ) ;
#249 = STYLED_ITEM ( 'NONE', ( #173 ), #196 ) ;
#250 = UNCERTAINTY_MEASURE_WITH_UNIT (LENGTH_MEASURE( 1.000000000000000082E-05 ), #223, 'distance_accuracy_value', 'NONE');
#251 = CARTESIAN_POINT ( 'NONE',  ( -8.000000000000003553, 89.00000000000000000, 0.000000000000000000 ) ) ;
#252 =( NAMED_UNIT ( * ) PLANE_ANGLE_UNIT ( ) SI_UNIT ( $, .RADIAN. ) );
#253 = DIRECTION ( 'NONE',  ( -2.637700798163528719E-17, 1.000000000000000000, -0.000000000000000000 ) ) ;
#254 = STYLED_ITEM ( 'NONE', ( #166 ), #24 ) ;
#255 = CARTESIAN_POINT ( 'NONE',  ( -1.714505518806293849E-15, 89.00000000000000000, 0.000000000000000000 ) ) ;
#256 = DIRECTION ( 'NONE',  ( 0.000000000000000000, 0.000000000000000000, -1.000000000000000000 ) ) ;
#257 = EDGE_CURVE ( 'NONE', #118, #63, #108, .T. ) ;
#258 = CARTESIAN_POINT ( 'NONE',  ( 8.000000000000000000, 89.00000000000000000, 9.797174393178825657E-16 ) ) ;
#259 = ADVANCED_FACE ( 'NONE', ( #245 ), #117, .T. ) ;
#260 = SURFACE_STYLE_FILL_AREA ( #82 ) ;
#261 = DIRECTION ( 'NONE',  ( -2.637700798163528719E-17, 1.000000000000000000, -0.000000000000000000 ) ) ;
#262 = ORIENTED_EDGE ( 'NONE', *, *, #210, .T. ) ;
#263 = PRESENTATION_LAYER_ASSIGNMENT (  '', '', ( #87 ) ) ;
#264 =( LENGTH_UNIT ( ) NAMED_UNIT ( * ) SI_UNIT ( .MILLI., .METRE. ) );
#265 = EDGE_LOOP ( 'NONE', ( #120, #22, #26, #44 ) ) ;
#266 = ORIENTED_EDGE ( 'NONE', *, *, #210, .F. ) ;
#267 = PRODUCT_DEFINITION_SHAPE ( 'NONE', 'NONE',  #17 ) ;
#268 = CARTESIAN_POINT ( 'NONE',  ( 9.797174393178825657E-16, 0.000000000000000000, 8.000000000000000000 ) ) ;
#269 = ORIENTED_EDGE ( 'NONE', *, *, #72, .T. ) ;
#270 = CARTESIAN_POINT ( 'NONE',  ( 0.000000000000000000, 0.000000000000000000, 0.000000000000000000 ) ) ;
#271 =( LENGTH_UNIT ( ) NAMED_UNIT ( * ) SI_UNIT ( .MILLI., .METRE. ) );
#272 = SURFACE_SIDE_STYLE ('',( #32 ) ) ;
#273 = VECTOR ( 'NONE', #162, 1000.000000000000000 ) ;
#274 = FILL_AREA_STYLE ('',( #97 ) ) ;
#275 = COLOUR_RGB ( '',1.000000000000000000, 0.000000000000000000, 0.000000000000000000 ) ;
#276 = CARTESIAN_POINT ( 'NONE',  ( 0.000000000000000000, 0.000000000000000000, -8.000000000000000000 ) ) ;
#277 = ADVANCED_BREP_SHAPE_REPRESENTATION ( '59644', ( #112, #11, #4 ), #27 ) ;
#278 = SURFACE_SIDE_STYLE ('',( #94 ) ) ;
#279 = EDGE_CURVE ( 'NONE', #42, #71, #180, .T. ) ;
#280 = EDGE_CURVE ( 'NONE', #30, #138, #122, .T. ) ;
#281 = FILL_AREA_STYLE_COLOUR ( '', #275 ) ;
#282 = CARTESIAN_POINT ( 'NONE',  ( -1.714505518806293849E-15, 89.00000000000000000, 0.000000000000000000 ) ) ;
#283 = VECTOR ( 'NONE', #49, 1000.000000000000000 ) ;
#284 = AXIS2_PLACEMENT_3D ( 'NONE', #157, #88, #25 ) ;
#285 = SURFACE_STYLE_USAGE ( .BOTH. , #203 ) ;
#286 = PRODUCT_DEFINITION_CONTEXT ( 'detailed design', #167, 'design' ) ;
#287 = CARTESIAN_POINT ( 'NONE',  ( 7.999999999999998224, 89.00000000000000000, 9.797174393178825657E-16 ) ) ;
#288 = ORIENTED_EDGE ( 'NONE', *, *, #232, .F. ) ;
ENDSEC;
END-ISO-10303-21;
