ISO-10303-21;
HEADER;
FILE_DESCRIPTION (( 'STEP AP214' ),
    '1' );
FILE_NAME ('49330.STEP',
    '2023-06-30T22:01:01',
    ( '' ),
    ( '' ),
    'SwSTEP 2.0',
    'SolidWorks 2023',
    '' );
FILE_SCHEMA (( 'AUTOMOTIVE_DESIGN' ));
ENDSEC;

DATA;
#1 = CARTESIAN_POINT ( 'NONE',  ( -0.3124999999999994449, 3.000000000000000444, 0.000000000000000000 ) ) ;
#2 = PRESENTATION_LAYER_ASSIGNMENT (  '', '', ( #290 ) ) ;
#3 = AXIS2_PLACEMENT_3D ( 'NONE', #365, #78, #109 ) ;
#4 = AXIS2_PLACEMENT_3D ( 'NONE', #16, #215, #328 ) ;
#5 = SHAPE_DEFINITION_REPRESENTATION ( #47, #36 ) ;
#6 = UNCERTAINTY_MEASURE_WITH_UNIT (LENGTH_MEASURE( 1.000000000000000082E-05 ), #273, 'distance_accuracy_value', 'NONE');
#7 = PRODUCT_DEFINITION_CONTEXT ( 'detailed design', #77, 'design' ) ;
#8 = ADVANCED_FACE ( 'NONE', ( #82 ), #203, .T. ) ;
#9 = CARTESIAN_POINT ( 'NONE',  ( -0.3124999999999990563, 0.7499999999999998890, 0.000000000000000000 ) ) ;
#10 = EDGE_CURVE ( 'NONE', #221, #254, #311, .T. ) ;
#11 = AXIS2_PLACEMENT_3D ( 'NONE', #220, #226, #163 ) ;
#12 = LINE ( 'NONE', #212, #277 ) ;
#13 = EDGE_CURVE ( 'NONE', #221, #51, #241, .T. ) ;
#14 = FILL_AREA_STYLE ('',( #321 ) ) ;
#15 = COLOUR_RGB ( '',1.000000000000000000, 0.000000000000000000, 0.000000000000000000 ) ;
#16 = CARTESIAN_POINT ( 'NONE',  ( -3.827021247335478926E-17, 0.3125000000000000000, 0.000000000000000000 ) ) ;
#17 = DIRECTION ( 'NONE',  ( -0.000000000000000000, -1.000000000000000000, -0.000000000000000000 ) ) ;
#18 = EDGE_LOOP ( 'NONE', ( #59, #136, #368, #27 ) ) ;
#19 = EDGE_CURVE ( 'NONE', #301, #129, #170, .T. ) ;
#20 =( LENGTH_UNIT ( ) NAMED_UNIT ( * ) SI_UNIT ( $, .METRE. ) );
#21 = DIRECTION ( 'NONE',  ( -1.227249464703778560E-16, 1.000000000000000000, -0.000000000000000000 ) ) ;
#22 = ORIENTED_EDGE ( 'NONE', *, *, #95, .T. ) ;
#23 = PLANE ( 'NONE',  #3 ) ;
#24 = ORIENTED_EDGE ( 'NONE', *, *, #98, .T. ) ;
#25 = AXIS2_PLACEMENT_3D ( 'NONE', #337, #21, #130 ) ;
#26 = CARTESIAN_POINT ( 'NONE',  ( 3.827021247335477694E-17, 0.3125000000000000555, 0.3124999999999999445 ) ) ;
#27 = ORIENTED_EDGE ( 'NONE', *, *, #327, .F. ) ;
#28 = EDGE_LOOP ( 'NONE', ( #366, #222 ) ) ;
#29 = FILL_AREA_STYLE_COLOUR ( '', #291 ) ;
#30 = FACE_OUTER_BOUND ( 'NONE', #331, .T. ) ;
#31 =( LENGTH_UNIT ( ) NAMED_UNIT ( * ) SI_UNIT ( $, .METRE. ) );
#32 = PRODUCT_CONTEXT ( 'NONE', #244, 'mechanical' ) ;
#33 =( NAMED_UNIT ( * ) PLANE_ANGLE_UNIT ( ) SI_UNIT ( $, .RADIAN. ) );
#34 = CIRCLE ( 'NONE', #90, 0.3125000000000000000 ) ;
#35 = AXIS2_PLACEMENT_3D ( 'NONE', #172, #335, #152 ) ;
#36 = ADVANCED_BREP_SHAPE_REPRESENTATION ( '49330', ( #100, #349, #266 ), #65 ) ;
#37 = DIMENSIONAL_EXPONENTS ( 1.000000000000000000, 0.000000000000000000, 0.000000000000000000, 0.000000000000000000, 0.000000000000000000, 0.000000000000000000, 0.000000000000000000 ) ;
#38 = UNCERTAINTY_MEASURE_WITH_UNIT (LENGTH_MEASURE( 1.000000000000000082E-05 ), #280, 'distance_accuracy_value', 'NONE');
#39 = DIRECTION ( 'NONE',  ( -0.000000000000000000, -1.000000000000000000, -0.000000000000000000 ) ) ;
#40 = FACE_OUTER_BOUND ( 'NONE', #184, .T. ) ;
#41 = EDGE_CURVE ( 'NONE', #85, #139, #83, .T. ) ;
#42 = CARTESIAN_POINT ( 'NONE',  ( 0.000000000000000000, 0.3125000000000000555, 0.000000000000000000 ) ) ;
#43 = FACE_OUTER_BOUND ( 'NONE', #28, .T. ) ;
#44 = COLOUR_RGB ( '',1.000000000000000000, 0.000000000000000000, 0.000000000000000000 ) ;
#45 = AXIS2_PLACEMENT_3D ( 'NONE', #103, #270, #358 ) ;
#46 = DIRECTION ( 'NONE',  ( 0.000000000000000000, 0.000000000000000000, -1.000000000000000000 ) ) ;
#47 = PRODUCT_DEFINITION_SHAPE ( 'NONE', 'NONE',  #283 ) ;
#48 = FILL_AREA_STYLE ('',( #240 ) ) ;
#49 = MECHANICAL_DESIGN_GEOMETRIC_PRESENTATION_REPRESENTATION (  '', ( #314 ), #257 ) ;
#50 = EDGE_CURVE ( 'NONE', #139, #56, #34, .T. ) ;
#51 = VERTEX_POINT ( 'NONE', #202 ) ;
#52 = EDGE_LOOP ( 'NONE', ( #158, #307, #105, #227 ) ) ;
#53 = CARTESIAN_POINT ( 'NONE',  ( -0.3125000000000000000, 0.3125000000000000555, 3.827021247335477694E-17 ) ) ;
#54 = EDGE_LOOP ( 'NONE', ( #22, #251, #272, #138, #333 ) ) ;
#55 = AXIS2_PLACEMENT_3D ( 'NONE', #118, #69, #96 ) ;
#56 = VERTEX_POINT ( 'NONE', #350 ) ;
#57 = COLOUR_RGB ( '',1.000000000000000000, 0.000000000000000000, 0.000000000000000000 ) ;
#58 =( GEOMETRIC_REPRESENTATION_CONTEXT ( 3 ) GLOBAL_UNCERTAINTY_ASSIGNED_CONTEXT ( ( #235 ) ) GLOBAL_UNIT_ASSIGNED_CONTEXT ( ( #248, #275, #196 ) ) REPRESENTATION_CONTEXT ( 'NONE', 'WORKASPACE' ) );
#59 = ORIENTED_EDGE ( 'NONE', *, *, #340, .F. ) ;
#60 = FACE_OUTER_BOUND ( 'NONE', #332, .T. ) ;
#61 = CARTESIAN_POINT ( 'NONE',  ( -3.827021247335478926E-17, 0.3125000000000000000, 0.000000000000000000 ) ) ;
#62 = DIMENSIONAL_EXPONENTS ( 1.000000000000000000, 0.000000000000000000, 0.000000000000000000, 0.000000000000000000, 0.000000000000000000, 0.000000000000000000, 0.000000000000000000 ) ;
#63 = CARTESIAN_POINT ( 'NONE',  ( 0.000000000000000000, 0.7499999999999998890, 0.000000000000000000 ) ) ;
#64 = CIRCLE ( 'NONE', #84, 0.3124999999999998890 ) ;
#65 =( GEOMETRIC_REPRESENTATION_CONTEXT ( 3 ) GLOBAL_UNCERTAINTY_ASSIGNED_CONTEXT ( ( #148 ) ) GLOBAL_UNIT_ASSIGNED_CONTEXT ( ( #228, #198, #341 ) ) REPRESENTATION_CONTEXT ( 'NONE', 'WORKASPACE' ) );
#66 = DIRECTION ( 'NONE',  ( 0.000000000000000000, 0.000000000000000000, 1.000000000000000000 ) ) ;
#67 = SURFACE_STYLE_FILL_AREA ( #313 ) ;
#68 = PRESENTATION_STYLE_ASSIGNMENT (( #317 ) ) ;
#69 = DIRECTION ( 'NONE',  ( -1.227249464703778560E-16, 1.000000000000000000, -0.000000000000000000 ) ) ;
#70 = PRESENTATION_LAYER_ASSIGNMENT (  '', '', ( #225 ) ) ;
#71 =( NAMED_UNIT ( * ) SI_UNIT ( $, .STERADIAN. ) SOLID_ANGLE_UNIT ( ) );
#72 = SURFACE_SIDE_STYLE ('',( #299 ) ) ;
#73 = FILL_AREA_STYLE_COLOUR ( '', #224 ) ;
#74 = SURFACE_SIDE_STYLE ('',( #373 ) ) ;
#75 = DIRECTION ( 'NONE',  ( 0.000000000000000000, 0.000000000000000000, -1.000000000000000000 ) ) ;
#76 = CIRCLE ( 'NONE', #25, 0.3124999999999997224 ) ;
#77 = APPLICATION_CONTEXT ( 'automotive_design' ) ;
#78 = DIRECTION ( 'NONE',  ( -1.227249464703778560E-16, 1.000000000000000000, 0.000000000000000000 ) ) ;
#79 = ADVANCED_FACE ( 'NONE', ( #121 ), #150, .T. ) ;
#80 = DIRECTION ( 'NONE',  ( 0.000000000000000000, 0.000000000000000000, -1.000000000000000000 ) ) ;
#81 = SURFACE_STYLE_USAGE ( .BOTH. , #104 ) ;
#82 = FACE_OUTER_BOUND ( 'NONE', #52, .T. ) ;
#83 = CIRCLE ( 'NONE', #363, 0.3124999999999999445 ) ;
#84 = AXIS2_PLACEMENT_3D ( 'NONE', #117, #343, #223 ) ;
#85 = VERTEX_POINT ( 'NONE', #113 ) ;
#86 =( NAMED_UNIT ( * ) SI_UNIT ( $, .STERADIAN. ) SOLID_ANGLE_UNIT ( ) );
#87 = EDGE_CURVE ( 'NONE', #51, #221, #325, .T. ) ;
#88 =( NAMED_UNIT ( * ) PLANE_ANGLE_UNIT ( ) SI_UNIT ( $, .RADIAN. ) );
#89 = ORIENTED_EDGE ( 'NONE', *, *, #50, .F. ) ;
#90 = AXIS2_PLACEMENT_3D ( 'NONE', #61, #175, #205 ) ;
#91 = CIRCLE ( 'NONE', #4, 0.3125000000000000000 ) ;
#92 = DIMENSIONAL_EXPONENTS ( 1.000000000000000000, 0.000000000000000000, 0.000000000000000000, 0.000000000000000000, 0.000000000000000000, 0.000000000000000000, 0.000000000000000000 ) ;
#93 = CYLINDRICAL_SURFACE ( 'NONE', #330, 0.3124999999999998890 ) ;
#94 = DIRECTION ( 'NONE',  ( -1.000000000000000000, 0.000000000000000000, 0.000000000000000000 ) ) ;
#95 = EDGE_CURVE ( 'NONE', #112, #301, #147, .T. ) ;
#96 = DIRECTION ( 'NONE',  ( -1.000000000000000000, 0.000000000000000000, 0.000000000000000000 ) ) ;
#97 = MECHANICAL_DESIGN_GEOMETRIC_PRESENTATION_REPRESENTATION (  '', ( #290 ), #119 ) ;
#98 = EDGE_CURVE ( 'NONE', #139, #129, #192, .T. ) ;
#99 = APPLICATION_PROTOCOL_DEFINITION ( 'draft international standard', 'automotive_design', 1998, #244 ) ;
#100 = MANIFOLD_SOLID_BREP ( 'Revolve - Cutting Edge', #256 ) ;
#101 = PRESENTATION_STYLE_ASSIGNMENT (( #264 ) ) ;
#102 =( NAMED_UNIT ( * ) SI_UNIT ( $, .STERADIAN. ) SOLID_ANGLE_UNIT ( ) );
#103 = CARTESIAN_POINT ( 'NONE',  ( 1.224646799147352714E-16, 3.000000000000000444, 0.000000000000000000 ) ) ;
#104 = SURFACE_SIDE_STYLE ('',( #297 ) ) ;
#105 = ORIENTED_EDGE ( 'NONE', *, *, #271, .F. ) ;
#106 = PRESENTATION_LAYER_ASSIGNMENT (  '', '', ( #265 ) ) ;
#107 = ORIENTED_EDGE ( 'NONE', *, *, #271, .T. ) ;
#108 = VERTEX_POINT ( 'NONE', #53 ) ;
#109 = DIRECTION ( 'NONE',  ( -1.000000000000000000, -1.227249464703778560E-16, 0.000000000000000000 ) ) ;
#110 = EDGE_LOOP ( 'NONE', ( #156, #165, #304, #329 ) ) ;
#111 = SPHERICAL_SURFACE ( 'NONE', #11, 0.3125000000000000000 ) ;
#112 = VERTEX_POINT ( 'NONE', #159 ) ;
#113 = CARTESIAN_POINT ( 'NONE',  ( 0.000000000000000000, 0.3125000000000000555, -0.3124999999999999445 ) ) ;
#114 = SURFACE_STYLE_USAGE ( .BOTH. , #74 ) ;
#115 = LENGTH_MEASURE_WITH_UNIT ( LENGTH_MEASURE( 0.02539999999999999897 ), #233 );
#116 = CARTESIAN_POINT ( 'NONE',  ( 3.827021247335477078E-17, 0.000000000000000000, 0.3124999999999998890 ) ) ;
#117 = CARTESIAN_POINT ( 'NONE',  ( 0.000000000000000000, 0.7499999999999998890, 0.000000000000000000 ) ) ;
#118 = CARTESIAN_POINT ( 'NONE',  ( 3.985958094730854598E-16, 0.7499999999999998890, 0.000000000000000000 ) ) ;
#119 =( GEOMETRIC_REPRESENTATION_CONTEXT ( 3 ) GLOBAL_UNCERTAINTY_ASSIGNED_CONTEXT ( ( #204 ) ) GLOBAL_UNIT_ASSIGNED_CONTEXT ( ( #288, #33, #292 ) ) REPRESENTATION_CONTEXT ( 'NONE', 'WORKASPACE' ) );
#120 = COLOUR_RGB ( '',0.7921568627450980005, 0.8196078431372548767, 0.9333333333333333481 ) ;
#121 = FACE_OUTER_BOUND ( 'NONE', #54, .T. ) ;
#122 = CARTESIAN_POINT ( 'NONE',  ( -3.827021247335478926E-17, 0.3125000000000000000, 0.000000000000000000 ) ) ;
#123 = FACE_OUTER_BOUND ( 'NONE', #18, .T. ) ;
#124 = AXIS2_PLACEMENT_3D ( 'NONE', #122, #320, #355 ) ;
#125 =( LENGTH_UNIT ( ) NAMED_UNIT ( * ) SI_UNIT ( $, .METRE. ) );
#126 = AXIS2_PLACEMENT_3D ( 'NONE', #42, #39, #75 ) ;
#127 =( LENGTH_UNIT ( ) NAMED_UNIT ( * ) SI_UNIT ( $, .METRE. ) );
#128 = PRODUCT ( '49330', '49330', '', ( #32 ) ) ;
#129 = VERTEX_POINT ( 'NONE', #26 ) ;
#130 = DIRECTION ( 'NONE',  ( -1.000000000000000000, 0.000000000000000000, 0.000000000000000000 ) ) ;
#131 = EDGE_LOOP ( 'NONE', ( #247, #191 ) ) ;
#132 = CARTESIAN_POINT ( 'NONE',  ( 0.3124999999999999445, 0.3125000000000000555, 0.000000000000000000 ) ) ;
#133 = EDGE_CURVE ( 'NONE', #108, #56, #91, .T. ) ;
#134 = ADVANCED_FACE ( 'NONE', ( #246 ), #23, .F. ) ;
#135 = CIRCLE ( 'NONE', #348, 0.3124999999999999445 ) ;
#136 = ORIENTED_EDGE ( 'NONE', *, *, #87, .T. ) ;
#137 = LENGTH_MEASURE_WITH_UNIT ( LENGTH_MEASURE( 0.02539999999999999897 ), #300 );
#138 = ORIENTED_EDGE ( 'NONE', *, *, #41, .F. ) ;
#139 = VERTEX_POINT ( 'NONE', #132 ) ;
#140 = FILL_AREA_STYLE ('',( #29 ) ) ;
#141 = PLANE ( 'NONE',  #250 ) ;
#142 = EDGE_CURVE ( 'NONE', #129, #108, #309, .T. ) ;
#143 = SURFACE_STYLE_FILL_AREA ( #189 ) ;
#144 = DIRECTION ( 'NONE',  ( -1.227249464703778560E-16, 1.000000000000000000, -0.000000000000000000 ) ) ;
#145 = SURFACE_SIDE_STYLE ('',( #369 ) ) ;
#146 = DIRECTION ( 'NONE',  ( -1.227249464703778560E-16, 1.000000000000000000, -0.000000000000000000 ) ) ;
#147 = CIRCLE ( 'NONE', #357, 0.3124999999999998890 ) ;
#148 = UNCERTAINTY_MEASURE_WITH_UNIT (LENGTH_MEASURE( 1.000000000000000082E-05 ), #228, 'distance_accuracy_value', 'NONE');
#149 = SURFACE_STYLE_USAGE ( .BOTH. , #208 ) ;
#150 = CYLINDRICAL_SURFACE ( 'NONE', #161, 0.3124999999999998890 ) ;
#151 = LENGTH_MEASURE_WITH_UNIT ( LENGTH_MEASURE( 0.02539999999999999897 ), #294 );
#152 = DIRECTION ( 'NONE',  ( 0.000000000000000000, -0.000000000000000000, 1.000000000000000000 ) ) ;
#153 = AXIS2_PLACEMENT_3D ( 'NONE', #284, #146, #345 ) ;
#154 = LENGTH_MEASURE_WITH_UNIT ( LENGTH_MEASURE( 0.02539999999999999897 ), #125 );
#155 = MECHANICAL_DESIGN_GEOMETRIC_PRESENTATION_REPRESENTATION (  '', ( #319 ), #364 ) ;
#156 = ORIENTED_EDGE ( 'NONE', *, *, #133, .F. ) ;
#157 = LENGTH_MEASURE_WITH_UNIT ( LENGTH_MEASURE( 0.02539999999999999897 ), #20 );
#158 = ORIENTED_EDGE ( 'NONE', *, *, #13, .T. ) ;
#159 = CARTESIAN_POINT ( 'NONE',  ( 0.000000000000000000, 0.7499999999999998890, -0.3124999999999998890 ) ) ;
#160 = LENGTH_MEASURE_WITH_UNIT ( LENGTH_MEASURE( 0.02539999999999999897 ), #253 );
#161 = AXIS2_PLACEMENT_3D ( 'NONE', #197, #169, #258 ) ;
#162 = CARTESIAN_POINT ( 'NONE',  ( 0.3124999999999998890, 3.000000000000000444, 3.827021247335475229E-17 ) ) ;
#163 = DIRECTION ( 'NONE',  ( 1.000000000000000000, 0.000000000000000000, 0.000000000000000000 ) ) ;
#164 = PRESENTATION_LAYER_ASSIGNMENT (  '', '', ( #213 ) ) ;
#165 = ORIENTED_EDGE ( 'NONE', *, *, #334, .T. ) ;
#166 = ORIENTED_EDGE ( 'NONE', *, *, #133, .T. ) ;
#167 =( CONVERSION_BASED_UNIT ( 'INCH', #151 ) LENGTH_UNIT ( ) NAMED_UNIT ( #37 ) );
#168 = EDGE_CURVE ( 'NONE', #301, #112, #64, .T. ) ;
#169 = DIRECTION ( 'NONE',  ( -0.000000000000000000, -1.000000000000000000, -0.000000000000000000 ) ) ;
#170 = LINE ( 'NONE', #116, #185 ) ;
#171 = CIRCLE ( 'NONE', #45, 0.3124999999999997224 ) ;
#172 = CARTESIAN_POINT ( 'NONE',  ( 0.000000000000000000, 0.7499999999999998890, 0.000000000000000000 ) ) ;
#173 = SPHERICAL_SURFACE ( 'NONE', #124, 0.3125000000000000000 ) ;
#174 = DIMENSIONAL_EXPONENTS ( 1.000000000000000000, 0.000000000000000000, 0.000000000000000000, 0.000000000000000000, 0.000000000000000000, 0.000000000000000000, 0.000000000000000000 ) ;
#175 = DIRECTION ( 'NONE',  ( 0.000000000000000000, 0.000000000000000000, -1.000000000000000000 ) ) ;
#176 = AXIS2_PLACEMENT_3D ( 'NONE', #360, #216, #200 ) ;
#177 = SURFACE_STYLE_FILL_AREA ( #354 ) ;
#178 =( NAMED_UNIT ( * ) PLANE_ANGLE_UNIT ( ) SI_UNIT ( $, .RADIAN. ) );
#179 =( NAMED_UNIT ( * ) PLANE_ANGLE_UNIT ( ) SI_UNIT ( $, .RADIAN. ) );
#180 = PRODUCT_RELATED_PRODUCT_CATEGORY ( 'part', '', ( #128 ) ) ;
#181 = MECHANICAL_DESIGN_GEOMETRIC_PRESENTATION_REPRESENTATION (  '', ( #265 ), #193 ) ;
#182 = PRESENTATION_LAYER_ASSIGNMENT (  '', '', ( #326 ) ) ;
#183 = LENGTH_MEASURE_WITH_UNIT ( LENGTH_MEASURE( 0.02539999999999999897 ), #127 );
#184 = EDGE_LOOP ( 'NONE', ( #107, #194 ) ) ;
#185 = VECTOR ( 'NONE', #287, 39.37007874015748143 ) ;
#186 = AXIS2_PLACEMENT_3D ( 'NONE', #310, #237, #94 ) ;
#187 = MECHANICAL_DESIGN_GEOMETRIC_PRESENTATION_REPRESENTATION (  '', ( #326 ), #58 ) ;
#188 = ADVANCED_FACE ( 'NONE', ( #43 ), #346, .T. ) ;
#189 = FILL_AREA_STYLE ('',( #249 ) ) ;
#190 = ORIENTED_EDGE ( 'NONE', *, *, #19, .F. ) ;
#191 = ORIENTED_EDGE ( 'NONE', *, *, #87, .F. ) ;
#192 = CIRCLE ( 'NONE', #126, 0.3124999999999999445 ) ;
#193 =( GEOMETRIC_REPRESENTATION_CONTEXT ( 3 ) GLOBAL_UNCERTAINTY_ASSIGNED_CONTEXT ( ( #289 ) ) GLOBAL_UNIT_ASSIGNED_CONTEXT ( ( #167, #178, #102 ) ) REPRESENTATION_CONTEXT ( 'NONE', 'WORKASPACE' ) );
#194 = ORIENTED_EDGE ( 'NONE', *, *, #327, .T. ) ;
#195 = SURFACE_STYLE_USAGE ( .BOTH. , #145 ) ;
#196 =( NAMED_UNIT ( * ) SI_UNIT ( $, .STERADIAN. ) SOLID_ANGLE_UNIT ( ) );
#197 = CARTESIAN_POINT ( 'NONE',  ( 0.000000000000000000, 0.000000000000000000, 0.000000000000000000 ) ) ;
#198 =( NAMED_UNIT ( * ) PLANE_ANGLE_UNIT ( ) SI_UNIT ( $, .RADIAN. ) );
#199 = DIRECTION ( 'NONE',  ( -1.000000000000000000, 0.000000000000000000, 0.000000000000000000 ) ) ;
#200 = DIRECTION ( 'NONE',  ( 0.000000000000000000, 0.000000000000000000, -1.000000000000000000 ) ) ;
#201 = APPLICATION_PROTOCOL_DEFINITION ( 'draft international standard', 'automotive_design', 1998, #77 ) ;
#202 = CARTESIAN_POINT ( 'NONE',  ( 0.3124999999999998890, 0.7499999999999998890, 3.827021247335475229E-17 ) ) ;
#203 = CYLINDRICAL_SURFACE ( 'NONE', #153, 0.3124999999999996114 ) ;
#204 = UNCERTAINTY_MEASURE_WITH_UNIT (LENGTH_MEASURE( 1.000000000000000082E-05 ), #288, 'distance_accuracy_value', 'NONE');
#205 = DIRECTION ( 'NONE',  ( -1.000000000000000000, 0.000000000000000000, 0.000000000000000000 ) ) ;
#206 = FILL_AREA_STYLE_COLOUR ( '', #57 ) ;
#207 = DIMENSIONAL_EXPONENTS ( 1.000000000000000000, 0.000000000000000000, 0.000000000000000000, 0.000000000000000000, 0.000000000000000000, 0.000000000000000000, 0.000000000000000000 ) ;
#208 = SURFACE_SIDE_STYLE ('',( #143 ) ) ;
#209 = ADVANCED_FACE ( 'NONE', ( #40 ), #141, .F. ) ;
#210 = DIRECTION ( 'NONE',  ( -1.227249464703778560E-16, 1.000000000000000000, -0.000000000000000000 ) ) ;
#211 = PRESENTATION_STYLE_ASSIGNMENT (( #81 ) ) ;
#212 = CARTESIAN_POINT ( 'NONE',  ( 0.3124999999999997224, 3.000000000000000444, 3.827021247335473996E-17 ) ) ;
#213 = STYLED_ITEM ( 'NONE', ( #101 ), #100 ) ;
#214 =( NAMED_UNIT ( * ) SI_UNIT ( $, .STERADIAN. ) SOLID_ANGLE_UNIT ( ) );
#215 = DIRECTION ( 'NONE',  ( 1.224646799147353207E-16, -0.000000000000000000, 1.000000000000000000 ) ) ;
#216 = DIRECTION ( 'NONE',  ( -0.000000000000000000, -1.000000000000000000, -0.000000000000000000 ) ) ;
#217 = SURFACE_STYLE_USAGE ( .BOTH. , #72 ) ;
#218 = ORIENTED_EDGE ( 'NONE', *, *, #334, .F. ) ;
#219 = VECTOR ( 'NONE', #278, 39.37007874015748143 ) ;
#220 = CARTESIAN_POINT ( 'NONE',  ( -3.827021247335478926E-17, 0.3125000000000000000, 0.000000000000000000 ) ) ;
#221 = VERTEX_POINT ( 'NONE', #9 ) ;
#222 = ORIENTED_EDGE ( 'NONE', *, *, #168, .F. ) ;
#223 = DIRECTION ( 'NONE',  ( 0.000000000000000000, 0.000000000000000000, -1.000000000000000000 ) ) ;
#224 = COLOUR_RGB ( '',0.7921568627450980005, 0.8196078431372548767, 0.9333333333333333481 ) ;
#225 = STYLED_ITEM ( 'NONE', ( #344 ), #298 ) ;
#226 = DIRECTION ( 'NONE',  ( 0.000000000000000000, 0.000000000000000000, 1.000000000000000000 ) ) ;
#227 = ORIENTED_EDGE ( 'NONE', *, *, #10, .F. ) ;
#228 =( CONVERSION_BASED_UNIT ( 'INCH', #115 ) LENGTH_UNIT ( ) NAMED_UNIT ( #318 ) );
#229 = CARTESIAN_POINT ( 'NONE',  ( 3.985958094730854598E-16, 0.7499999999999998890, 0.000000000000000000 ) ) ;
#230 = ADVANCED_FACE ( 'NONE', ( #123 ), #323, .T. ) ;
#231 = DIRECTION ( 'NONE',  ( -0.000000000000000000, -1.000000000000000000, -0.000000000000000000 ) ) ;
#232 = PRESENTATION_LAYER_ASSIGNMENT (  '', '', ( #314 ) ) ;
#233 =( LENGTH_UNIT ( ) NAMED_UNIT ( * ) SI_UNIT ( $, .METRE. ) );
#234 = SURFACE_SIDE_STYLE ('',( #67 ) ) ;
#235 = UNCERTAINTY_MEASURE_WITH_UNIT (LENGTH_MEASURE( 1.000000000000000082E-05 ), #248, 'distance_accuracy_value', 'NONE');
#236 = DIRECTION ( 'NONE',  ( 0.000000000000000000, 0.000000000000000000, -1.000000000000000000 ) ) ;
#237 = DIRECTION ( 'NONE',  ( -1.227249464703778560E-16, 1.000000000000000000, -0.000000000000000000 ) ) ;
#238 =( CONVERSION_BASED_UNIT ( 'INCH', #183 ) LENGTH_UNIT ( ) NAMED_UNIT ( #261 ) );
#239 = ADVANCED_FACE ( 'NONE', ( #60 ), #111, .T. ) ;
#240 = FILL_AREA_STYLE_COLOUR ( '', #120 ) ;
#241 = CIRCLE ( 'NONE', #55, 0.3124999999999994449 ) ;
#242 = MECHANICAL_DESIGN_GEOMETRIC_PRESENTATION_REPRESENTATION (  '', ( #213 ), #260 ) ;
#243 = DIRECTION ( 'NONE',  ( -0.000000000000000000, -1.000000000000000000, -0.000000000000000000 ) ) ;
#244 = APPLICATION_CONTEXT ( 'automotive_design' ) ;
#245 = EDGE_CURVE ( 'NONE', #112, #85, #282, .T. ) ;
#246 = FACE_OUTER_BOUND ( 'NONE', #131, .T. ) ;
#247 = ORIENTED_EDGE ( 'NONE', *, *, #13, .F. ) ;
#248 =( CONVERSION_BASED_UNIT ( 'INCH', #160 ) LENGTH_UNIT ( ) NAMED_UNIT ( #62 ) );
#249 = FILL_AREA_STYLE_COLOUR ( '', #15 ) ;
#250 = AXIS2_PLACEMENT_3D ( 'NONE', #263, #339, #367 ) ;
#251 = ORIENTED_EDGE ( 'NONE', *, *, #19, .T. ) ;
#252 = DIMENSIONAL_EXPONENTS ( 1.000000000000000000, 0.000000000000000000, 0.000000000000000000, 0.000000000000000000, 0.000000000000000000, 0.000000000000000000, 0.000000000000000000 ) ;
#253 =( LENGTH_UNIT ( ) NAMED_UNIT ( * ) SI_UNIT ( $, .METRE. ) );
#254 = VERTEX_POINT ( 'NONE', #274 ) ;
#255 = FILL_AREA_STYLE ('',( #206 ) ) ;
#256 = CLOSED_SHELL ( 'NONE', ( #239, #79, #188, #298, #316 ) ) ;
#257 =( GEOMETRIC_REPRESENTATION_CONTEXT ( 3 ) GLOBAL_UNCERTAINTY_ASSIGNED_CONTEXT ( ( #38 ) ) GLOBAL_UNIT_ASSIGNED_CONTEXT ( ( #280, #88, #86 ) ) REPRESENTATION_CONTEXT ( 'NONE', 'WORKASPACE' ) );
#258 = DIRECTION ( 'NONE',  ( 0.000000000000000000, 0.000000000000000000, -1.000000000000000000 ) ) ;
#259 = CARTESIAN_POINT ( 'NONE',  ( 0.000000000000000000, 0.3125000000000000555, 0.000000000000000000 ) ) ;
#260 =( GEOMETRIC_REPRESENTATION_CONTEXT ( 3 ) GLOBAL_UNCERTAINTY_ASSIGNED_CONTEXT ( ( #351 ) ) GLOBAL_UNIT_ASSIGNED_CONTEXT ( ( #269, #322, #214 ) ) REPRESENTATION_CONTEXT ( 'NONE', 'WORKASPACE' ) );
#261 = DIMENSIONAL_EXPONENTS ( 1.000000000000000000, 0.000000000000000000, 0.000000000000000000, 0.000000000000000000, 0.000000000000000000, 0.000000000000000000, 0.000000000000000000 ) ;
#262 = UNCERTAINTY_MEASURE_WITH_UNIT (LENGTH_MEASURE( 1.000000000000000082E-05 ), #238, 'distance_accuracy_value', 'NONE');
#263 = CARTESIAN_POINT ( 'NONE',  ( 0.3124999999999998890, 3.000000000000000444, 0.000000000000000000 ) ) ;
#264 = SURFACE_STYLE_USAGE ( .BOTH. , #268 ) ;
#265 = STYLED_ITEM ( 'NONE', ( #293 ), #188 ) ;
#266 = AXIS2_PLACEMENT_3D ( 'NONE', #286, #66, #371 ) ;
#267 = CARTESIAN_POINT ( 'NONE',  ( 0.000000000000000000, 0.000000000000000000, 0.000000000000000000 ) ) ;
#268 = SURFACE_SIDE_STYLE ('',( #177 ) ) ;
#269 =( CONVERSION_BASED_UNIT ( 'INCH', #154 ) LENGTH_UNIT ( ) NAMED_UNIT ( #252 ) );
#270 = DIRECTION ( 'NONE',  ( -1.227249464703778560E-16, 1.000000000000000000, -0.000000000000000000 ) ) ;
#271 = EDGE_CURVE ( 'NONE', #254, #362, #76, .T. ) ;
#272 = ORIENTED_EDGE ( 'NONE', *, *, #98, .F. ) ;
#273 =( CONVERSION_BASED_UNIT ( 'INCH', #157 ) LENGTH_UNIT ( ) NAMED_UNIT ( #174 ) );
#274 = CARTESIAN_POINT ( 'NONE',  ( -0.3124999999999996114, 3.000000000000000444, 0.000000000000000000 ) ) ;
#275 =( NAMED_UNIT ( * ) PLANE_ANGLE_UNIT ( ) SI_UNIT ( $, .RADIAN. ) );
#276 = ORIENTED_EDGE ( 'NONE', *, *, #142, .T. ) ;
#277 = VECTOR ( 'NONE', #210, 39.37007874015748143 ) ;
#278 = DIRECTION ( 'NONE',  ( -0.000000000000000000, -1.000000000000000000, -0.000000000000000000 ) ) ;
#279 = ORIENTED_EDGE ( 'NONE', *, *, #168, .T. ) ;
#280 =( CONVERSION_BASED_UNIT ( 'INCH', #137 ) LENGTH_UNIT ( ) NAMED_UNIT ( #92 ) );
#281 = ORIENTED_EDGE ( 'NONE', *, *, #245, .T. ) ;
#282 = LINE ( 'NONE', #306, #219 ) ;
#283 = PRODUCT_DEFINITION ( 'UNKNOWN', '', #336, #7 ) ;
#284 = CARTESIAN_POINT ( 'NONE',  ( 1.224646799147352714E-16, 3.000000000000000444, 0.000000000000000000 ) ) ;
#285 = MECHANICAL_DESIGN_GEOMETRIC_PRESENTATION_REPRESENTATION (  '', ( #225 ), #296 ) ;
#286 = CARTESIAN_POINT ( 'NONE',  ( 0.000000000000000000, 0.000000000000000000, 0.000000000000000000 ) ) ;
#287 = DIRECTION ( 'NONE',  ( -0.000000000000000000, -1.000000000000000000, -0.000000000000000000 ) ) ;
#288 =( CONVERSION_BASED_UNIT ( 'INCH', #372 ) LENGTH_UNIT ( ) NAMED_UNIT ( #207 ) );
#289 = UNCERTAINTY_MEASURE_WITH_UNIT (LENGTH_MEASURE( 1.000000000000000082E-05 ), #167, 'distance_accuracy_value', 'NONE');
#290 = STYLED_ITEM ( 'NONE', ( #68 ), #79 ) ;
#291 = COLOUR_RGB ( '',1.000000000000000000, 0.000000000000000000, 0.000000000000000000 ) ;
#292 =( NAMED_UNIT ( * ) SI_UNIT ( $, .STERADIAN. ) SOLID_ANGLE_UNIT ( ) );
#293 = PRESENTATION_STYLE_ASSIGNMENT (( #195 ) ) ;
#294 =( LENGTH_UNIT ( ) NAMED_UNIT ( * ) SI_UNIT ( $, .METRE. ) );
#295 =( NAMED_UNIT ( * ) SI_UNIT ( $, .STERADIAN. ) SOLID_ANGLE_UNIT ( ) );
#296 =( GEOMETRIC_REPRESENTATION_CONTEXT ( 3 ) GLOBAL_UNCERTAINTY_ASSIGNED_CONTEXT ( ( #262 ) ) GLOBAL_UNIT_ASSIGNED_CONTEXT ( ( #238, #179, #295 ) ) REPRESENTATION_CONTEXT ( 'NONE', 'WORKASPACE' ) );
#297 = SURFACE_STYLE_FILL_AREA ( #48 ) ;
#298 = ADVANCED_FACE ( 'NONE', ( #30 ), #93, .T. ) ;
#299 = SURFACE_STYLE_FILL_AREA ( #14 ) ;
#300 =( LENGTH_UNIT ( ) NAMED_UNIT ( * ) SI_UNIT ( $, .METRE. ) );
#301 = VERTEX_POINT ( 'NONE', #359 ) ;
#302 = COLOUR_RGB ( '',1.000000000000000000, 0.000000000000000000, 0.000000000000000000 ) ;
#303 = PRESENTATION_STYLE_ASSIGNMENT (( #217 ) ) ;
#304 = ORIENTED_EDGE ( 'NONE', *, *, #41, .T. ) ;
#305 = ORIENTED_EDGE ( 'NONE', *, *, #142, .F. ) ;
#306 = CARTESIAN_POINT ( 'NONE',  ( 0.000000000000000000, 0.000000000000000000, -0.3124999999999998890 ) ) ;
#307 = ORIENTED_EDGE ( 'NONE', *, *, #340, .T. ) ;
#308 = AXIS2_PLACEMENT_3D ( 'NONE', #229, #342, #199 ) ;
#309 = CIRCLE ( 'NONE', #176, 0.3124999999999999445 ) ;
#310 = CARTESIAN_POINT ( 'NONE',  ( 1.224646799147352714E-16, 3.000000000000000444, 0.000000000000000000 ) ) ;
#311 = LINE ( 'NONE', #1, #347 ) ;
#312 = PRESENTATION_STYLE_ASSIGNMENT (( #114 ) ) ;
#313 = FILL_AREA_STYLE ('',( #315 ) ) ;
#314 = STYLED_ITEM ( 'NONE', ( #312 ), #239 ) ;
#315 = FILL_AREA_STYLE_COLOUR ( '', #44 ) ;
#316 = ADVANCED_FACE ( 'NONE', ( #356 ), #173, .T. ) ;
#317 = SURFACE_STYLE_USAGE ( .BOTH. , #234 ) ;
#318 = DIMENSIONAL_EXPONENTS ( 1.000000000000000000, 0.000000000000000000, 0.000000000000000000, 0.000000000000000000, 0.000000000000000000, 0.000000000000000000, 0.000000000000000000 ) ;
#319 = STYLED_ITEM ( 'NONE', ( #303 ), #316 ) ;
#320 = DIRECTION ( 'NONE',  ( 0.000000000000000000, 0.000000000000000000, 1.000000000000000000 ) ) ;
#321 = FILL_AREA_STYLE_COLOUR ( '', #302 ) ;
#322 =( NAMED_UNIT ( * ) PLANE_ANGLE_UNIT ( ) SI_UNIT ( $, .RADIAN. ) );
#323 = CYLINDRICAL_SURFACE ( 'NONE', #186, 0.3124999999999996114 ) ;
#324 = CARTESIAN_POINT ( 'NONE',  ( 0.000000000000000000, 0.3125000000000000555, 0.000000000000000000 ) ) ;
#325 = CIRCLE ( 'NONE', #308, 0.3124999999999994449 ) ;
#326 = STYLED_ITEM ( 'NONE', ( #211 ), #349 ) ;
#327 = EDGE_CURVE ( 'NONE', #362, #254, #171, .T. ) ;
#328 = DIRECTION ( 'NONE',  ( 1.000000000000000000, 0.000000000000000000, -1.224646799147353207E-16 ) ) ;
#329 = ORIENTED_EDGE ( 'NONE', *, *, #50, .T. ) ;
#330 = AXIS2_PLACEMENT_3D ( 'NONE', #267, #243, #80 ) ;
#331 = EDGE_LOOP ( 'NONE', ( #190, #279, #281, #218, #305 ) ) ;
#332 = EDGE_LOOP ( 'NONE', ( #276, #166, #89, #24 ) ) ;
#333 = ORIENTED_EDGE ( 'NONE', *, *, #245, .F. ) ;
#334 = EDGE_CURVE ( 'NONE', #108, #85, #135, .T. ) ;
#335 = DIRECTION ( 'NONE',  ( 0.000000000000000000, 1.000000000000000000, 0.000000000000000000 ) ) ;
#336 = PRODUCT_DEFINITION_FORMATION_WITH_SPECIFIED_SOURCE ( 'ANY', '', #128, .NOT_KNOWN. ) ;
#337 = CARTESIAN_POINT ( 'NONE',  ( 1.224646799147352714E-16, 3.000000000000000444, 0.000000000000000000 ) ) ;
#338 = DIRECTION ( 'NONE',  ( 0.000000000000000000, 0.000000000000000000, -1.000000000000000000 ) ) ;
#339 = DIRECTION ( 'NONE',  ( 1.227249464703778560E-16, -1.000000000000000000, 0.000000000000000000 ) ) ;
#340 = EDGE_CURVE ( 'NONE', #51, #362, #12, .T. ) ;
#341 =( NAMED_UNIT ( * ) SI_UNIT ( $, .STERADIAN. ) SOLID_ANGLE_UNIT ( ) );
#342 = DIRECTION ( 'NONE',  ( -1.227249464703778560E-16, 1.000000000000000000, -0.000000000000000000 ) ) ;
#343 = DIRECTION ( 'NONE',  ( -0.000000000000000000, -1.000000000000000000, -0.000000000000000000 ) ) ;
#344 = PRESENTATION_STYLE_ASSIGNMENT (( #149 ) ) ;
#345 = DIRECTION ( 'NONE',  ( -1.000000000000000000, 0.000000000000000000, 0.000000000000000000 ) ) ;
#346 = PLANE ( 'NONE',  #35 ) ;
#347 = VECTOR ( 'NONE', #144, 39.37007874015748143 ) ;
#348 = AXIS2_PLACEMENT_3D ( 'NONE', #324, #17, #46 ) ;
#349 = MANIFOLD_SOLID_BREP ( 'Revolve - Tool Body (Straight Shanked)', #352 ) ;
#350 = CARTESIAN_POINT ( 'NONE',  ( -1.913510623667739463E-17, 0.000000000000000000, 0.000000000000000000 ) ) ;
#351 = UNCERTAINTY_MEASURE_WITH_UNIT (LENGTH_MEASURE( 1.000000000000000082E-05 ), #269, 'distance_accuracy_value', 'NONE');
#352 = CLOSED_SHELL ( 'NONE', ( #8, #134, #230, #209 ) ) ;
#353 = DIRECTION ( 'NONE',  ( -0.000000000000000000, -1.000000000000000000, -0.000000000000000000 ) ) ;
#354 = FILL_AREA_STYLE ('',( #73 ) ) ;
#355 = DIRECTION ( 'NONE',  ( 1.000000000000000000, 0.000000000000000000, 0.000000000000000000 ) ) ;
#356 = FACE_OUTER_BOUND ( 'NONE', #110, .T. ) ;
#357 = AXIS2_PLACEMENT_3D ( 'NONE', #63, #353, #236 ) ;
#358 = DIRECTION ( 'NONE',  ( -1.000000000000000000, 0.000000000000000000, 0.000000000000000000 ) ) ;
#359 = CARTESIAN_POINT ( 'NONE',  ( 3.827021247335477078E-17, 0.7499999999999998890, 0.3124999999999998890 ) ) ;
#360 = CARTESIAN_POINT ( 'NONE',  ( 0.000000000000000000, 0.3125000000000000555, 0.000000000000000000 ) ) ;
#361 =( NAMED_UNIT ( * ) PLANE_ANGLE_UNIT ( ) SI_UNIT ( $, .RADIAN. ) );
#362 = VERTEX_POINT ( 'NONE', #162 ) ;
#363 = AXIS2_PLACEMENT_3D ( 'NONE', #259, #231, #338 ) ;
#364 =( GEOMETRIC_REPRESENTATION_CONTEXT ( 3 ) GLOBAL_UNCERTAINTY_ASSIGNED_CONTEXT ( ( #6 ) ) GLOBAL_UNIT_ASSIGNED_CONTEXT ( ( #273, #361, #71 ) ) REPRESENTATION_CONTEXT ( 'NONE', 'WORKASPACE' ) );
#365 = CARTESIAN_POINT ( 'NONE',  ( 3.985958094730854598E-16, 0.7499999999999998890, 0.000000000000000000 ) ) ;
#366 = ORIENTED_EDGE ( 'NONE', *, *, #95, .F. ) ;
#367 = DIRECTION ( 'NONE',  ( 1.000000000000000000, 1.227249464703778560E-16, 0.000000000000000000 ) ) ;
#368 = ORIENTED_EDGE ( 'NONE', *, *, #10, .T. ) ;
#369 = SURFACE_STYLE_FILL_AREA ( #255 ) ;
#370 = PRESENTATION_LAYER_ASSIGNMENT (  '', '', ( #319 ) ) ;
#371 = DIRECTION ( 'NONE',  ( 1.000000000000000000, 0.000000000000000000, 0.000000000000000000 ) ) ;
#372 = LENGTH_MEASURE_WITH_UNIT ( LENGTH_MEASURE( 0.02539999999999999897 ), #31 );
#373 = SURFACE_STYLE_FILL_AREA ( #140 ) ;
ENDSEC;
END-ISO-10303-21;
