ISO-10303-21;
HEADER;
FILE_DESCRIPTION (( 'STEP AP214' ),
    '1' );
FILE_NAME ('59490.STEP',
    '2023-07-24T15:07:42',
    ( '' ),
    ( '' ),
    'SwSTEP 2.0',
    'SolidWorks 2023',
    '' );
FILE_SCHEMA (( 'AUTOMOTIVE_DESIGN' ));
ENDSEC;

DATA;
#1 =( LENGTH_UNIT ( ) NAMED_UNIT ( * ) SI_UNIT ( .MILLI., .METRE. ) );
#2 = DIRECTION ( 'NONE',  ( -1.000000000000000000, 0.000000000000000000, 0.000000000000000000 ) ) ;
#3 = STYLED_ITEM ( 'NONE', ( #171 ), #92 ) ;
#4 = AXIS2_PLACEMENT_3D ( 'NONE', #339, #359, #273 ) ;
#5 =( NAMED_UNIT ( * ) PLANE_ANGLE_UNIT ( ) SI_UNIT ( $, .RADIAN. ) );
#6 = CIRCLE ( 'NONE', #150, 8.000000000000000000 ) ;
#7 = FACE_OUTER_BOUND ( 'NONE', #356, .T. ) ;
#8 = MECHANICAL_DESIGN_GEOMETRIC_PRESENTATION_REPRESENTATION (  '', ( #196 ), #275 ) ;
#9 = ORIENTED_EDGE ( 'NONE', *, *, #40, .T. ) ;
#10 = SHAPE_DEFINITION_REPRESENTATION ( #159, #252 ) ;
#11 = DIRECTION ( 'NONE',  ( -0.000000000000000000, -1.000000000000000000, -0.000000000000000000 ) ) ;
#12 = ORIENTED_EDGE ( 'NONE', *, *, #135, .F. ) ;
#13 = PLANE ( 'NONE',  #21 ) ;
#14 = DIRECTION ( 'NONE',  ( -0.000000000000000000, -1.000000000000000000, -0.000000000000000000 ) ) ;
#15 =( LENGTH_UNIT ( ) NAMED_UNIT ( * ) SI_UNIT ( .MILLI., .METRE. ) );
#16 = PLANE ( 'NONE',  #35 ) ;
#17 = COLOUR_RGB ( '',1.000000000000000000, 0.000000000000000000, 0.000000000000000000 ) ;
#18 = EDGE_LOOP ( 'NONE', ( #42, #354, #294, #123 ) ) ;
#19 = CARTESIAN_POINT ( 'NONE',  ( 0.000000000000000000, 32.00000000000000000, 0.000000000000000000 ) ) ;
#20 = SURFACE_SIDE_STYLE ('',( #217 ) ) ;
#21 = AXIS2_PLACEMENT_3D ( 'NONE', #172, #274, #244 ) ;
#22 = DIRECTION ( 'NONE',  ( -0.000000000000000000, -1.000000000000000000, -0.000000000000000000 ) ) ;
#23 = CARTESIAN_POINT ( 'NONE',  ( -1.714505518806293849E-15, 89.00000000000000000, 0.000000000000000000 ) ) ;
#24 = COLOUR_RGB ( '',1.000000000000000000, 0.000000000000000000, 0.000000000000000000 ) ;
#25 = CARTESIAN_POINT ( 'NONE',  ( -1.714505518806293652E-15, 89.00000000000000000, 0.000000000000000000 ) ) ;
#26 = FACE_OUTER_BOUND ( 'NONE', #41, .T. ) ;
#27 = DIRECTION ( 'NONE',  ( -1.000000000000000000, -1.213802797673107944E-16, 0.000000000000000000 ) ) ;
#28 = EDGE_CURVE ( 'NONE', #101, #211, #322, .T. ) ;
#29 = CARTESIAN_POINT ( 'NONE',  ( 0.000000000000000000, 1.000000000000000000, -7.000000000000000000 ) ) ;
#30 = AXIS2_PLACEMENT_3D ( 'NONE', #23, #82, #138 ) ;
#31 =( NAMED_UNIT ( * ) PLANE_ANGLE_UNIT ( ) SI_UNIT ( $, .RADIAN. ) );
#32 = SURFACE_STYLE_USAGE ( .BOTH. , #343 ) ;
#33 = FACE_OUTER_BOUND ( 'NONE', #358, .T. ) ;
#34 =( NAMED_UNIT ( * ) PLANE_ANGLE_UNIT ( ) SI_UNIT ( $, .RADIAN. ) );
#35 = AXIS2_PLACEMENT_3D ( 'NONE', #242, #366, #80 ) ;
#36 = PRESENTATION_STYLE_ASSIGNMENT (( #145 ) ) ;
#37 = UNCERTAINTY_MEASURE_WITH_UNIT (LENGTH_MEASURE( 1.000000000000000082E-05 ), #340, 'distance_accuracy_value', 'NONE');
#38 = CIRCLE ( 'NONE', #177, 8.000000000000000000 ) ;
#39 = CYLINDRICAL_SURFACE ( 'NONE', #314, 8.000000000000000000 ) ;
#40 = EDGE_CURVE ( 'NONE', #291, #288, #104, .T. ) ;
#41 = EDGE_LOOP ( 'NONE', ( #328, #71 ) ) ;
#42 = ORIENTED_EDGE ( 'NONE', *, *, #51, .T. ) ;
#43 = VECTOR ( 'NONE', #175, 1000.000000000000000 ) ;
#44 = CARTESIAN_POINT ( 'NONE',  ( 7.999999999999996447, 89.00000000000000000, 9.797174393178823685E-16 ) ) ;
#45 = LINE ( 'NONE', #153, #290 ) ;
#46 = PRODUCT ( '59490', '59490', '', ( #349 ) ) ;
#47 = EDGE_LOOP ( 'NONE', ( #147, #164, #67, #292 ) ) ;
#48 = CYLINDRICAL_SURFACE ( 'NONE', #315, 7.999999999999998224 ) ;
#49 = SURFACE_STYLE_FILL_AREA ( #77 ) ;
#50 = MECHANICAL_DESIGN_GEOMETRIC_PRESENTATION_REPRESENTATION (  '', ( #199 ), #127 ) ;
#51 = EDGE_CURVE ( 'NONE', #239, #125, #38, .T. ) ;
#52 = PRESENTATION_STYLE_ASSIGNMENT (( #187 ) ) ;
#53 = CARTESIAN_POINT ( 'NONE',  ( 0.000000000000000000, 1.000000000000000000, -8.000000000000000000 ) ) ;
#54 = FILL_AREA_STYLE ('',( #246 ) ) ;
#55 = DIRECTION ( 'NONE',  ( 0.000000000000000000, 0.000000000000000000, 1.000000000000000000 ) ) ;
#56 = AXIS2_PLACEMENT_3D ( 'NONE', #61, #198, #282 ) ;
#57 = AXIS2_PLACEMENT_3D ( 'NONE', #266, #11, #170 ) ;
#58 = SURFACE_SIDE_STYLE ('',( #93 ) ) ;
#59 = FILL_AREA_STYLE ('',( #345 ) ) ;
#60 = UNCERTAINTY_MEASURE_WITH_UNIT (LENGTH_MEASURE( 1.000000000000000082E-05 ), #15, 'distance_accuracy_value', 'NONE');
#61 = CARTESIAN_POINT ( 'NONE',  ( 0.000000000000000000, 0.000000000000000000, 0.000000000000000000 ) ) ;
#62 = AXIS2_PLACEMENT_3D ( 'NONE', #302, #139, #157 ) ;
#63 = PRESENTATION_STYLE_ASSIGNMENT (( #32 ) ) ;
#64 = EDGE_CURVE ( 'NONE', #152, #288, #263, .T. ) ;
#65 = EDGE_LOOP ( 'NONE', ( #272, #151, #321, #12 ) ) ;
#66 = ORIENTED_EDGE ( 'NONE', *, *, #231, .T. ) ;
#67 = ORIENTED_EDGE ( 'NONE', *, *, #355, .T. ) ;
#68 = COLOUR_RGB ( '',1.000000000000000000, 0.000000000000000000, 0.000000000000000000 ) ;
#69 =( GEOMETRIC_REPRESENTATION_CONTEXT ( 3 ) GLOBAL_UNCERTAINTY_ASSIGNED_CONTEXT ( ( #37 ) ) GLOBAL_UNIT_ASSIGNED_CONTEXT ( ( #340, #110, #155 ) ) REPRESENTATION_CONTEXT ( 'NONE', 'WORKASPACE' ) );
#70 = VERTEX_POINT ( 'NONE', #364 ) ;
#71 = ORIENTED_EDGE ( 'NONE', *, *, #186, .T. ) ;
#72 = FILL_AREA_STYLE_COLOUR ( '', #17 ) ;
#73 = CARTESIAN_POINT ( 'NONE',  ( 8.000000000000000000, 89.00000000000000000, 9.797174393178825657E-16 ) ) ;
#74 = ADVANCED_FACE ( 'NONE', ( #331 ), #39, .T. ) ;
#75 = DIRECTION ( 'NONE',  ( 0.000000000000000000, 0.000000000000000000, -1.000000000000000000 ) ) ;
#76 = CARTESIAN_POINT ( 'NONE',  ( 0.000000000000000000, 0.000000000000000000, -7.000000000000000000 ) ) ;
#77 = FILL_AREA_STYLE ('',( #247 ) ) ;
#78 = DIRECTION ( 'NONE',  ( -0.000000000000000000, -1.000000000000000000, -0.000000000000000000 ) ) ;
#79 =( NAMED_UNIT ( * ) SI_UNIT ( $, .STERADIAN. ) SOLID_ANGLE_UNIT ( ) );
#80 = DIRECTION ( 'NONE',  ( 0.000000000000000000, -0.000000000000000000, 1.000000000000000000 ) ) ;
#81 = CIRCLE ( 'NONE', #173, 1.000000000000000000 ) ;
#82 = DIRECTION ( 'NONE',  ( -1.213802797673107944E-16, 1.000000000000000000, -0.000000000000000000 ) ) ;
#83 = PRODUCT_DEFINITION_FORMATION_WITH_SPECIFIED_SOURCE ( 'ANY', '', #46, .NOT_KNOWN. ) ;
#84 = PRESENTATION_LAYER_ASSIGNMENT (  '', '', ( #91 ) ) ;
#85 =( NAMED_UNIT ( * ) PLANE_ANGLE_UNIT ( ) SI_UNIT ( $, .RADIAN. ) );
#86 = ADVANCED_FACE ( 'NONE', ( #162 ), #133, .T. ) ;
#87 = DIRECTION ( 'NONE',  ( 0.000000000000000000, 0.000000000000000000, -1.000000000000000000 ) ) ;
#88 = SURFACE_SIDE_STYLE ('',( #344 ) ) ;
#89 =( LENGTH_UNIT ( ) NAMED_UNIT ( * ) SI_UNIT ( .MILLI., .METRE. ) );
#90 = MECHANICAL_DESIGN_GEOMETRIC_PRESENTATION_REPRESENTATION (  '', ( #308 ), #176 ) ;
#91 = STYLED_ITEM ( 'NONE', ( #310 ), #277 ) ;
#92 = ADVANCED_FACE ( 'NONE', ( #7 ), #353, .T. ) ;
#93 = SURFACE_STYLE_FILL_AREA ( #119 ) ;
#94 =( NAMED_UNIT ( * ) SI_UNIT ( $, .STERADIAN. ) SOLID_ANGLE_UNIT ( ) );
#95 = AXIS2_PLACEMENT_3D ( 'NONE', #235, #357, #212 ) ;
#96 = CIRCLE ( 'NONE', #350, 8.000000000000000000 ) ;
#97 = ORIENTED_EDGE ( 'NONE', *, *, #299, .F. ) ;
#98 = EDGE_CURVE ( 'NONE', #125, #239, #227, .T. ) ;
#99 = ORIENTED_EDGE ( 'NONE', *, *, #98, .T. ) ;
#100 = PLANE ( 'NONE',  #4 ) ;
#101 = VERTEX_POINT ( 'NONE', #76 ) ;
#102 = FILL_AREA_STYLE ('',( #72 ) ) ;
#103 = COLOUR_RGB ( '',1.000000000000000000, 0.000000000000000000, 0.000000000000000000 ) ;
#104 = LINE ( 'NONE', #44, #201 ) ;
#105 = SURFACE_SIDE_STYLE ('',( #323 ) ) ;
#106 = ORIENTED_EDGE ( 'NONE', *, *, #135, .T. ) ;
#107 = CARTESIAN_POINT ( 'NONE',  ( 0.000000000000000000, 32.00000000000000000, -8.000000000000000000 ) ) ;
#108 =( NAMED_UNIT ( * ) SI_UNIT ( $, .STERADIAN. ) SOLID_ANGLE_UNIT ( ) );
#109 = CARTESIAN_POINT ( 'NONE',  ( -1.714505518806293652E-15, 89.00000000000000000, 0.000000000000000000 ) ) ;
#110 =( NAMED_UNIT ( * ) PLANE_ANGLE_UNIT ( ) SI_UNIT ( $, .RADIAN. ) );
#111 = CARTESIAN_POINT ( 'NONE',  ( -7.999999999999989342, 32.00000000000000000, 0.000000000000000000 ) ) ;
#112 = LINE ( 'NONE', #216, #130 ) ;
#113 = CARTESIAN_POINT ( 'NONE',  ( 0.000000000000000000, 32.00000000000000000, 0.000000000000000000 ) ) ;
#114 =( GEOMETRIC_REPRESENTATION_CONTEXT ( 3 ) GLOBAL_UNCERTAINTY_ASSIGNED_CONTEXT ( ( #195 ) ) GLOBAL_UNIT_ASSIGNED_CONTEXT ( ( #220, #156, #336 ) ) REPRESENTATION_CONTEXT ( 'NONE', 'WORKASPACE' ) );
#115 = UNCERTAINTY_MEASURE_WITH_UNIT (LENGTH_MEASURE( 1.000000000000000082E-05 ), #89, 'distance_accuracy_value', 'NONE');
#116 = DIRECTION ( 'NONE',  ( -1.000000000000000000, 0.000000000000000000, 0.000000000000000000 ) ) ;
#117 = AXIS2_PLACEMENT_3D ( 'NONE', #182, #132, #327 ) ;
#118 = UNCERTAINTY_MEASURE_WITH_UNIT (LENGTH_MEASURE( 1.000000000000000082E-05 ), #346, 'distance_accuracy_value', 'NONE');
#119 = FILL_AREA_STYLE ('',( #191 ) ) ;
#120 = UNCERTAINTY_MEASURE_WITH_UNIT (LENGTH_MEASURE( 1.000000000000000082E-05 ), #341, 'distance_accuracy_value', 'NONE');
#121 = MECHANICAL_DESIGN_GEOMETRIC_PRESENTATION_REPRESENTATION (  '', ( #265 ), #114 ) ;
#122 = MANIFOLD_SOLID_BREP ( 'Revolve - Cutting Edge', #226 ) ;
#123 = ORIENTED_EDGE ( 'NONE', *, *, #146, .F. ) ;
#124 = EDGE_CURVE ( 'NONE', #70, #166, #6, .T. ) ;
#125 = VERTEX_POINT ( 'NONE', #144 ) ;
#126 = MANIFOLD_SOLID_BREP ( 'Revolve - Tool Body (Straight Shanked)', #185 ) ;
#127 =( GEOMETRIC_REPRESENTATION_CONTEXT ( 3 ) GLOBAL_UNCERTAINTY_ASSIGNED_CONTEXT ( ( #60 ) ) GLOBAL_UNIT_ASSIGNED_CONTEXT ( ( #15, #249, #79 ) ) REPRESENTATION_CONTEXT ( 'NONE', 'WORKASPACE' ) );
#128 = ORIENTED_EDGE ( 'NONE', *, *, #51, .F. ) ;
#129 = DIRECTION ( 'NONE',  ( -1.213802797673107944E-16, 1.000000000000000000, -0.000000000000000000 ) ) ;
#130 = VECTOR ( 'NONE', #334, 1000.000000000000000 ) ;
#131 = ORIENTED_EDGE ( 'NONE', *, *, #124, .F. ) ;
#132 = DIRECTION ( 'NONE',  ( -0.000000000000000000, -1.000000000000000000, -0.000000000000000000 ) ) ;
#133 = TOROIDAL_SURFACE ( 'NONE', #95, 7.000000000000000000, 1.000000000000000000 ) ;
#134 = ORIENTED_EDGE ( 'NONE', *, *, #64, .F. ) ;
#135 = EDGE_CURVE ( 'NONE', #288, #152, #260, .T. ) ;
#136 = SURFACE_STYLE_USAGE ( .BOTH. , #248 ) ;
#137 = COLOUR_RGB ( '',1.000000000000000000, 0.000000000000000000, 0.000000000000000000 ) ;
#138 = DIRECTION ( 'NONE',  ( -1.000000000000000000, 0.000000000000000000, 0.000000000000000000 ) ) ;
#139 = DIRECTION ( 'NONE',  ( 1.000000000000000000, 0.000000000000000000, -1.224646799147353207E-16 ) ) ;
#140 = CIRCLE ( 'NONE', #238, 7.999999999999994671 ) ;
#141 = FILL_AREA_STYLE ('',( #181 ) ) ;
#142 = CARTESIAN_POINT ( 'NONE',  ( 5.204170427930421283E-15, 32.00000000000000000, 0.000000000000000000 ) ) ;
#143 = CARTESIAN_POINT ( 'NONE',  ( -8.000000000000003553, 89.00000000000000000, 0.000000000000000000 ) ) ;
#144 = CARTESIAN_POINT ( 'NONE',  ( 9.797174393178825657E-16, 1.000000000000000000, 8.000000000000000000 ) ) ;
#145 = SURFACE_STYLE_USAGE ( .BOTH. , #58 ) ;
#146 = EDGE_CURVE ( 'NONE', #239, #101, #81, .T. ) ;
#147 = ORIENTED_EDGE ( 'NONE', *, *, #190, .F. ) ;
#148 =( GEOMETRIC_REPRESENTATION_CONTEXT ( 3 ) GLOBAL_UNCERTAINTY_ASSIGNED_CONTEXT ( ( #115 ) ) GLOBAL_UNIT_ASSIGNED_CONTEXT ( ( #89, #256, #285 ) ) REPRESENTATION_CONTEXT ( 'NONE', 'WORKASPACE' ) );
#149 = EDGE_CURVE ( 'NONE', #125, #211, #234, .T. ) ;
#150 = AXIS2_PLACEMENT_3D ( 'NONE', #19, #78, #276 ) ;
#151 = ORIENTED_EDGE ( 'NONE', *, *, #180, .T. ) ;
#152 = VERTEX_POINT ( 'NONE', #143 ) ;
#153 = CARTESIAN_POINT ( 'NONE',  ( -8.000000000000000000, 89.00000000000000000, 0.000000000000000000 ) ) ;
#154 = DIRECTION ( 'NONE',  ( -1.000000000000000000, 0.000000000000000000, 0.000000000000000000 ) ) ;
#155 =( NAMED_UNIT ( * ) SI_UNIT ( $, .STERADIAN. ) SOLID_ANGLE_UNIT ( ) );
#156 =( NAMED_UNIT ( * ) PLANE_ANGLE_UNIT ( ) SI_UNIT ( $, .RADIAN. ) );
#157 = DIRECTION ( 'NONE',  ( -1.224646799147353454E-16, 0.000000000000000000, -1.000000000000000000 ) ) ;
#158 = DIRECTION ( 'NONE',  ( 0.000000000000000000, 0.000000000000000000, -1.000000000000000000 ) ) ;
#159 = PRODUCT_DEFINITION_SHAPE ( 'NONE', 'NONE',  #352 ) ;
#160 = FILL_AREA_STYLE_COLOUR ( '', #347 ) ;
#161 = PRESENTATION_LAYER_ASSIGNMENT (  '', '', ( #265 ) ) ;
#162 = FACE_OUTER_BOUND ( 'NONE', #18, .T. ) ;
#163 = ADVANCED_FACE ( 'NONE', ( #250 ), #100, .F. ) ;
#164 = ORIENTED_EDGE ( 'NONE', *, *, #124, .T. ) ;
#165 = CARTESIAN_POINT ( 'NONE',  ( 0.000000000000000000, 0.000000000000000000, 0.000000000000000000 ) ) ;
#166 = VERTEX_POINT ( 'NONE', #107 ) ;
#167 = EDGE_LOOP ( 'NONE', ( #318, #106 ) ) ;
#168 = AXIS2_PLACEMENT_3D ( 'NONE', #278, #22, #158 ) ;
#169 = ADVANCED_FACE ( 'NONE', ( #26 ), #13, .T. ) ;
#170 = DIRECTION ( 'NONE',  ( 0.000000000000000000, 0.000000000000000000, -1.000000000000000000 ) ) ;
#171 = PRESENTATION_STYLE_ASSIGNMENT (( #207 ) ) ;
#172 = CARTESIAN_POINT ( 'NONE',  ( 0.000000000000000000, 0.000000000000000000, 0.000000000000000000 ) ) ;
#173 = AXIS2_PLACEMENT_3D ( 'NONE', #29, #2, #55 ) ;
#174 = ORIENTED_EDGE ( 'NONE', *, *, #299, .T. ) ;
#175 = DIRECTION ( 'NONE',  ( -0.000000000000000000, -1.000000000000000000, -0.000000000000000000 ) ) ;
#176 =( GEOMETRIC_REPRESENTATION_CONTEXT ( 3 ) GLOBAL_UNCERTAINTY_ASSIGNED_CONTEXT ( ( #254 ) ) GLOBAL_UNIT_ASSIGNED_CONTEXT ( ( #253, #313, #108 ) ) REPRESENTATION_CONTEXT ( 'NONE', 'WORKASPACE' ) );
#177 = AXIS2_PLACEMENT_3D ( 'NONE', #269, #14, #75 ) ;
#178 = DIRECTION ( 'NONE',  ( -1.000000000000000000, 0.000000000000000000, 0.000000000000000000 ) ) ;
#179 = SURFACE_SIDE_STYLE ('',( #49 ) ) ;
#180 = EDGE_CURVE ( 'NONE', #291, #236, #255, .T. ) ;
#181 = FILL_AREA_STYLE_COLOUR ( '', #210 ) ;
#182 = CARTESIAN_POINT ( 'NONE',  ( 0.000000000000000000, 0.000000000000000000, 0.000000000000000000 ) ) ;
#183 = FACE_OUTER_BOUND ( 'NONE', #360, .T. ) ;
#184 = DIRECTION ( 'NONE',  ( 0.000000000000000000, 0.000000000000000000, -1.000000000000000000 ) ) ;
#185 = CLOSED_SHELL ( 'NONE', ( #219, #311, #259, #163 ) ) ;
#186 = EDGE_CURVE ( 'NONE', #211, #101, #306, .T. ) ;
#187 = SURFACE_STYLE_USAGE ( .BOTH. , #367 ) ;
#188 =( NAMED_UNIT ( * ) SI_UNIT ( $, .STERADIAN. ) SOLID_ANGLE_UNIT ( ) );
#189 = APPLICATION_PROTOCOL_DEFINITION ( 'draft international standard', 'automotive_design', 1998, #262 ) ;
#190 = EDGE_CURVE ( 'NONE', #70, #125, #240, .T. ) ;
#191 = FILL_AREA_STYLE_COLOUR ( '', #68 ) ;
#192 = SURFACE_STYLE_USAGE ( .BOTH. , #88 ) ;
#193 = PRESENTATION_LAYER_ASSIGNMENT (  '', '', ( #308 ) ) ;
#194 = DIRECTION ( 'NONE',  ( -0.000000000000000000, -1.000000000000000000, -0.000000000000000000 ) ) ;
#195 = UNCERTAINTY_MEASURE_WITH_UNIT (LENGTH_MEASURE( 1.000000000000000082E-05 ), #220, 'distance_accuracy_value', 'NONE');
#196 = STYLED_ITEM ( 'NONE', ( #369 ), #126 ) ;
#197 =( LENGTH_UNIT ( ) NAMED_UNIT ( * ) SI_UNIT ( .MILLI., .METRE. ) );
#198 = DIRECTION ( 'NONE',  ( -0.000000000000000000, -1.000000000000000000, -0.000000000000000000 ) ) ;
#199 = STYLED_ITEM ( 'NONE', ( #221 ), #169 ) ;
#200 =( GEOMETRIC_REPRESENTATION_CONTEXT ( 3 ) GLOBAL_UNCERTAINTY_ASSIGNED_CONTEXT ( ( #118 ) ) GLOBAL_UNIT_ASSIGNED_CONTEXT ( ( #346, #31, #188 ) ) REPRESENTATION_CONTEXT ( 'NONE', 'WORKASPACE' ) );
#201 = VECTOR ( 'NONE', #206, 1000.000000000000000 ) ;
#202 = DIRECTION ( 'NONE',  ( 0.000000000000000000, 0.000000000000000000, 1.000000000000000000 ) ) ;
#203 = ORIENTED_EDGE ( 'NONE', *, *, #186, .F. ) ;
#204 = ORIENTED_EDGE ( 'NONE', *, *, #149, .F. ) ;
#205 =( GEOMETRIC_REPRESENTATION_CONTEXT ( 3 ) GLOBAL_UNCERTAINTY_ASSIGNED_CONTEXT ( ( #120 ) ) GLOBAL_UNIT_ASSIGNED_CONTEXT ( ( #341, #34, #94 ) ) REPRESENTATION_CONTEXT ( 'NONE', 'WORKASPACE' ) );
#206 = DIRECTION ( 'NONE',  ( -1.213802797673107944E-16, 1.000000000000000000, -0.000000000000000000 ) ) ;
#207 = SURFACE_STYLE_USAGE ( .BOTH. , #105 ) ;
#208 = CARTESIAN_POINT ( 'NONE',  ( 9.184850993605147944E-16, 0.000000000000000000, 7.000000000000000000 ) ) ;
#209 = MECHANICAL_DESIGN_GEOMETRIC_PRESENTATION_REPRESENTATION (  '', ( #293 ), #148 ) ;
#210 = COLOUR_RGB ( '',0.7921568627450980005, 0.8196078431372548767, 0.9333333333333333481 ) ;
#211 = VERTEX_POINT ( 'NONE', #208 ) ;
#212 = DIRECTION ( 'NONE',  ( 0.000000000000000000, 0.000000000000000000, -1.000000000000000000 ) ) ;
#213 = DIRECTION ( 'NONE',  ( -1.213802797673107944E-16, 1.000000000000000000, -0.000000000000000000 ) ) ;
#214 = DIRECTION ( 'NONE',  ( -1.213802797673107944E-16, 1.000000000000000000, -0.000000000000000000 ) ) ;
#215 = FACE_OUTER_BOUND ( 'NONE', #47, .T. ) ;
#216 = CARTESIAN_POINT ( 'NONE',  ( 0.000000000000000000, 0.000000000000000000, -8.000000000000000000 ) ) ;
#217 = SURFACE_STYLE_FILL_AREA ( #361 ) ;
#218 = PRESENTATION_LAYER_ASSIGNMENT (  '', '', ( #196 ) ) ;
#219 = ADVANCED_FACE ( 'NONE', ( #365 ), #329, .T. ) ;
#220 =( LENGTH_UNIT ( ) NAMED_UNIT ( * ) SI_UNIT ( .MILLI., .METRE. ) );
#221 = PRESENTATION_STYLE_ASSIGNMENT (( #304 ) ) ;
#222 = DIRECTION ( 'NONE',  ( -0.000000000000000000, -1.000000000000000000, -0.000000000000000000 ) ) ;
#223 = MECHANICAL_DESIGN_GEOMETRIC_PRESENTATION_REPRESENTATION (  '', ( #91 ), #200 ) ;
#224 = STYLED_ITEM ( 'NONE', ( #36 ), #86 ) ;
#225 = SURFACE_STYLE_FILL_AREA ( #281 ) ;
#226 = CLOSED_SHELL ( 'NONE', ( #74, #86, #169, #92, #277, #280 ) ) ;
#227 = CIRCLE ( 'NONE', #338, 8.000000000000000000 ) ;
#228 = CARTESIAN_POINT ( 'NONE',  ( 0.000000000000000000, 0.000000000000000000, 0.000000000000000000 ) ) ;
#229 = MECHANICAL_DESIGN_GEOMETRIC_PRESENTATION_REPRESENTATION (  '', ( #3 ), #69 ) ;
#230 = AXIS2_PLACEMENT_3D ( 'NONE', #25, #332, #178 ) ;
#231 = EDGE_CURVE ( 'NONE', #166, #70, #96, .T. ) ;
#232 = ORIENTED_EDGE ( 'NONE', *, *, #355, .F. ) ;
#233 = ORIENTED_EDGE ( 'NONE', *, *, #257, .F. ) ;
#234 = CIRCLE ( 'NONE', #62, 1.000000000000000000 ) ;
#235 = CARTESIAN_POINT ( 'NONE',  ( 0.000000000000000000, 1.000000000000000000, 0.000000000000000000 ) ) ;
#236 = VERTEX_POINT ( 'NONE', #111 ) ;
#237 = CARTESIAN_POINT ( 'NONE',  ( 9.797174393178825657E-16, 0.000000000000000000, 8.000000000000000000 ) ) ;
#238 = AXIS2_PLACEMENT_3D ( 'NONE', #301, #213, #330 ) ;
#239 = VERTEX_POINT ( 'NONE', #53 ) ;
#240 = LINE ( 'NONE', #237, #43 ) ;
#241 = MECHANICAL_DESIGN_GEOMETRIC_PRESENTATION_REPRESENTATION (  '', ( #224 ), #287 ) ;
#242 = CARTESIAN_POINT ( 'NONE',  ( 0.000000000000000000, 32.00000000000000000, 0.000000000000000000 ) ) ;
#243 = DIRECTION ( 'NONE',  ( -1.000000000000000000, 0.000000000000000000, 0.000000000000000000 ) ) ;
#244 = DIRECTION ( 'NONE',  ( 0.000000000000000000, 0.000000000000000000, -1.000000000000000000 ) ) ;
#245 = DIRECTION ( 'NONE',  ( -1.213802797673107944E-16, 1.000000000000000000, 0.000000000000000000 ) ) ;
#246 = FILL_AREA_STYLE_COLOUR ( '', #279 ) ;
#247 = FILL_AREA_STYLE_COLOUR ( '', #103 ) ;
#248 = SURFACE_SIDE_STYLE ('',( #251 ) ) ;
#249 =( NAMED_UNIT ( * ) PLANE_ANGLE_UNIT ( ) SI_UNIT ( $, .RADIAN. ) );
#250 = FACE_OUTER_BOUND ( 'NONE', #167, .T. ) ;
#251 = SURFACE_STYLE_FILL_AREA ( #141 ) ;
#252 = ADVANCED_BREP_SHAPE_REPRESENTATION ( '59490', ( #122, #126, #320 ), #205 ) ;
#253 =( LENGTH_UNIT ( ) NAMED_UNIT ( * ) SI_UNIT ( .MILLI., .METRE. ) );
#254 = UNCERTAINTY_MEASURE_WITH_UNIT (LENGTH_MEASURE( 1.000000000000000082E-05 ), #253, 'distance_accuracy_value', 'NONE');
#255 = CIRCLE ( 'NONE', #268, 7.999999999999994671 ) ;
#256 =( NAMED_UNIT ( * ) PLANE_ANGLE_UNIT ( ) SI_UNIT ( $, .RADIAN. ) );
#257 = EDGE_CURVE ( 'NONE', #236, #152, #45, .T. ) ;
#258 = UNCERTAINTY_MEASURE_WITH_UNIT (LENGTH_MEASURE( 1.000000000000000082E-05 ), #1, 'distance_accuracy_value', 'NONE');
#259 = ADVANCED_FACE ( 'NONE', ( #271 ), #48, .T. ) ;
#260 = CIRCLE ( 'NONE', #230, 8.000000000000001776 ) ;
#261 = ORIENTED_EDGE ( 'NONE', *, *, #190, .T. ) ;
#262 = APPLICATION_CONTEXT ( 'automotive_design' ) ;
#263 = CIRCLE ( 'NONE', #312, 8.000000000000001776 ) ;
#264 = APPLICATION_PROTOCOL_DEFINITION ( 'draft international standard', 'automotive_design', 1998, #284 ) ;
#265 = STYLED_ITEM ( 'NONE', ( #52 ), #122 ) ;
#266 = CARTESIAN_POINT ( 'NONE',  ( 0.000000000000000000, 0.000000000000000000, 0.000000000000000000 ) ) ;
#267 = EDGE_LOOP ( 'NONE', ( #174, #9, #134, #233 ) ) ;
#268 = AXIS2_PLACEMENT_3D ( 'NONE', #142, #129, #116 ) ;
#269 = CARTESIAN_POINT ( 'NONE',  ( 0.000000000000000000, 1.000000000000000000, 0.000000000000000000 ) ) ;
#270 = UNCERTAINTY_MEASURE_WITH_UNIT (LENGTH_MEASURE( 1.000000000000000082E-05 ), #197, 'distance_accuracy_value', 'NONE');
#271 = FACE_OUTER_BOUND ( 'NONE', #65, .T. ) ;
#272 = ORIENTED_EDGE ( 'NONE', *, *, #40, .F. ) ;
#273 = DIRECTION ( 'NONE',  ( 1.000000000000000000, 1.213802797673107944E-16, 0.000000000000000000 ) ) ;
#274 = DIRECTION ( 'NONE',  ( 0.000000000000000000, -1.000000000000000000, -0.000000000000000000 ) ) ;
#275 =( GEOMETRIC_REPRESENTATION_CONTEXT ( 3 ) GLOBAL_UNCERTAINTY_ASSIGNED_CONTEXT ( ( #258 ) ) GLOBAL_UNIT_ASSIGNED_CONTEXT ( ( #1, #85, #309 ) ) REPRESENTATION_CONTEXT ( 'NONE', 'WORKASPACE' ) );
#276 = DIRECTION ( 'NONE',  ( 0.000000000000000000, 0.000000000000000000, -1.000000000000000000 ) ) ;
#277 = ADVANCED_FACE ( 'NONE', ( #215 ), #333, .T. ) ;
#278 = CARTESIAN_POINT ( 'NONE',  ( 0.000000000000000000, 1.000000000000000000, 0.000000000000000000 ) ) ;
#279 = COLOUR_RGB ( '',0.7921568627450980005, 0.8196078431372548767, 0.9333333333333333481 ) ;
#280 = ADVANCED_FACE ( 'NONE', ( #33 ), #16, .T. ) ;
#281 = FILL_AREA_STYLE ('',( #160 ) ) ;
#282 = DIRECTION ( 'NONE',  ( 0.000000000000000000, 0.000000000000000000, -1.000000000000000000 ) ) ;
#283 = PRESENTATION_STYLE_ASSIGNMENT (( #192 ) ) ;
#284 = APPLICATION_CONTEXT ( 'automotive_design' ) ;
#285 =( NAMED_UNIT ( * ) SI_UNIT ( $, .STERADIAN. ) SOLID_ANGLE_UNIT ( ) );
#286 = AXIS2_PLACEMENT_3D ( 'NONE', #298, #245, #27 ) ;
#287 =( GEOMETRIC_REPRESENTATION_CONTEXT ( 3 ) GLOBAL_UNCERTAINTY_ASSIGNED_CONTEXT ( ( #270 ) ) GLOBAL_UNIT_ASSIGNED_CONTEXT ( ( #197, #5, #348 ) ) REPRESENTATION_CONTEXT ( 'NONE', 'WORKASPACE' ) );
#288 = VERTEX_POINT ( 'NONE', #73 ) ;
#289 = DIRECTION ( 'NONE',  ( 1.000000000000000000, 0.000000000000000000, 0.000000000000000000 ) ) ;
#290 = VECTOR ( 'NONE', #297, 1000.000000000000000 ) ;
#291 = VERTEX_POINT ( 'NONE', #362 ) ;
#292 = ORIENTED_EDGE ( 'NONE', *, *, #98, .F. ) ;
#293 = STYLED_ITEM ( 'NONE', ( #63 ), #74 ) ;
#294 = ORIENTED_EDGE ( 'NONE', *, *, #28, .F. ) ;
#295 = DIRECTION ( 'NONE',  ( 0.000000000000000000, 0.000000000000000000, -1.000000000000000000 ) ) ;
#296 = ORIENTED_EDGE ( 'NONE', *, *, #146, .T. ) ;
#297 = DIRECTION ( 'NONE',  ( -1.213802797673107944E-16, 1.000000000000000000, -0.000000000000000000 ) ) ;
#298 = CARTESIAN_POINT ( 'NONE',  ( 5.204170427930421283E-15, 32.00000000000000000, 0.000000000000000000 ) ) ;
#299 = EDGE_CURVE ( 'NONE', #236, #291, #140, .T. ) ;
#300 = DIRECTION ( 'NONE',  ( -1.213802797673107944E-16, 1.000000000000000000, -0.000000000000000000 ) ) ;
#301 = CARTESIAN_POINT ( 'NONE',  ( 5.204170427930421283E-15, 32.00000000000000000, 0.000000000000000000 ) ) ;
#302 = CARTESIAN_POINT ( 'NONE',  ( 8.572527594031473190E-16, 1.000000000000000000, 7.000000000000000000 ) ) ;
#303 = SURFACE_STYLE_FILL_AREA ( #54 ) ;
#304 = SURFACE_STYLE_USAGE ( .BOTH. , #20 ) ;
#305 = PLANE ( 'NONE',  #286 ) ;
#306 = CIRCLE ( 'NONE', #117, 7.000000000000000000 ) ;
#307 = DIRECTION ( 'NONE',  ( -0.000000000000000000, -1.000000000000000000, -0.000000000000000000 ) ) ;
#308 = STYLED_ITEM ( 'NONE', ( #283 ), #280 ) ;
#309 =( NAMED_UNIT ( * ) SI_UNIT ( $, .STERADIAN. ) SOLID_ANGLE_UNIT ( ) );
#310 = PRESENTATION_STYLE_ASSIGNMENT (( #368 ) ) ;
#311 = ADVANCED_FACE ( 'NONE', ( #183 ), #305, .F. ) ;
#312 = AXIS2_PLACEMENT_3D ( 'NONE', #109, #214, #243 ) ;
#313 =( NAMED_UNIT ( * ) PLANE_ANGLE_UNIT ( ) SI_UNIT ( $, .RADIAN. ) );
#314 = AXIS2_PLACEMENT_3D ( 'NONE', #228, #194, #87 ) ;
#315 = AXIS2_PLACEMENT_3D ( 'NONE', #337, #300, #154 ) ;
#316 = PRODUCT_DEFINITION_CONTEXT ( 'detailed design', #284, 'design' ) ;
#317 = PRESENTATION_LAYER_ASSIGNMENT (  '', '', ( #293 ) ) ;
#318 = ORIENTED_EDGE ( 'NONE', *, *, #64, .T. ) ;
#319 = ORIENTED_EDGE ( 'NONE', *, *, #180, .F. ) ;
#320 = AXIS2_PLACEMENT_3D ( 'NONE', #165, #202, #289 ) ;
#321 = ORIENTED_EDGE ( 'NONE', *, *, #257, .T. ) ;
#322 = CIRCLE ( 'NONE', #57, 7.000000000000000000 ) ;
#323 = SURFACE_STYLE_FILL_AREA ( #102 ) ;
#324 = PRESENTATION_LAYER_ASSIGNMENT (  '', '', ( #224 ) ) ;
#325 = ORIENTED_EDGE ( 'NONE', *, *, #231, .F. ) ;
#326 = CARTESIAN_POINT ( 'NONE',  ( 0.000000000000000000, 1.000000000000000000, 0.000000000000000000 ) ) ;
#327 = DIRECTION ( 'NONE',  ( 0.000000000000000000, 0.000000000000000000, -1.000000000000000000 ) ) ;
#328 = ORIENTED_EDGE ( 'NONE', *, *, #28, .T. ) ;
#329 = CYLINDRICAL_SURFACE ( 'NONE', #30, 7.999999999999998224 ) ;
#330 = DIRECTION ( 'NONE',  ( -1.000000000000000000, 0.000000000000000000, 0.000000000000000000 ) ) ;
#331 = FACE_OUTER_BOUND ( 'NONE', #351, .T. ) ;
#332 = DIRECTION ( 'NONE',  ( -1.213802797673107944E-16, 1.000000000000000000, -0.000000000000000000 ) ) ;
#333 = CYLINDRICAL_SURFACE ( 'NONE', #56, 8.000000000000000000 ) ;
#334 = DIRECTION ( 'NONE',  ( -0.000000000000000000, -1.000000000000000000, -0.000000000000000000 ) ) ;
#335 = PRODUCT_RELATED_PRODUCT_CATEGORY ( 'part', '', ( #46 ) ) ;
#336 =( NAMED_UNIT ( * ) SI_UNIT ( $, .STERADIAN. ) SOLID_ANGLE_UNIT ( ) );
#337 = CARTESIAN_POINT ( 'NONE',  ( -1.714505518806293849E-15, 89.00000000000000000, 0.000000000000000000 ) ) ;
#338 = AXIS2_PLACEMENT_3D ( 'NONE', #326, #222, #184 ) ;
#339 = CARTESIAN_POINT ( 'NONE',  ( 8.000000000000000000, 89.00000000000000000, 0.000000000000000000 ) ) ;
#340 =( LENGTH_UNIT ( ) NAMED_UNIT ( * ) SI_UNIT ( .MILLI., .METRE. ) );
#341 =( LENGTH_UNIT ( ) NAMED_UNIT ( * ) SI_UNIT ( .MILLI., .METRE. ) );
#342 = PRESENTATION_LAYER_ASSIGNMENT (  '', '', ( #3 ) ) ;
#343 = SURFACE_SIDE_STYLE ('',( #225 ) ) ;
#344 = SURFACE_STYLE_FILL_AREA ( #59 ) ;
#345 = FILL_AREA_STYLE_COLOUR ( '', #24 ) ;
#346 =( LENGTH_UNIT ( ) NAMED_UNIT ( * ) SI_UNIT ( .MILLI., .METRE. ) );
#347 = COLOUR_RGB ( '',1.000000000000000000, 0.000000000000000000, 0.000000000000000000 ) ;
#348 =( NAMED_UNIT ( * ) SI_UNIT ( $, .STERADIAN. ) SOLID_ANGLE_UNIT ( ) );
#349 = PRODUCT_CONTEXT ( 'NONE', #262, 'mechanical' ) ;
#350 = AXIS2_PLACEMENT_3D ( 'NONE', #113, #307, #295 ) ;
#351 = EDGE_LOOP ( 'NONE', ( #66, #261, #128, #232 ) ) ;
#352 = PRODUCT_DEFINITION ( 'UNKNOWN', '', #83, #316 ) ;
#353 = TOROIDAL_SURFACE ( 'NONE', #168, 7.000000000000000000, 1.000000000000000000 ) ;
#354 = ORIENTED_EDGE ( 'NONE', *, *, #149, .T. ) ;
#355 = EDGE_CURVE ( 'NONE', #166, #239, #112, .T. ) ;
#356 = EDGE_LOOP ( 'NONE', ( #204, #99, #296, #203 ) ) ;
#357 = DIRECTION ( 'NONE',  ( -0.000000000000000000, -1.000000000000000000, -0.000000000000000000 ) ) ;
#358 = EDGE_LOOP ( 'NONE', ( #325, #131 ) ) ;
#359 = DIRECTION ( 'NONE',  ( 1.213802797673107944E-16, -1.000000000000000000, 0.000000000000000000 ) ) ;
#360 = EDGE_LOOP ( 'NONE', ( #97, #319 ) ) ;
#361 = FILL_AREA_STYLE ('',( #370 ) ) ;
#362 = CARTESIAN_POINT ( 'NONE',  ( 8.000000000000000000, 32.00000000000000000, 9.797174393178825657E-16 ) ) ;
#363 = PRESENTATION_LAYER_ASSIGNMENT (  '', '', ( #199 ) ) ;
#364 = CARTESIAN_POINT ( 'NONE',  ( 9.797174393178825657E-16, 32.00000000000000000, 8.000000000000000000 ) ) ;
#365 = FACE_OUTER_BOUND ( 'NONE', #267, .T. ) ;
#366 = DIRECTION ( 'NONE',  ( 0.000000000000000000, 1.000000000000000000, 0.000000000000000000 ) ) ;
#367 = SURFACE_SIDE_STYLE ('',( #303 ) ) ;
#368 = SURFACE_STYLE_USAGE ( .BOTH. , #179 ) ;
#369 = PRESENTATION_STYLE_ASSIGNMENT (( #136 ) ) ;
#370 = FILL_AREA_STYLE_COLOUR ( '', #137 ) ;
ENDSEC;
END-ISO-10303-21;
