ISO-10303-21;
HEADER;
FILE_DESCRIPTION (( 'STEP AP214' ),
    '1' );
FILE_NAME ('30557.STEP',
    '2023-06-22T18:41:01',
    ( '' ),
    ( '' ),
    'SwSTEP 2.0',
    'SolidWorks 2023',
    '' );
FILE_SCHEMA (( 'AUTOMOTIVE_DESIGN' ));
ENDSEC;

DATA;
#1 = FILL_AREA_STYLE_COLOUR ( '', #46 ) ;
#2 = FILL_AREA_STYLE_COLOUR ( '', #101 ) ;
#3 = DIRECTION ( 'NONE',  ( -0.000000000000000000, -1.000000000000000000, -0.000000000000000000 ) ) ;
#4 = AXIS2_PLACEMENT_3D ( 'NONE', #225, #26, #268 ) ;
#5 =( NAMED_UNIT ( * ) PLANE_ANGLE_UNIT ( ) SI_UNIT ( $, .RADIAN. ) );
#6 =( LENGTH_UNIT ( ) NAMED_UNIT ( * ) SI_UNIT ( $, .METRE. ) );
#7 = UNCERTAINTY_MEASURE_WITH_UNIT (LENGTH_MEASURE( 1.000000000000000082E-05 ), #88, 'distance_accuracy_value', 'NONE');
#8 = DIRECTION ( 'NONE',  ( 0.000000000000000000, 1.000000000000000000, 0.000000000000000000 ) ) ;
#9 = AXIS2_PLACEMENT_3D ( 'NONE', #161, #34, #249 ) ;
#10 = DIRECTION ( 'NONE',  ( -0.000000000000000000, -1.000000000000000000, -0.000000000000000000 ) ) ;
#11 = CARTESIAN_POINT ( 'NONE',  ( 0.000000000000000000, 0.000000000000000000, -0.3125000000000000000 ) ) ;
#12 =( CONVERSION_BASED_UNIT ( 'INCH', #236 ) LENGTH_UNIT ( ) NAMED_UNIT ( #24 ) );
#13 = EDGE_CURVE ( 'NONE', #309, #256, #141, .T. ) ;
#14 = ADVANCED_FACE ( 'NONE', ( #121 ), #164, .T. ) ;
#15 = LENGTH_MEASURE_WITH_UNIT ( LENGTH_MEASURE( 0.02539999999999999897 ), #278 );
#16 = FILL_AREA_STYLE ('',( #165 ) ) ;
#17 =( NAMED_UNIT ( * ) SI_UNIT ( $, .STERADIAN. ) SOLID_ANGLE_UNIT ( ) );
#18 = LINE ( 'NONE', #129, #56 ) ;
#19 = DIRECTION ( 'NONE',  ( 0.000000000000000000, 0.000000000000000000, 1.000000000000000000 ) ) ;
#20 = EDGE_CURVE ( 'NONE', #89, #270, #117, .T. ) ;
#21 =( NAMED_UNIT ( * ) PLANE_ANGLE_UNIT ( ) SI_UNIT ( $, .RADIAN. ) );
#22 = MECHANICAL_DESIGN_GEOMETRIC_PRESENTATION_REPRESENTATION (  '', ( #136 ), #238 ) ;
#23 = CARTESIAN_POINT ( 'NONE',  ( 0.000000000000000000, 0.000000000000000000, 0.000000000000000000 ) ) ;
#24 = DIMENSIONAL_EXPONENTS ( 1.000000000000000000, 0.000000000000000000, 0.000000000000000000, 0.000000000000000000, 0.000000000000000000, 0.000000000000000000, 0.000000000000000000 ) ;
#25 = ORIENTED_EDGE ( 'NONE', *, *, #151, .T. ) ;
#26 = DIRECTION ( 'NONE',  ( -0.000000000000000000, -1.000000000000000000, -0.000000000000000000 ) ) ;
#27 = VERTEX_POINT ( 'NONE', #296 ) ;
#28 =( CONVERSION_BASED_UNIT ( 'INCH', #33 ) LENGTH_UNIT ( ) NAMED_UNIT ( #254 ) );
#29 = CIRCLE ( 'NONE', #212, 0.3125000000000000000 ) ;
#30 = CIRCLE ( 'NONE', #240, 0.3125000000000000000 ) ;
#31 = CIRCLE ( 'NONE', #206, 0.3125000000000000000 ) ;
#32 = VERTEX_POINT ( 'NONE', #59 ) ;
#33 = LENGTH_MEASURE_WITH_UNIT ( LENGTH_MEASURE( 0.02539999999999999897 ), #274 );
#34 = DIRECTION ( 'NONE',  ( 5.442874662877122626E-17, 1.000000000000000000, -0.000000000000000000 ) ) ;
#35 = EDGE_CURVE ( 'NONE', #27, #256, #29, .T. ) ;
#36 = ADVANCED_FACE ( 'NONE', ( #38 ), #252, .F. ) ;
#37 = SURFACE_SIDE_STYLE ('',( #138 ) ) ;
#38 = FACE_OUTER_BOUND ( 'NONE', #178, .T. ) ;
#39 = DIRECTION ( 'NONE',  ( 5.442874662877122010E-17, 1.000000000000000000, -0.000000000000000000 ) ) ;
#40 =( LENGTH_UNIT ( ) NAMED_UNIT ( * ) SI_UNIT ( $, .METRE. ) );
#41 = MECHANICAL_DESIGN_GEOMETRIC_PRESENTATION_REPRESENTATION (  '', ( #203 ), #67 ) ;
#42 = ORIENTED_EDGE ( 'NONE', *, *, #20, .F. ) ;
#43 = DIRECTION ( 'NONE',  ( 1.000000000000000000, 0.000000000000000000, 0.000000000000000000 ) ) ;
#44 = STYLED_ITEM ( 'NONE', ( #235 ), #279 ) ;
#45 =( NAMED_UNIT ( * ) SI_UNIT ( $, .STERADIAN. ) SOLID_ANGLE_UNIT ( ) );
#46 = COLOUR_RGB ( '',1.000000000000000000, 0.000000000000000000, 0.000000000000000000 ) ;
#47 = CARTESIAN_POINT ( 'NONE',  ( 0.000000000000000000, 0.000000000000000000, 0.000000000000000000 ) ) ;
#48 = EDGE_LOOP ( 'NONE', ( #297, #108, #282, #267 ) ) ;
#49 = ORIENTED_EDGE ( 'NONE', *, *, #151, .F. ) ;
#50 = UNCERTAINTY_MEASURE_WITH_UNIT (LENGTH_MEASURE( 1.000000000000000082E-05 ), #12, 'distance_accuracy_value', 'NONE');
#51 = VECTOR ( 'NONE', #255, 39.37007874015748143 ) ;
#52 = DIRECTION ( 'NONE',  ( -5.442874662877122010E-17, -1.000000000000000000, 0.000000000000000000 ) ) ;
#53 = CIRCLE ( 'NONE', #4, 0.3125000000000000000 ) ;
#54 = MANIFOLD_SOLID_BREP ( 'Revolve - Tool Body (Straight Shanked)', #95 ) ;
#55 = ORIENTED_EDGE ( 'NONE', *, *, #159, .T. ) ;
#56 = VECTOR ( 'NONE', #179, 39.37007874015748143 ) ;
#57 = DIRECTION ( 'NONE',  ( 0.000000000000000000, 0.000000000000000000, -1.000000000000000000 ) ) ;
#58 = UNCERTAINTY_MEASURE_WITH_UNIT (LENGTH_MEASURE( 1.000000000000000082E-05 ), #28, 'distance_accuracy_value', 'NONE');
#59 = CARTESIAN_POINT ( 'NONE',  ( 0.3125000000000000000, 3.000000000000000444, 3.827021247335477694E-17 ) ) ;
#60 = DIMENSIONAL_EXPONENTS ( 1.000000000000000000, 0.000000000000000000, 0.000000000000000000, 0.000000000000000000, 0.000000000000000000, 0.000000000000000000, 0.000000000000000000 ) ;
#61 = FILL_AREA_STYLE ('',( #2 ) ) ;
#62 = DIRECTION ( 'NONE',  ( 0.000000000000000000, -0.000000000000000000, 1.000000000000000000 ) ) ;
#63 = MANIFOLD_SOLID_BREP ( 'Revolve - Cutting Edge', #126 ) ;
#64 = PRESENTATION_STYLE_ASSIGNMENT (( #120 ) ) ;
#65 =( NAMED_UNIT ( * ) PLANE_ANGLE_UNIT ( ) SI_UNIT ( $, .RADIAN. ) );
#66 = FILL_AREA_STYLE_COLOUR ( '', #273 ) ;
#67 =( GEOMETRIC_REPRESENTATION_CONTEXT ( 3 ) GLOBAL_UNCERTAINTY_ASSIGNED_CONTEXT ( ( #271 ) ) GLOBAL_UNIT_ASSIGNED_CONTEXT ( ( #81, #21, #281 ) ) REPRESENTATION_CONTEXT ( 'NONE', 'WORKASPACE' ) );
#68 = PLANE ( 'NONE',  #128 ) ;
#69 = DIRECTION ( 'NONE',  ( -1.000000000000000000, 0.000000000000000000, 0.000000000000000000 ) ) ;
#70 = PRODUCT_CONTEXT ( 'NONE', #230, 'mechanical' ) ;
#71 = PRODUCT_RELATED_PRODUCT_CATEGORY ( 'part', '', ( #111 ) ) ;
#72 = CARTESIAN_POINT ( 'NONE',  ( -0.3125000000000000000, 0.7499999999999998890, 0.000000000000000000 ) ) ;
#73 = CARTESIAN_POINT ( 'NONE',  ( -0.3124999999999997224, 3.000000000000000444, 0.000000000000000000 ) ) ;
#74 = AXIS2_PLACEMENT_3D ( 'NONE', #177, #52, #85 ) ;
#75 = LENGTH_MEASURE_WITH_UNIT ( LENGTH_MEASURE( 0.02539999999999999897 ), #40 );
#76 = DIRECTION ( 'NONE',  ( -1.000000000000000000, 0.000000000000000000, 0.000000000000000000 ) ) ;
#77 = EDGE_CURVE ( 'NONE', #89, #250, #31, .T. ) ;
#78 =( LENGTH_UNIT ( ) NAMED_UNIT ( * ) SI_UNIT ( $, .METRE. ) );
#79 = AXIS2_PLACEMENT_3D ( 'NONE', #23, #3, #241 ) ;
#80 = SURFACE_SIDE_STYLE ('',( #218 ) ) ;
#81 =( CONVERSION_BASED_UNIT ( 'INCH', #172 ) LENGTH_UNIT ( ) NAMED_UNIT ( #163 ) );
#82 = ORIENTED_EDGE ( 'NONE', *, *, #35, .T. ) ;
#83 = FACE_OUTER_BOUND ( 'NONE', #269, .T. ) ;
#84 = DIRECTION ( 'NONE',  ( -1.000000000000000000, 0.000000000000000000, 0.000000000000000000 ) ) ;
#85 = DIRECTION ( 'NONE',  ( 1.000000000000000000, -5.442874662877122010E-17, 0.000000000000000000 ) ) ;
#86 = STYLED_ITEM ( 'NONE', ( #233 ), #54 ) ;
#87 = DIRECTION ( 'NONE',  ( -1.000000000000000000, 5.442874662877122010E-17, 0.000000000000000000 ) ) ;
#88 =( CONVERSION_BASED_UNIT ( 'INCH', #292 ) LENGTH_UNIT ( ) NAMED_UNIT ( #115 ) );
#89 = VERTEX_POINT ( 'NONE', #72 ) ;
#90 = SURFACE_STYLE_USAGE ( .BOTH. , #143 ) ;
#91 = SURFACE_SIDE_STYLE ('',( #97 ) ) ;
#92 = CYLINDRICAL_SURFACE ( 'NONE', #169, 0.3124999999999999445 ) ;
#93 =( LENGTH_UNIT ( ) NAMED_UNIT ( * ) SI_UNIT ( $, .METRE. ) );
#94 = FILL_AREA_STYLE_COLOUR ( '', #244 ) ;
#95 = CLOSED_SHELL ( 'NONE', ( #262, #36, #202, #150 ) ) ;
#96 = PRESENTATION_LAYER_ASSIGNMENT (  '', '', ( #86 ) ) ;
#97 = SURFACE_STYLE_FILL_AREA ( #139 ) ;
#98 =( NAMED_UNIT ( * ) PLANE_ANGLE_UNIT ( ) SI_UNIT ( $, .RADIAN. ) );
#99 = SURFACE_STYLE_USAGE ( .BOTH. , #303 ) ;
#100 =( NAMED_UNIT ( * ) PLANE_ANGLE_UNIT ( ) SI_UNIT ( $, .RADIAN. ) );
#101 = COLOUR_RGB ( '',0.7921568627450980005, 0.8196078431372548767, 0.9333333333333333481 ) ;
#102 =( NAMED_UNIT ( * ) SI_UNIT ( $, .STERADIAN. ) SOLID_ANGLE_UNIT ( ) );
#103 =( CONVERSION_BASED_UNIT ( 'INCH', #75 ) LENGTH_UNIT ( ) NAMED_UNIT ( #162 ) );
#104 = ORIENTED_EDGE ( 'NONE', *, *, #223, .F. ) ;
#105 = STYLED_ITEM ( 'NONE', ( #186 ), #14 ) ;
#106 = EDGE_LOOP ( 'NONE', ( #290, #25 ) ) ;
#107 = EDGE_CURVE ( 'NONE', #270, #32, #176, .T. ) ;
#108 = ORIENTED_EDGE ( 'NONE', *, *, #135, .T. ) ;
#109 = COLOUR_RGB ( '',1.000000000000000000, 0.000000000000000000, 0.000000000000000000 ) ;
#110 =( NAMED_UNIT ( * ) SI_UNIT ( $, .STERADIAN. ) SOLID_ANGLE_UNIT ( ) );
#111 = PRODUCT ( '30557', '30557', '', ( #70 ) ) ;
#112 = CARTESIAN_POINT ( 'NONE',  ( 0.000000000000000000, 0.7500000000000001110, 0.000000000000000000 ) ) ;
#113 = CARTESIAN_POINT ( 'NONE',  ( 0.000000000000000000, 0.000000000000000000, 0.000000000000000000 ) ) ;
#114 = PRESENTATION_LAYER_ASSIGNMENT (  '', '', ( #105 ) ) ;
#115 = DIMENSIONAL_EXPONENTS ( 1.000000000000000000, 0.000000000000000000, 0.000000000000000000, 0.000000000000000000, 0.000000000000000000, 0.000000000000000000, 0.000000000000000000 ) ;
#116 = MECHANICAL_DESIGN_GEOMETRIC_PRESENTATION_REPRESENTATION (  '', ( #44 ), #140 ) ;
#117 = LINE ( 'NONE', #204, #51 ) ;
#118 = EDGE_CURVE ( 'NONE', #250, #32, #301, .T. ) ;
#119 = ADVANCED_BREP_SHAPE_REPRESENTATION ( '30557', ( #63, #54, #227 ), #189 ) ;
#120 = SURFACE_STYLE_USAGE ( .BOTH. , #209 ) ;
#121 = FACE_OUTER_BOUND ( 'NONE', #201, .T. ) ;
#122 = CARTESIAN_POINT ( 'NONE',  ( 0.000000000000000000, 0.000000000000000000, 0.000000000000000000 ) ) ;
#123 = DIRECTION ( 'NONE',  ( -0.000000000000000000, -1.000000000000000000, -0.000000000000000000 ) ) ;
#124 = DIRECTION ( 'NONE',  ( -0.000000000000000000, -1.000000000000000000, -0.000000000000000000 ) ) ;
#125 = CARTESIAN_POINT ( 'NONE',  ( 1.224646799147352714E-16, 3.000000000000000444, 0.000000000000000000 ) ) ;
#126 = CLOSED_SHELL ( 'NONE', ( #275, #14, #175, #279 ) ) ;
#127 = AXIS2_PLACEMENT_3D ( 'NONE', #286, #246, #84 ) ;
#128 = AXIS2_PLACEMENT_3D ( 'NONE', #280, #263, #148 ) ;
#129 = CARTESIAN_POINT ( 'NONE',  ( 3.827021247335478926E-17, 0.000000000000000000, 0.3125000000000000000 ) ) ;
#130 = APPLICATION_PROTOCOL_DEFINITION ( 'draft international standard', 'automotive_design', 1998, #261 ) ;
#131 = ORIENTED_EDGE ( 'NONE', *, *, #77, .T. ) ;
#132 = MECHANICAL_DESIGN_GEOMETRIC_PRESENTATION_REPRESENTATION (  '', ( #86 ), #299 ) ;
#133 = ORIENTED_EDGE ( 'NONE', *, *, #222, .F. ) ;
#134 = EDGE_CURVE ( 'NONE', #155, #27, #18, .T. ) ;
#135 = EDGE_CURVE ( 'NONE', #155, #309, #53, .T. ) ;
#136 = STYLED_ITEM ( 'NONE', ( #194 ), #275 ) ;
#137 = FILL_AREA_STYLE ('',( #229 ) ) ;
#138 = SURFACE_STYLE_FILL_AREA ( #137 ) ;
#139 = FILL_AREA_STYLE ('',( #66 ) ) ;
#140 =( GEOMETRIC_REPRESENTATION_CONTEXT ( 3 ) GLOBAL_UNCERTAINTY_ASSIGNED_CONTEXT ( ( #285 ) ) GLOBAL_UNIT_ASSIGNED_CONTEXT ( ( #103, #171, #45 ) ) REPRESENTATION_CONTEXT ( 'NONE', 'WORKASPACE' ) );
#141 = LINE ( 'NONE', #11, #272 ) ;
#142 = UNCERTAINTY_MEASURE_WITH_UNIT (LENGTH_MEASURE( 1.000000000000000082E-05 ), #253, 'distance_accuracy_value', 'NONE');
#143 = SURFACE_SIDE_STYLE ('',( #187 ) ) ;
#144 = FACE_OUTER_BOUND ( 'NONE', #226, .T. ) ;
#145 = DIRECTION ( 'NONE',  ( 5.442874662877122626E-17, 1.000000000000000000, -0.000000000000000000 ) ) ;
#146 = AXIS2_PLACEMENT_3D ( 'NONE', #122, #124, #257 ) ;
#147 = DIRECTION ( 'NONE',  ( 5.442874662877122626E-17, 1.000000000000000000, -0.000000000000000000 ) ) ;
#148 = DIRECTION ( 'NONE',  ( 0.000000000000000000, 0.000000000000000000, -1.000000000000000000 ) ) ;
#149 = FILL_AREA_STYLE ('',( #1 ) ) ;
#150 = ADVANCED_FACE ( 'NONE', ( #243 ), #288, .F. ) ;
#151 = EDGE_CURVE ( 'NONE', #32, #270, #185, .T. ) ;
#152 = ORIENTED_EDGE ( 'NONE', *, *, #118, .F. ) ;
#153 = PRODUCT_DEFINITION_SHAPE ( 'NONE', 'NONE',  #239 ) ;
#154 = CARTESIAN_POINT ( 'NONE',  ( 1.224646799147352714E-16, 3.000000000000000444, 0.000000000000000000 ) ) ;
#155 = VERTEX_POINT ( 'NONE', #264 ) ;
#156 = ORIENTED_EDGE ( 'NONE', *, *, #134, .T. ) ;
#157 = COLOUR_RGB ( '',0.7921568627450980005, 0.8196078431372548767, 0.9333333333333333481 ) ;
#158 = MECHANICAL_DESIGN_GEOMETRIC_PRESENTATION_REPRESENTATION (  '', ( #217 ), #213 ) ;
#159 = EDGE_CURVE ( 'NONE', #256, #27, #295, .T. ) ;
#160 = DIRECTION ( 'NONE',  ( -0.000000000000000000, -1.000000000000000000, -0.000000000000000000 ) ) ;
#161 = CARTESIAN_POINT ( 'NONE',  ( 1.224646799147352714E-16, 3.000000000000000444, 0.000000000000000000 ) ) ;
#162 = DIMENSIONAL_EXPONENTS ( 1.000000000000000000, 0.000000000000000000, 0.000000000000000000, 0.000000000000000000, 0.000000000000000000, 0.000000000000000000, 0.000000000000000000 ) ;
#163 = DIMENSIONAL_EXPONENTS ( 1.000000000000000000, 0.000000000000000000, 0.000000000000000000, 0.000000000000000000, 0.000000000000000000, 0.000000000000000000, 0.000000000000000000 ) ;
#164 = PLANE ( 'NONE',  #173 ) ;
#165 = FILL_AREA_STYLE_COLOUR ( '', #109 ) ;
#166 = ORIENTED_EDGE ( 'NONE', *, *, #159, .F. ) ;
#167 = CARTESIAN_POINT ( 'NONE',  ( 0.000000000000000000, 0.7500000000000001110, 0.000000000000000000 ) ) ;
#168 =( NAMED_UNIT ( * ) PLANE_ANGLE_UNIT ( ) SI_UNIT ( $, .RADIAN. ) );
#169 = AXIS2_PLACEMENT_3D ( 'NONE', #125, #147, #69 ) ;
#170 =( CONVERSION_BASED_UNIT ( 'INCH', #205 ) LENGTH_UNIT ( ) NAMED_UNIT ( #60 ) );
#171 =( NAMED_UNIT ( * ) PLANE_ANGLE_UNIT ( ) SI_UNIT ( $, .RADIAN. ) );
#172 = LENGTH_MEASURE_WITH_UNIT ( LENGTH_MEASURE( 0.02539999999999999897 ), #78 );
#173 = AXIS2_PLACEMENT_3D ( 'NONE', #112, #8, #62 ) ;
#174 = MECHANICAL_DESIGN_GEOMETRIC_PRESENTATION_REPRESENTATION (  '', ( #105 ), #192 ) ;
#175 = ADVANCED_FACE ( 'NONE', ( #196 ), #221, .T. ) ;
#176 = CIRCLE ( 'NONE', #214, 0.3124999999999998890 ) ;
#177 = CARTESIAN_POINT ( 'NONE',  ( 0.3125000000000000000, 3.000000000000000444, 0.000000000000000000 ) ) ;
#178 = EDGE_LOOP ( 'NONE', ( #284, #104 ) ) ;
#179 = DIRECTION ( 'NONE',  ( -0.000000000000000000, -1.000000000000000000, -0.000000000000000000 ) ) ;
#180 = AXIS2_PLACEMENT_3D ( 'NONE', #154, #247, #197 ) ;
#181 = SURFACE_STYLE_USAGE ( .BOTH. , #80 ) ;
#182 = ORIENTED_EDGE ( 'NONE', *, *, #118, .T. ) ;
#183 = SURFACE_STYLE_FILL_AREA ( #61 ) ;
#184 = UNCERTAINTY_MEASURE_WITH_UNIT (LENGTH_MEASURE( 1.000000000000000082E-05 ), #170, 'distance_accuracy_value', 'NONE');
#185 = CIRCLE ( 'NONE', #180, 0.3124999999999998890 ) ;
#186 = PRESENTATION_STYLE_ASSIGNMENT (( #90 ) ) ;
#187 = SURFACE_STYLE_FILL_AREA ( #190 ) ;
#188 = FACE_OUTER_BOUND ( 'NONE', #210, .T. ) ;
#189 =( GEOMETRIC_REPRESENTATION_CONTEXT ( 3 ) GLOBAL_UNCERTAINTY_ASSIGNED_CONTEXT ( ( #50 ) ) GLOBAL_UNIT_ASSIGNED_CONTEXT ( ( #12, #100, #17 ) ) REPRESENTATION_CONTEXT ( 'NONE', 'WORKASPACE' ) );
#190 = FILL_AREA_STYLE ('',( #94 ) ) ;
#191 = FACE_OUTER_BOUND ( 'NONE', #293, .T. ) ;
#192 =( GEOMETRIC_REPRESENTATION_CONTEXT ( 3 ) GLOBAL_UNCERTAINTY_ASSIGNED_CONTEXT ( ( #142 ) ) GLOBAL_UNIT_ASSIGNED_CONTEXT ( ( #253, #65, #208 ) ) REPRESENTATION_CONTEXT ( 'NONE', 'WORKASPACE' ) );
#193 = PRESENTATION_LAYER_ASSIGNMENT (  '', '', ( #136 ) ) ;
#194 = PRESENTATION_STYLE_ASSIGNMENT (( #99 ) ) ;
#195 = DIRECTION ( 'NONE',  ( -1.000000000000000000, 0.000000000000000000, 0.000000000000000000 ) ) ;
#196 = FACE_OUTER_BOUND ( 'NONE', #48, .T. ) ;
#197 = DIRECTION ( 'NONE',  ( -1.000000000000000000, 0.000000000000000000, 0.000000000000000000 ) ) ;
#198 = ORIENTED_EDGE ( 'NONE', *, *, #107, .F. ) ;
#199 = ORIENTED_EDGE ( 'NONE', *, *, #222, .T. ) ;
#200 = DIRECTION ( 'NONE',  ( -0.000000000000000000, -1.000000000000000000, -0.000000000000000000 ) ) ;
#201 = EDGE_LOOP ( 'NONE', ( #133, #220 ) ) ;
#202 = ADVANCED_FACE ( 'NONE', ( #83 ), #219, .T. ) ;
#203 = STYLED_ITEM ( 'NONE', ( #266 ), #175 ) ;
#204 = CARTESIAN_POINT ( 'NONE',  ( -0.3124999999999998335, 3.000000000000000444, 0.000000000000000000 ) ) ;
#205 = LENGTH_MEASURE_WITH_UNIT ( LENGTH_MEASURE( 0.02539999999999999897 ), #6 );
#206 = AXIS2_PLACEMENT_3D ( 'NONE', #224, #277, #76 ) ;
#207 = PRODUCT_DEFINITION_FORMATION_WITH_SPECIFIED_SOURCE ( 'ANY', '', #111, .NOT_KNOWN. ) ;
#208 =( NAMED_UNIT ( * ) SI_UNIT ( $, .STERADIAN. ) SOLID_ANGLE_UNIT ( ) );
#209 = SURFACE_SIDE_STYLE ('',( #183 ) ) ;
#210 = EDGE_LOOP ( 'NONE', ( #199, #156, #166, #308 ) ) ;
#211 = APPLICATION_PROTOCOL_DEFINITION ( 'draft international standard', 'automotive_design', 1998, #230 ) ;
#212 = AXIS2_PLACEMENT_3D ( 'NONE', #113, #160, #57 ) ;
#213 =( GEOMETRIC_REPRESENTATION_CONTEXT ( 3 ) GLOBAL_UNCERTAINTY_ASSIGNED_CONTEXT ( ( #7 ) ) GLOBAL_UNIT_ASSIGNED_CONTEXT ( ( #88, #168, #102 ) ) REPRESENTATION_CONTEXT ( 'NONE', 'WORKASPACE' ) );
#214 = AXIS2_PLACEMENT_3D ( 'NONE', #305, #145, #195 ) ;
#215 = CARTESIAN_POINT ( 'NONE',  ( 0.3125000000000000555, 3.000000000000000444, 3.827021247335477694E-17 ) ) ;
#216 = CARTESIAN_POINT ( 'NONE',  ( 0.000000000000000000, 0.000000000000000000, 0.000000000000000000 ) ) ;
#217 = STYLED_ITEM ( 'NONE', ( #64 ), #63 ) ;
#218 = SURFACE_STYLE_FILL_AREA ( #149 ) ;
#219 = CYLINDRICAL_SURFACE ( 'NONE', #9, 0.3124999999999999445 ) ;
#220 = ORIENTED_EDGE ( 'NONE', *, *, #135, .F. ) ;
#221 = CYLINDRICAL_SURFACE ( 'NONE', #265, 0.3125000000000000000 ) ;
#222 = EDGE_CURVE ( 'NONE', #309, #155, #30, .T. ) ;
#223 = EDGE_CURVE ( 'NONE', #250, #89, #251, .T. ) ;
#224 = CARTESIAN_POINT ( 'NONE',  ( -1.516480271171051896E-32, 0.7499999999999998890, 0.000000000000000000 ) ) ;
#225 = CARTESIAN_POINT ( 'NONE',  ( 0.000000000000000000, 0.7500000000000001110, 0.000000000000000000 ) ) ;
#226 = EDGE_LOOP ( 'NONE', ( #131, #182, #198, #42 ) ) ;
#227 = AXIS2_PLACEMENT_3D ( 'NONE', #216, #19, #43 ) ;
#228 = ORIENTED_EDGE ( 'NONE', *, *, #223, .T. ) ;
#229 = FILL_AREA_STYLE_COLOUR ( '', #157 ) ;
#230 = APPLICATION_CONTEXT ( 'automotive_design' ) ;
#231 = SURFACE_STYLE_USAGE ( .BOTH. , #37 ) ;
#232 = AXIS2_PLACEMENT_3D ( 'NONE', #291, #39, #87 ) ;
#233 = PRESENTATION_STYLE_ASSIGNMENT (( #231 ) ) ;
#234 = DIRECTION ( 'NONE',  ( 0.000000000000000000, 0.000000000000000000, -1.000000000000000000 ) ) ;
#235 = PRESENTATION_STYLE_ASSIGNMENT (( #300 ) ) ;
#236 = LENGTH_MEASURE_WITH_UNIT ( LENGTH_MEASURE( 0.02539999999999999897 ), #298 );
#237 = SURFACE_STYLE_FILL_AREA ( #16 ) ;
#238 =( GEOMETRIC_REPRESENTATION_CONTEXT ( 3 ) GLOBAL_UNCERTAINTY_ASSIGNED_CONTEXT ( ( #58 ) ) GLOBAL_UNIT_ASSIGNED_CONTEXT ( ( #28, #5, #287 ) ) REPRESENTATION_CONTEXT ( 'NONE', 'WORKASPACE' ) );
#239 = PRODUCT_DEFINITION ( 'UNKNOWN', '', #207, #306 ) ;
#240 = AXIS2_PLACEMENT_3D ( 'NONE', #167, #10, #234 ) ;
#241 = DIRECTION ( 'NONE',  ( 0.000000000000000000, 0.000000000000000000, -1.000000000000000000 ) ) ;
#242 = CARTESIAN_POINT ( 'NONE',  ( 0.000000000000000000, 0.7500000000000001110, -0.3125000000000000000 ) ) ;
#243 = FACE_OUTER_BOUND ( 'NONE', #106, .T. ) ;
#244 = COLOUR_RGB ( '',1.000000000000000000, 0.000000000000000000, 0.000000000000000000 ) ;
#245 = PRESENTATION_LAYER_ASSIGNMENT (  '', '', ( #44 ) ) ;
#246 = DIRECTION ( 'NONE',  ( 5.442874662877122626E-17, 1.000000000000000000, -0.000000000000000000 ) ) ;
#247 = DIRECTION ( 'NONE',  ( 5.442874662877122626E-17, 1.000000000000000000, -0.000000000000000000 ) ) ;
#248 = ORIENTED_EDGE ( 'NONE', *, *, #20, .T. ) ;
#249 = DIRECTION ( 'NONE',  ( -1.000000000000000000, 0.000000000000000000, 0.000000000000000000 ) ) ;
#250 = VERTEX_POINT ( 'NONE', #258 ) ;
#251 = CIRCLE ( 'NONE', #127, 0.3125000000000000000 ) ;
#252 = PLANE ( 'NONE',  #232 ) ;
#253 =( CONVERSION_BASED_UNIT ( 'INCH', #15 ) LENGTH_UNIT ( ) NAMED_UNIT ( #294 ) );
#254 = DIMENSIONAL_EXPONENTS ( 1.000000000000000000, 0.000000000000000000, 0.000000000000000000, 0.000000000000000000, 0.000000000000000000, 0.000000000000000000, 0.000000000000000000 ) ;
#255 = DIRECTION ( 'NONE',  ( 5.442874662877122010E-17, 1.000000000000000000, -0.000000000000000000 ) ) ;
#256 = VERTEX_POINT ( 'NONE', #260 ) ;
#257 = DIRECTION ( 'NONE',  ( 0.000000000000000000, 0.000000000000000000, -1.000000000000000000 ) ) ;
#258 = CARTESIAN_POINT ( 'NONE',  ( 0.3125000000000000000, 0.7499999999999998890, 3.827021247335477694E-17 ) ) ;
#259 = SHAPE_DEFINITION_REPRESENTATION ( #153, #119 ) ;
#260 = CARTESIAN_POINT ( 'NONE',  ( 0.000000000000000000, 0.000000000000000000, -0.3125000000000000000 ) ) ;
#261 = APPLICATION_CONTEXT ( 'automotive_design' ) ;
#262 = ADVANCED_FACE ( 'NONE', ( #144 ), #92, .T. ) ;
#263 = DIRECTION ( 'NONE',  ( 0.000000000000000000, -1.000000000000000000, -0.000000000000000000 ) ) ;
#264 = CARTESIAN_POINT ( 'NONE',  ( 3.827021247335478926E-17, 0.7500000000000001110, 0.3125000000000000000 ) ) ;
#265 = AXIS2_PLACEMENT_3D ( 'NONE', #47, #200, #283 ) ;
#266 = PRESENTATION_STYLE_ASSIGNMENT (( #181 ) ) ;
#267 = ORIENTED_EDGE ( 'NONE', *, *, #35, .F. ) ;
#268 = DIRECTION ( 'NONE',  ( 0.000000000000000000, 0.000000000000000000, -1.000000000000000000 ) ) ;
#269 = EDGE_LOOP ( 'NONE', ( #152, #228, #248, #49 ) ) ;
#270 = VERTEX_POINT ( 'NONE', #73 ) ;
#271 = UNCERTAINTY_MEASURE_WITH_UNIT (LENGTH_MEASURE( 1.000000000000000082E-05 ), #81, 'distance_accuracy_value', 'NONE');
#272 = VECTOR ( 'NONE', #123, 39.37007874015748143 ) ;
#273 = COLOUR_RGB ( '',1.000000000000000000, 0.000000000000000000, 0.000000000000000000 ) ;
#274 =( LENGTH_UNIT ( ) NAMED_UNIT ( * ) SI_UNIT ( $, .METRE. ) );
#275 = ADVANCED_FACE ( 'NONE', ( #188 ), #276, .T. ) ;
#276 = CYLINDRICAL_SURFACE ( 'NONE', #146, 0.3125000000000000000 ) ;
#277 = DIRECTION ( 'NONE',  ( 5.442874662877122626E-17, 1.000000000000000000, -0.000000000000000000 ) ) ;
#278 =( LENGTH_UNIT ( ) NAMED_UNIT ( * ) SI_UNIT ( $, .METRE. ) );
#279 = ADVANCED_FACE ( 'NONE', ( #191 ), #68, .T. ) ;
#280 = CARTESIAN_POINT ( 'NONE',  ( 0.000000000000000000, 0.000000000000000000, 0.000000000000000000 ) ) ;
#281 =( NAMED_UNIT ( * ) SI_UNIT ( $, .STERADIAN. ) SOLID_ANGLE_UNIT ( ) );
#282 = ORIENTED_EDGE ( 'NONE', *, *, #13, .T. ) ;
#283 = DIRECTION ( 'NONE',  ( 0.000000000000000000, 0.000000000000000000, -1.000000000000000000 ) ) ;
#284 = ORIENTED_EDGE ( 'NONE', *, *, #77, .F. ) ;
#285 = UNCERTAINTY_MEASURE_WITH_UNIT (LENGTH_MEASURE( 1.000000000000000082E-05 ), #103, 'distance_accuracy_value', 'NONE');
#286 = CARTESIAN_POINT ( 'NONE',  ( -1.516480271171051896E-32, 0.7499999999999998890, 0.000000000000000000 ) ) ;
#287 =( NAMED_UNIT ( * ) SI_UNIT ( $, .STERADIAN. ) SOLID_ANGLE_UNIT ( ) );
#288 = PLANE ( 'NONE',  #74 ) ;
#289 = PRESENTATION_LAYER_ASSIGNMENT (  '', '', ( #203 ) ) ;
#290 = ORIENTED_EDGE ( 'NONE', *, *, #107, .T. ) ;
#291 = CARTESIAN_POINT ( 'NONE',  ( 4.628888218092148898E-34, 0.7500000000000001110, 0.000000000000000000 ) ) ;
#292 = LENGTH_MEASURE_WITH_UNIT ( LENGTH_MEASURE( 0.02539999999999999897 ), #93 );
#293 = EDGE_LOOP ( 'NONE', ( #55, #82 ) ) ;
#294 = DIMENSIONAL_EXPONENTS ( 1.000000000000000000, 0.000000000000000000, 0.000000000000000000, 0.000000000000000000, 0.000000000000000000, 0.000000000000000000, 0.000000000000000000 ) ;
#295 = CIRCLE ( 'NONE', #79, 0.3125000000000000000 ) ;
#296 = CARTESIAN_POINT ( 'NONE',  ( 3.827021247335478926E-17, 0.000000000000000000, 0.3125000000000000000 ) ) ;
#297 = ORIENTED_EDGE ( 'NONE', *, *, #134, .F. ) ;
#298 =( LENGTH_UNIT ( ) NAMED_UNIT ( * ) SI_UNIT ( $, .METRE. ) );
#299 =( GEOMETRIC_REPRESENTATION_CONTEXT ( 3 ) GLOBAL_UNCERTAINTY_ASSIGNED_CONTEXT ( ( #184 ) ) GLOBAL_UNIT_ASSIGNED_CONTEXT ( ( #170, #98, #110 ) ) REPRESENTATION_CONTEXT ( 'NONE', 'WORKASPACE' ) );
#300 = SURFACE_STYLE_USAGE ( .BOTH. , #91 ) ;
#301 = LINE ( 'NONE', #215, #304 ) ;
#302 = DIRECTION ( 'NONE',  ( 5.442874662877122010E-17, 1.000000000000000000, -0.000000000000000000 ) ) ;
#303 = SURFACE_SIDE_STYLE ('',( #237 ) ) ;
#304 = VECTOR ( 'NONE', #302, 39.37007874015748143 ) ;
#305 = CARTESIAN_POINT ( 'NONE',  ( 1.224646799147352714E-16, 3.000000000000000444, 0.000000000000000000 ) ) ;
#306 = PRODUCT_DEFINITION_CONTEXT ( 'detailed design', #261, 'design' ) ;
#307 = PRESENTATION_LAYER_ASSIGNMENT (  '', '', ( #217 ) ) ;
#308 = ORIENTED_EDGE ( 'NONE', *, *, #13, .F. ) ;
#309 = VERTEX_POINT ( 'NONE', #242 ) ;
ENDSEC;
END-ISO-10303-21;
