ISO-10303-21;
HEADER;
FILE_DESCRIPTION (( 'STEP AP214' ),
    '1' );
FILE_NAME ('48045.STEP',
    '2023-06-22T21:02:15',
    ( '' ),
    ( '' ),
    'SwSTEP 2.0',
    'SolidWorks 2023',
    '' );
FILE_SCHEMA (( 'AUTOMOTIVE_DESIGN' ));
ENDSEC;

DATA;
#1 = DIRECTION ( 'NONE',  ( -1.000000000000000000, 0.000000000000000000, 0.000000000000000000 ) ) ;
#2 = EDGE_CURVE ( 'NONE', #63, #304, #172, .T. ) ;
#3 = EDGE_LOOP ( 'NONE', ( #146, #109 ) ) ;
#4 =( LENGTH_UNIT ( ) NAMED_UNIT ( * ) SI_UNIT ( $, .METRE. ) );
#5 = DIRECTION ( 'NONE',  ( -1.000000000000000000, -3.498990854706722745E-17, 0.000000000000000000 ) ) ;
#6 = AXIS2_PLACEMENT_3D ( 'NONE', #66, #248, #1 ) ;
#7 = PRODUCT_DEFINITION_CONTEXT ( 'detailed design', #60, 'design' ) ;
#8 = EDGE_CURVE ( 'NONE', #304, #88, #34, .T. ) ;
#9 = PLANE ( 'NONE',  #222 ) ;
#10 = MANIFOLD_SOLID_BREP ( 'Revolve - Tool Body (Straight Shanked)', #17 ) ;
#11 = DIRECTION ( 'NONE',  ( -3.498990854706722745E-17, 1.000000000000000000, -0.000000000000000000 ) ) ;
#12 = SURFACE_STYLE_FILL_AREA ( #39 ) ;
#13 = CARTESIAN_POINT ( 'NONE',  ( 0.000000000000000000, 0.000000000000000000, 0.000000000000000000 ) ) ;
#14 = UNCERTAINTY_MEASURE_WITH_UNIT (LENGTH_MEASURE( 1.000000000000000082E-05 ), #175, 'distance_accuracy_value', 'NONE');
#15 = ADVANCED_FACE ( 'NONE', ( #94 ), #166, .T. ) ;
#16 =( NAMED_UNIT ( * ) PLANE_ANGLE_UNIT ( ) SI_UNIT ( $, .RADIAN. ) );
#17 = CLOSED_SHELL ( 'NONE', ( #103, #38, #37, #238 ) ) ;
#18 = ORIENTED_EDGE ( 'NONE', *, *, #160, .T. ) ;
#19 = DIRECTION ( 'NONE',  ( 0.000000000000000000, 0.000000000000000000, -1.000000000000000000 ) ) ;
#20 = VECTOR ( 'NONE', #141, 39.37007874015748143 ) ;
#21 = PRESENTATION_STYLE_ASSIGNMENT (( #91 ) ) ;
#22 = EDGE_CURVE ( 'NONE', #279, #202, #272, .T. ) ;
#23 = CARTESIAN_POINT ( 'NONE',  ( -6.123233995736766036E-17, 2.500000000000000000, 0.000000000000000000 ) ) ;
#24 = SURFACE_SIDE_STYLE ('',( #286 ) ) ;
#25 = DIRECTION ( 'NONE',  ( -0.000000000000000000, -1.000000000000000000, -0.000000000000000000 ) ) ;
#26 = PRESENTATION_LAYER_ASSIGNMENT (  '', '', ( #162 ) ) ;
#27 =( LENGTH_UNIT ( ) NAMED_UNIT ( * ) SI_UNIT ( $, .METRE. ) );
#28 = AXIS2_PLACEMENT_3D ( 'NONE', #283, #51, #132 ) ;
#29 = DIRECTION ( 'NONE',  ( -0.000000000000000000, -1.000000000000000000, -0.000000000000000000 ) ) ;
#30 =( NAMED_UNIT ( * ) PLANE_ANGLE_UNIT ( ) SI_UNIT ( $, .RADIAN. ) );
#31 = FILL_AREA_STYLE_COLOUR ( '', #191 ) ;
#32 = DIRECTION ( 'NONE',  ( 0.000000000000000000, -1.000000000000000000, -0.000000000000000000 ) ) ;
#33 =( LENGTH_UNIT ( ) NAMED_UNIT ( * ) SI_UNIT ( $, .METRE. ) );
#34 = LINE ( 'NONE', #192, #229 ) ;
#35 = CARTESIAN_POINT ( 'NONE',  ( 0.09374999999999995837, 2.500000000000000000, 1.148106374200644017E-17 ) ) ;
#36 = ORIENTED_EDGE ( 'NONE', *, *, #22, .F. ) ;
#37 = ADVANCED_FACE ( 'NONE', ( #173 ), #267, .T. ) ;
#38 = ADVANCED_FACE ( 'NONE', ( #176 ), #218, .F. ) ;
#39 = FILL_AREA_STYLE ('',( #101 ) ) ;
#40 = CARTESIAN_POINT ( 'NONE',  ( 0.000000000000000000, 0.000000000000000000, -0.09375000000000001388 ) ) ;
#41 = ORIENTED_EDGE ( 'NONE', *, *, #48, .T. ) ;
#42 = DIRECTION ( 'NONE',  ( -0.000000000000000000, -1.000000000000000000, -0.000000000000000000 ) ) ;
#43 = CARTESIAN_POINT ( 'NONE',  ( 1.148106374200643401E-17, 0.7500000000000001110, 0.09374999999999998612 ) ) ;
#44 = AXIS2_PLACEMENT_3D ( 'NONE', #23, #194, #73 ) ;
#45 = PRESENTATION_LAYER_ASSIGNMENT (  '', '', ( #233 ) ) ;
#46 = AXIS2_PLACEMENT_3D ( 'NONE', #13, #139, #133 ) ;
#47 = ORIENTED_EDGE ( 'NONE', *, *, #171, .F. ) ;
#48 = EDGE_CURVE ( 'NONE', #63, #185, #92, .T. ) ;
#49 = CIRCLE ( 'NONE', #62, 0.09375000000000005551 ) ;
#50 = PLANE ( 'NONE',  #306 ) ;
#51 = DIRECTION ( 'NONE',  ( -0.000000000000000000, -1.000000000000000000, -0.000000000000000000 ) ) ;
#52 = ORIENTED_EDGE ( 'NONE', *, *, #260, .F. ) ;
#53 = DIRECTION ( 'NONE',  ( -1.000000000000000000, 0.000000000000000000, 0.000000000000000000 ) ) ;
#54 = EDGE_LOOP ( 'NONE', ( #143, #18 ) ) ;
#55 = STYLED_ITEM ( 'NONE', ( #174 ), #195 ) ;
#56 = LENGTH_MEASURE_WITH_UNIT ( LENGTH_MEASURE( 0.02539999999999999897 ), #197 );
#57 = EDGE_CURVE ( 'NONE', #88, #185, #287, .T. ) ;
#58 = UNCERTAINTY_MEASURE_WITH_UNIT (LENGTH_MEASURE( 1.000000000000000082E-05 ), #262, 'distance_accuracy_value', 'NONE');
#59 = CARTESIAN_POINT ( 'NONE',  ( 0.000000000000000000, 0.7500000000000001110, 0.000000000000000000 ) ) ;
#60 = APPLICATION_CONTEXT ( 'automotive_design' ) ;
#61 = ORIENTED_EDGE ( 'NONE', *, *, #70, .T. ) ;
#62 = AXIS2_PLACEMENT_3D ( 'NONE', #295, #269, #265 ) ;
#63 = VERTEX_POINT ( 'NONE', #43 ) ;
#64 = PLANE ( 'NONE',  #164 ) ;
#65 =( GEOMETRIC_REPRESENTATION_CONTEXT ( 3 ) GLOBAL_UNCERTAINTY_ASSIGNED_CONTEXT ( ( #223 ) ) GLOBAL_UNIT_ASSIGNED_CONTEXT ( ( #215, #240, #76 ) ) REPRESENTATION_CONTEXT ( 'NONE', 'WORKASPACE' ) );
#66 = CARTESIAN_POINT ( 'NONE',  ( -6.123233995736766036E-17, 2.500000000000000000, 0.000000000000000000 ) ) ;
#67 = ADVANCED_FACE ( 'NONE', ( #261 ), #50, .T. ) ;
#68 = ORIENTED_EDGE ( 'NONE', *, *, #70, .F. ) ;
#69 = SURFACE_STYLE_USAGE ( .BOTH. , #200 ) ;
#70 = EDGE_CURVE ( 'NONE', #105, #298, #99, .T. ) ;
#71 = FACE_OUTER_BOUND ( 'NONE', #205, .T. ) ;
#72 = LENGTH_MEASURE_WITH_UNIT ( LENGTH_MEASURE( 0.02539999999999999897 ), #131 );
#73 = DIRECTION ( 'NONE',  ( -1.000000000000000000, 0.000000000000000000, 0.000000000000000000 ) ) ;
#74 = SURFACE_STYLE_USAGE ( .BOTH. , #136 ) ;
#75 = DIRECTION ( 'NONE',  ( -3.498990854706722745E-17, 1.000000000000000000, -0.000000000000000000 ) ) ;
#76 =( NAMED_UNIT ( * ) SI_UNIT ( $, .STERADIAN. ) SOLID_ANGLE_UNIT ( ) );
#77 =( LENGTH_UNIT ( ) NAMED_UNIT ( * ) SI_UNIT ( $, .METRE. ) );
#78 = EDGE_LOOP ( 'NONE', ( #68, #297 ) ) ;
#79 =( NAMED_UNIT ( * ) PLANE_ANGLE_UNIT ( ) SI_UNIT ( $, .RADIAN. ) );
#80 = SURFACE_STYLE_USAGE ( .BOTH. , #24 ) ;
#81 = PRODUCT_DEFINITION ( 'UNKNOWN', '', #115, #7 ) ;
#82 = CLOSED_SHELL ( 'NONE', ( #15, #188, #195, #67 ) ) ;
#83 = MECHANICAL_DESIGN_GEOMETRIC_PRESENTATION_REPRESENTATION (  '', ( #55 ), #187 ) ;
#84 = EDGE_CURVE ( 'NONE', #298, #202, #155, .T. ) ;
#85 = CARTESIAN_POINT ( 'NONE',  ( -0.09375000000000009714, 2.500000000000000000, 0.000000000000000000 ) ) ;
#86 = FILL_AREA_STYLE_COLOUR ( '', #302 ) ;
#87 = SURFACE_SIDE_STYLE ('',( #110 ) ) ;
#88 = VERTEX_POINT ( 'NONE', #40 ) ;
#89 = ORIENTED_EDGE ( 'NONE', *, *, #84, .T. ) ;
#90 =( GEOMETRIC_REPRESENTATION_CONTEXT ( 3 ) GLOBAL_UNCERTAINTY_ASSIGNED_CONTEXT ( ( #206 ) ) GLOBAL_UNIT_ASSIGNED_CONTEXT ( ( #293, #79, #271 ) ) REPRESENTATION_CONTEXT ( 'NONE', 'WORKASPACE' ) );
#91 = SURFACE_STYLE_USAGE ( .BOTH. , #148 ) ;
#92 = LINE ( 'NONE', #242, #220 ) ;
#93 = CIRCLE ( 'NONE', #28, 0.09374999999999998612 ) ;
#94 = FACE_OUTER_BOUND ( 'NONE', #285, .T. ) ;
#95 = SURFACE_STYLE_USAGE ( .BOTH. , #274 ) ;
#96 = DIRECTION ( 'NONE',  ( -0.000000000000000000, -1.000000000000000000, -0.000000000000000000 ) ) ;
#97 = LENGTH_MEASURE_WITH_UNIT ( LENGTH_MEASURE( 0.02539999999999999897 ), #225 );
#98 =( GEOMETRIC_REPRESENTATION_CONTEXT ( 3 ) GLOBAL_UNCERTAINTY_ASSIGNED_CONTEXT ( ( #249 ) ) GLOBAL_UNIT_ASSIGNED_CONTEXT ( ( #213, #300, #275 ) ) REPRESENTATION_CONTEXT ( 'NONE', 'WORKASPACE' ) );
#99 = CIRCLE ( 'NONE', #255, 0.09374999999999998612 ) ;
#100 = DIMENSIONAL_EXPONENTS ( 1.000000000000000000, 0.000000000000000000, 0.000000000000000000, 0.000000000000000000, 0.000000000000000000, 0.000000000000000000, 0.000000000000000000 ) ;
#101 = FILL_AREA_STYLE_COLOUR ( '', #256 ) ;
#102 = PRESENTATION_STYLE_ASSIGNMENT (( #80 ) ) ;
#103 = ADVANCED_FACE ( 'NONE', ( #235 ), #189, .T. ) ;
#104 = DIMENSIONAL_EXPONENTS ( 1.000000000000000000, 0.000000000000000000, 0.000000000000000000, 0.000000000000000000, 0.000000000000000000, 0.000000000000000000, 0.000000000000000000 ) ;
#105 = VERTEX_POINT ( 'NONE', #280 ) ;
#106 = DIMENSIONAL_EXPONENTS ( 1.000000000000000000, 0.000000000000000000, 0.000000000000000000, 0.000000000000000000, 0.000000000000000000, 0.000000000000000000, 0.000000000000000000 ) ;
#107 = AXIS2_PLACEMENT_3D ( 'NONE', #129, #29, #201 ) ;
#108 = AXIS2_PLACEMENT_3D ( 'NONE', #268, #241, #121 ) ;
#109 = ORIENTED_EDGE ( 'NONE', *, *, #119, .T. ) ;
#110 = SURFACE_STYLE_FILL_AREA ( #116 ) ;
#111 = SURFACE_STYLE_FILL_AREA ( #134 ) ;
#112 = MECHANICAL_DESIGN_GEOMETRIC_PRESENTATION_REPRESENTATION (  '', ( #137 ), #303 ) ;
#113 = ORIENTED_EDGE ( 'NONE', *, *, #8, .T. ) ;
#114 = AXIS2_PLACEMENT_3D ( 'NONE', #150, #270, #5 ) ;
#115 = PRODUCT_DEFINITION_FORMATION_WITH_SPECIFIED_SOURCE ( 'ANY', '', #237, .NOT_KNOWN. ) ;
#116 = FILL_AREA_STYLE ('',( #231 ) ) ;
#117 = PRODUCT_DEFINITION_SHAPE ( 'NONE', 'NONE',  #81 ) ;
#118 = ORIENTED_EDGE ( 'NONE', *, *, #2, .F. ) ;
#119 = EDGE_CURVE ( 'NONE', #185, #88, #239, .T. ) ;
#120 = DIRECTION ( 'NONE',  ( -1.000000000000000000, 0.000000000000000000, 0.000000000000000000 ) ) ;
#121 = DIRECTION ( 'NONE',  ( 1.000000000000000000, 0.000000000000000000, 0.000000000000000000 ) ) ;
#122 = PRESENTATION_STYLE_ASSIGNMENT (( #149 ) ) ;
#123 = UNCERTAINTY_MEASURE_WITH_UNIT (LENGTH_MEASURE( 1.000000000000000082E-05 ), #296, 'distance_accuracy_value', 'NONE');
#124 = COLOUR_RGB ( '',1.000000000000000000, 0.000000000000000000, 0.000000000000000000 ) ;
#125 = DIRECTION ( 'NONE',  ( -1.000000000000000000, 0.000000000000000000, 0.000000000000000000 ) ) ;
#126 =( NAMED_UNIT ( * ) SI_UNIT ( $, .STERADIAN. ) SOLID_ANGLE_UNIT ( ) );
#127 = FILL_AREA_STYLE ('',( #31 ) ) ;
#128 = CARTESIAN_POINT ( 'NONE',  ( -6.123233995736766036E-17, 2.500000000000000000, 0.000000000000000000 ) ) ;
#129 = CARTESIAN_POINT ( 'NONE',  ( 0.000000000000000000, 0.000000000000000000, 0.000000000000000000 ) ) ;
#130 = DIRECTION ( 'NONE',  ( -3.498990854706722745E-17, 1.000000000000000000, -0.000000000000000000 ) ) ;
#131 =( LENGTH_UNIT ( ) NAMED_UNIT ( * ) SI_UNIT ( $, .METRE. ) );
#132 = DIRECTION ( 'NONE',  ( 0.000000000000000000, 0.000000000000000000, -1.000000000000000000 ) ) ;
#133 = DIRECTION ( 'NONE',  ( 0.000000000000000000, 0.000000000000000000, -1.000000000000000000 ) ) ;
#134 = FILL_AREA_STYLE ('',( #289 ) ) ;
#135 = DIMENSIONAL_EXPONENTS ( 1.000000000000000000, 0.000000000000000000, 0.000000000000000000, 0.000000000000000000, 0.000000000000000000, 0.000000000000000000, 0.000000000000000000 ) ;
#136 = SURFACE_SIDE_STYLE ('',( #12 ) ) ;
#137 = STYLED_ITEM ( 'NONE', ( #122 ), #208 ) ;
#138 = LENGTH_MEASURE_WITH_UNIT ( LENGTH_MEASURE( 0.02539999999999999897 ), #77 );
#139 = DIRECTION ( 'NONE',  ( -0.000000000000000000, -1.000000000000000000, -0.000000000000000000 ) ) ;
#140 = AXIS2_PLACEMENT_3D ( 'NONE', #128, #75, #120 ) ;
#141 = DIRECTION ( 'NONE',  ( -3.498990854706722745E-17, 1.000000000000000000, -0.000000000000000000 ) ) ;
#142 =( NAMED_UNIT ( * ) SI_UNIT ( $, .STERADIAN. ) SOLID_ANGLE_UNIT ( ) );
#143 = ORIENTED_EDGE ( 'NONE', *, *, #22, .T. ) ;
#144 = CARTESIAN_POINT ( 'NONE',  ( 1.148106374200643555E-17, 0.000000000000000000, 0.09375000000000001388 ) ) ;
#145 = CARTESIAN_POINT ( 'NONE',  ( 0.000000000000000000, 0.7500000000000001110, -0.09374999999999998612 ) ) ;
#146 = ORIENTED_EDGE ( 'NONE', *, *, #57, .T. ) ;
#147 = LINE ( 'NONE', #85, #20 ) ;
#148 = SURFACE_SIDE_STYLE ('',( #111 ) ) ;
#149 = SURFACE_STYLE_USAGE ( .BOTH. , #87 ) ;
#150 = CARTESIAN_POINT ( 'NONE',  ( 5.738876719369350386E-35, 0.7500000000000001110, 0.000000000000000000 ) ) ;
#151 = DIRECTION ( 'NONE',  ( -0.000000000000000000, -1.000000000000000000, -0.000000000000000000 ) ) ;
#152 = VECTOR ( 'NONE', #130, 39.37007874015748143 ) ;
#153 = PRESENTATION_STYLE_ASSIGNMENT (( #95 ) ) ;
#154 = DIRECTION ( 'NONE',  ( 0.000000000000000000, 0.000000000000000000, -1.000000000000000000 ) ) ;
#155 = LINE ( 'NONE', #35, #152 ) ;
#156 =( CONVERSION_BASED_UNIT ( 'INCH', #138 ) LENGTH_UNIT ( ) NAMED_UNIT ( #158 ) );
#157 =( NAMED_UNIT ( * ) PLANE_ANGLE_UNIT ( ) SI_UNIT ( $, .RADIAN. ) );
#158 = DIMENSIONAL_EXPONENTS ( 1.000000000000000000, 0.000000000000000000, 0.000000000000000000, 0.000000000000000000, 0.000000000000000000, 0.000000000000000000, 0.000000000000000000 ) ;
#159 = FACE_OUTER_BOUND ( 'NONE', #273, .T. ) ;
#160 = EDGE_CURVE ( 'NONE', #202, #279, #49, .T. ) ;
#161 = ORIENTED_EDGE ( 'NONE', *, *, #160, .F. ) ;
#162 = STYLED_ITEM ( 'NONE', ( #153 ), #67 ) ;
#163 = DIRECTION ( 'NONE',  ( 3.498990854706722745E-17, -1.000000000000000000, 0.000000000000000000 ) ) ;
#164 = AXIS2_PLACEMENT_3D ( 'NONE', #308, #163, #190 ) ;
#165 = ORIENTED_EDGE ( 'NONE', *, *, #260, .T. ) ;
#166 = CYLINDRICAL_SURFACE ( 'NONE', #107, 0.09374999999999998612 ) ;
#167 =( GEOMETRIC_REPRESENTATION_CONTEXT ( 3 ) GLOBAL_UNCERTAINTY_ASSIGNED_CONTEXT ( ( #58 ) ) GLOBAL_UNIT_ASSIGNED_CONTEXT ( ( #262, #30, #252 ) ) REPRESENTATION_CONTEXT ( 'NONE', 'WORKASPACE' ) );
#168 = PRESENTATION_STYLE_ASSIGNMENT (( #69 ) ) ;
#169 = FILL_AREA_STYLE ('',( #257 ) ) ;
#170 =( NAMED_UNIT ( * ) PLANE_ANGLE_UNIT ( ) SI_UNIT ( $, .RADIAN. ) );
#171 = EDGE_CURVE ( 'NONE', #105, #279, #147, .T. ) ;
#172 = CIRCLE ( 'NONE', #209, 0.09374999999999998612 ) ;
#173 = FACE_OUTER_BOUND ( 'NONE', #278, .T. ) ;
#174 = PRESENTATION_STYLE_ASSIGNMENT (( #74 ) ) ;
#175 =( CONVERSION_BASED_UNIT ( 'INCH', #72 ) LENGTH_UNIT ( ) NAMED_UNIT ( #104 ) );
#176 = FACE_OUTER_BOUND ( 'NONE', #78, .T. ) ;
#177 = CARTESIAN_POINT ( 'NONE',  ( -7.582401355855259480E-33, 0.7499999999999998890, 0.000000000000000000 ) ) ;
#178 = ORIENTED_EDGE ( 'NONE', *, *, #57, .F. ) ;
#179 = DIRECTION ( 'NONE',  ( 0.000000000000000000, 1.000000000000000000, 0.000000000000000000 ) ) ;
#180 = STYLED_ITEM ( 'NONE', ( #168 ), #10 ) ;
#181 = AXIS2_PLACEMENT_3D ( 'NONE', #214, #243, #125 ) ;
#182 = ORIENTED_EDGE ( 'NONE', *, *, #184, .T. ) ;
#183 = DIMENSIONAL_EXPONENTS ( 1.000000000000000000, 0.000000000000000000, 0.000000000000000000, 0.000000000000000000, 0.000000000000000000, 0.000000000000000000, 0.000000000000000000 ) ;
#184 = EDGE_CURVE ( 'NONE', #298, #105, #193, .T. ) ;
#185 = VERTEX_POINT ( 'NONE', #144 ) ;
#186 = FILL_AREA_STYLE ('',( #86 ) ) ;
#187 =( GEOMETRIC_REPRESENTATION_CONTEXT ( 3 ) GLOBAL_UNCERTAINTY_ASSIGNED_CONTEXT ( ( #277 ) ) GLOBAL_UNIT_ASSIGNED_CONTEXT ( ( #156, #16, #126 ) ) REPRESENTATION_CONTEXT ( 'NONE', 'WORKASPACE' ) );
#188 = ADVANCED_FACE ( 'NONE', ( #71 ), #9, .T. ) ;
#189 = CYLINDRICAL_SURFACE ( 'NONE', #6, 0.09375000000000002776 ) ;
#190 = DIRECTION ( 'NONE',  ( 1.000000000000000000, 3.498990854706722745E-17, 0.000000000000000000 ) ) ;
#191 = COLOUR_RGB ( '',0.7921568627450980005, 0.8196078431372548767, 0.9333333333333333481 ) ;
#192 = CARTESIAN_POINT ( 'NONE',  ( 0.000000000000000000, 0.000000000000000000, -0.09374999999999998612 ) ) ;
#193 = CIRCLE ( 'NONE', #181, 0.09374999999999998612 ) ;
#194 = DIRECTION ( 'NONE',  ( -3.498990854706722745E-17, 1.000000000000000000, -0.000000000000000000 ) ) ;
#195 = ADVANCED_FACE ( 'NONE', ( #159 ), #228, .T. ) ;
#196 = PRODUCT_CONTEXT ( 'NONE', #207, 'mechanical' ) ;
#197 =( LENGTH_UNIT ( ) NAMED_UNIT ( * ) SI_UNIT ( $, .METRE. ) );
#198 = SHAPE_DEFINITION_REPRESENTATION ( #117, #292 ) ;
#199 = DIRECTION ( 'NONE',  ( 0.000000000000000000, 0.000000000000000000, -1.000000000000000000 ) ) ;
#200 = SURFACE_SIDE_STYLE ('',( #226 ) ) ;
#201 = DIRECTION ( 'NONE',  ( 0.000000000000000000, 0.000000000000000000, -1.000000000000000000 ) ) ;
#202 = VERTEX_POINT ( 'NONE', #301 ) ;
#203 = MECHANICAL_DESIGN_GEOMETRIC_PRESENTATION_REPRESENTATION (  '', ( #162 ), #98 ) ;
#204 = PRESENTATION_LAYER_ASSIGNMENT (  '', '', ( #55 ) ) ;
#205 = EDGE_LOOP ( 'NONE', ( #52, #118 ) ) ;
#206 = UNCERTAINTY_MEASURE_WITH_UNIT (LENGTH_MEASURE( 1.000000000000000082E-05 ), #293, 'distance_accuracy_value', 'NONE');
#207 = APPLICATION_CONTEXT ( 'automotive_design' ) ;
#208 = MANIFOLD_SOLID_BREP ( 'Revolve - Cutting Edge', #82 ) ;
#209 = AXIS2_PLACEMENT_3D ( 'NONE', #263, #151, #154 ) ;
#210 = COLOUR_RGB ( '',1.000000000000000000, 0.000000000000000000, 0.000000000000000000 ) ;
#211 = PRODUCT_RELATED_PRODUCT_CATEGORY ( 'part', '', ( #237 ) ) ;
#212 = ORIENTED_EDGE ( 'NONE', *, *, #8, .F. ) ;
#213 =( CONVERSION_BASED_UNIT ( 'INCH', #264 ) LENGTH_UNIT ( ) NAMED_UNIT ( #106 ) );
#214 = CARTESIAN_POINT ( 'NONE',  ( -7.582401355855259480E-33, 0.7499999999999998890, 0.000000000000000000 ) ) ;
#215 =( CONVERSION_BASED_UNIT ( 'INCH', #291 ) LENGTH_UNIT ( ) NAMED_UNIT ( #276 ) );
#216 = MECHANICAL_DESIGN_GEOMETRIC_PRESENTATION_REPRESENTATION (  '', ( #221 ), #259 ) ;
#217 =( NAMED_UNIT ( * ) SI_UNIT ( $, .STERADIAN. ) SOLID_ANGLE_UNIT ( ) );
#218 = PLANE ( 'NONE',  #114 ) ;
#219 = CARTESIAN_POINT ( 'NONE',  ( 0.09374999999999998612, 0.7499999999999998890, 1.148106374200644171E-17 ) ) ;
#220 = VECTOR ( 'NONE', #25, 39.37007874015748143 ) ;
#221 = STYLED_ITEM ( 'NONE', ( #21 ), #15 ) ;
#222 = AXIS2_PLACEMENT_3D ( 'NONE', #59, #179, #247 ) ;
#223 = UNCERTAINTY_MEASURE_WITH_UNIT (LENGTH_MEASURE( 1.000000000000000082E-05 ), #215, 'distance_accuracy_value', 'NONE');
#224 = CARTESIAN_POINT ( 'NONE',  ( 0.000000000000000000, 0.000000000000000000, 0.000000000000000000 ) ) ;
#225 =( LENGTH_UNIT ( ) NAMED_UNIT ( * ) SI_UNIT ( $, .METRE. ) );
#226 = SURFACE_STYLE_FILL_AREA ( #127 ) ;
#227 = DIRECTION ( 'NONE',  ( 0.000000000000000000, 0.000000000000000000, -1.000000000000000000 ) ) ;
#228 = CYLINDRICAL_SURFACE ( 'NONE', #46, 0.09374999999999998612 ) ;
#229 = VECTOR ( 'NONE', #245, 39.37007874015748143 ) ;
#230 = COLOUR_RGB ( '',0.7921568627450980005, 0.8196078431372548767, 0.9333333333333333481 ) ;
#231 = FILL_AREA_STYLE_COLOUR ( '', #230 ) ;
#232 = PRESENTATION_LAYER_ASSIGNMENT (  '', '', ( #180 ) ) ;
#233 = STYLED_ITEM ( 'NONE', ( #102 ), #188 ) ;
#234 = ORIENTED_EDGE ( 'NONE', *, *, #48, .F. ) ;
#235 = FACE_OUTER_BOUND ( 'NONE', #284, .T. ) ;
#236 = PRESENTATION_LAYER_ASSIGNMENT (  '', '', ( #221 ) ) ;
#237 = PRODUCT ( '48045', '48045', '', ( #196 ) ) ;
#238 = ADVANCED_FACE ( 'NONE', ( #307 ), #64, .F. ) ;
#239 = CIRCLE ( 'NONE', #282, 0.09375000000000001388 ) ;
#240 =( NAMED_UNIT ( * ) PLANE_ANGLE_UNIT ( ) SI_UNIT ( $, .RADIAN. ) );
#241 = DIRECTION ( 'NONE',  ( 0.000000000000000000, 0.000000000000000000, 1.000000000000000000 ) ) ;
#242 = CARTESIAN_POINT ( 'NONE',  ( 1.148106374200643401E-17, 0.000000000000000000, 0.09374999999999998612 ) ) ;
#243 = DIRECTION ( 'NONE',  ( -3.498990854706722745E-17, 1.000000000000000000, -0.000000000000000000 ) ) ;
#244 = MECHANICAL_DESIGN_GEOMETRIC_PRESENTATION_REPRESENTATION (  '', ( #180 ), #167 ) ;
#245 = DIRECTION ( 'NONE',  ( -0.000000000000000000, -1.000000000000000000, -0.000000000000000000 ) ) ;
#246 = CARTESIAN_POINT ( 'NONE',  ( 0.000000000000000000, 0.000000000000000000, 0.000000000000000000 ) ) ;
#247 = DIRECTION ( 'NONE',  ( 0.000000000000000000, -0.000000000000000000, 1.000000000000000000 ) ) ;
#248 = DIRECTION ( 'NONE',  ( -3.498990854706722745E-17, 1.000000000000000000, -0.000000000000000000 ) ) ;
#249 = UNCERTAINTY_MEASURE_WITH_UNIT (LENGTH_MEASURE( 1.000000000000000082E-05 ), #213, 'distance_accuracy_value', 'NONE');
#250 = AXIS2_PLACEMENT_3D ( 'NONE', #281, #42, #19 ) ;
#251 = ORIENTED_EDGE ( 'NONE', *, *, #119, .F. ) ;
#252 =( NAMED_UNIT ( * ) SI_UNIT ( $, .STERADIAN. ) SOLID_ANGLE_UNIT ( ) );
#253 = SURFACE_STYLE_FILL_AREA ( #186 ) ;
#254 = ORIENTED_EDGE ( 'NONE', *, *, #2, .T. ) ;
#255 = AXIS2_PLACEMENT_3D ( 'NONE', #177, #11, #53 ) ;
#256 = COLOUR_RGB ( '',1.000000000000000000, 0.000000000000000000, 0.000000000000000000 ) ;
#257 = FILL_AREA_STYLE_COLOUR ( '', #210 ) ;
#258 = ORIENTED_EDGE ( 'NONE', *, *, #84, .F. ) ;
#259 =( GEOMETRIC_REPRESENTATION_CONTEXT ( 3 ) GLOBAL_UNCERTAINTY_ASSIGNED_CONTEXT ( ( #14 ) ) GLOBAL_UNIT_ASSIGNED_CONTEXT ( ( #175, #170, #217 ) ) REPRESENTATION_CONTEXT ( 'NONE', 'WORKASPACE' ) );
#260 = EDGE_CURVE ( 'NONE', #304, #63, #93, .T. ) ;
#261 = FACE_OUTER_BOUND ( 'NONE', #3, .T. ) ;
#262 =( CONVERSION_BASED_UNIT ( 'INCH', #288 ) LENGTH_UNIT ( ) NAMED_UNIT ( #100 ) );
#263 = CARTESIAN_POINT ( 'NONE',  ( 0.000000000000000000, 0.7500000000000001110, 0.000000000000000000 ) ) ;
#264 = LENGTH_MEASURE_WITH_UNIT ( LENGTH_MEASURE( 0.02539999999999999897 ), #33 );
#265 = DIRECTION ( 'NONE',  ( -1.000000000000000000, 0.000000000000000000, 0.000000000000000000 ) ) ;
#266 = PRESENTATION_LAYER_ASSIGNMENT (  '', '', ( #137 ) ) ;
#267 = CYLINDRICAL_SURFACE ( 'NONE', #140, 0.09375000000000002776 ) ;
#268 = CARTESIAN_POINT ( 'NONE',  ( 0.000000000000000000, 0.000000000000000000, 0.000000000000000000 ) ) ;
#269 = DIRECTION ( 'NONE',  ( -3.498990854706722745E-17, 1.000000000000000000, -0.000000000000000000 ) ) ;
#270 = DIRECTION ( 'NONE',  ( -3.498990854706722745E-17, 1.000000000000000000, 0.000000000000000000 ) ) ;
#271 =( NAMED_UNIT ( * ) SI_UNIT ( $, .STERADIAN. ) SOLID_ANGLE_UNIT ( ) );
#272 = CIRCLE ( 'NONE', #44, 0.09375000000000005551 ) ;
#273 = EDGE_LOOP ( 'NONE', ( #234, #254, #113, #251 ) ) ;
#274 = SURFACE_SIDE_STYLE ('',( #253 ) ) ;
#275 =( NAMED_UNIT ( * ) SI_UNIT ( $, .STERADIAN. ) SOLID_ANGLE_UNIT ( ) );
#276 = DIMENSIONAL_EXPONENTS ( 1.000000000000000000, 0.000000000000000000, 0.000000000000000000, 0.000000000000000000, 0.000000000000000000, 0.000000000000000000, 0.000000000000000000 ) ;
#277 = UNCERTAINTY_MEASURE_WITH_UNIT (LENGTH_MEASURE( 1.000000000000000082E-05 ), #156, 'distance_accuracy_value', 'NONE');
#278 = EDGE_LOOP ( 'NONE', ( #258, #182, #305, #161 ) ) ;
#279 = VERTEX_POINT ( 'NONE', #299 ) ;
#280 = CARTESIAN_POINT ( 'NONE',  ( -0.09374999999999998612, 0.7499999999999998890, 0.000000000000000000 ) ) ;
#281 = CARTESIAN_POINT ( 'NONE',  ( 0.000000000000000000, 0.000000000000000000, 0.000000000000000000 ) ) ;
#282 = AXIS2_PLACEMENT_3D ( 'NONE', #224, #96, #199 ) ;
#283 = CARTESIAN_POINT ( 'NONE',  ( 0.000000000000000000, 0.7500000000000001110, 0.000000000000000000 ) ) ;
#284 = EDGE_LOOP ( 'NONE', ( #61, #89, #36, #47 ) ) ;
#285 = EDGE_LOOP ( 'NONE', ( #165, #41, #178, #212 ) ) ;
#286 = SURFACE_STYLE_FILL_AREA ( #169 ) ;
#287 = CIRCLE ( 'NONE', #250, 0.09375000000000001388 ) ;
#288 = LENGTH_MEASURE_WITH_UNIT ( LENGTH_MEASURE( 0.02539999999999999897 ), #4 );
#289 = FILL_AREA_STYLE_COLOUR ( '', #124 ) ;
#290 = APPLICATION_PROTOCOL_DEFINITION ( 'draft international standard', 'automotive_design', 1998, #60 ) ;
#291 = LENGTH_MEASURE_WITH_UNIT ( LENGTH_MEASURE( 0.02539999999999999897 ), #27 );
#292 = ADVANCED_BREP_SHAPE_REPRESENTATION ( '48045', ( #208, #10, #108 ), #65 ) ;
#293 =( CONVERSION_BASED_UNIT ( 'INCH', #56 ) LENGTH_UNIT ( ) NAMED_UNIT ( #135 ) );
#294 = APPLICATION_PROTOCOL_DEFINITION ( 'draft international standard', 'automotive_design', 1998, #207 ) ;
#295 = CARTESIAN_POINT ( 'NONE',  ( -6.123233995736766036E-17, 2.500000000000000000, 0.000000000000000000 ) ) ;
#296 =( CONVERSION_BASED_UNIT ( 'INCH', #97 ) LENGTH_UNIT ( ) NAMED_UNIT ( #183 ) );
#297 = ORIENTED_EDGE ( 'NONE', *, *, #184, .F. ) ;
#298 = VERTEX_POINT ( 'NONE', #219 ) ;
#299 = CARTESIAN_POINT ( 'NONE',  ( -0.09375000000000012490, 2.500000000000000000, 0.000000000000000000 ) ) ;
#300 =( NAMED_UNIT ( * ) PLANE_ANGLE_UNIT ( ) SI_UNIT ( $, .RADIAN. ) );
#301 = CARTESIAN_POINT ( 'NONE',  ( 0.09374999999999998612, 2.500000000000000000, 1.148106374200644171E-17 ) ) ;
#302 = COLOUR_RGB ( '',1.000000000000000000, 0.000000000000000000, 0.000000000000000000 ) ;
#303 =( GEOMETRIC_REPRESENTATION_CONTEXT ( 3 ) GLOBAL_UNCERTAINTY_ASSIGNED_CONTEXT ( ( #123 ) ) GLOBAL_UNIT_ASSIGNED_CONTEXT ( ( #296, #157, #142 ) ) REPRESENTATION_CONTEXT ( 'NONE', 'WORKASPACE' ) );
#304 = VERTEX_POINT ( 'NONE', #145 ) ;
#305 = ORIENTED_EDGE ( 'NONE', *, *, #171, .T. ) ;
#306 = AXIS2_PLACEMENT_3D ( 'NONE', #246, #32, #227 ) ;
#307 = FACE_OUTER_BOUND ( 'NONE', #54, .T. ) ;
#308 = CARTESIAN_POINT ( 'NONE',  ( 0.09374999999999998612, 2.500000000000000000, 0.000000000000000000 ) ) ;
#309 = MECHANICAL_DESIGN_GEOMETRIC_PRESENTATION_REPRESENTATION (  '', ( #233 ), #90 ) ;
ENDSEC;
END-ISO-10303-21;
