ISO-10303-21;
HEADER;
FILE_DESCRIPTION (( 'STEP AP214' ),
    '1' );
FILE_NAME ('Micro_SME-023-2X.STEP',
    '2021-09-02T11:01:10',
    ( '' ),
    ( '' ),
    'SwSTEP 2.0',
    'SolidWorks 2020',
    '' );
FILE_SCHEMA (( 'AUTOMOTIVE_DESIGN' ));
ENDSEC;

DATA;
#1 = ADVANCED_FACE ( 'NONE', ( #236 ), #7, .T. ) ;
#2 = AXIS2_PLACEMENT_3D ( 'NONE', #242, #181, #177 ) ;
#3 = FACE_OUTER_BOUND ( 'NONE', #215, .T. ) ;
#4 = PRESENTATION_LAYER_ASSIGNMENT (  '', '', ( #137 ) ) ;
#5 = CARTESIAN_POINT ( 'NONE',  ( 0.0000000000000000000, 0.0000000000000000000, 0.0000000000000000000 ) ) ;
#6 = ADVANCED_FACE ( 'NONE', ( #64 ), #250, .T. ) ;
#7 = CONICAL_SURFACE ( 'NONE', #176, 0.04750000000000064587, 0.7853981633974466137 ) ;
#8 = EDGE_LOOP ( 'NONE', ( #261, #33, #130, #235 ) ) ;
#9 = ORIENTED_EDGE ( 'NONE', *, *, #170, .T. ) ;
#10 = EDGE_CURVE ( 'NONE', #195, #14, #225, .T. ) ;
#11 = ORIENTED_EDGE ( 'NONE', *, *, #117, .F. ) ;
#12 = ORIENTED_EDGE ( 'NONE', *, *, #160, .F. ) ;
#13 = AXIS2_PLACEMENT_3D ( 'NONE', #138, #227, #161 ) ;
#14 = VERTEX_POINT ( 'NONE', #21 ) ;
#15 = DIRECTION ( 'NONE',  ( -1.224646799147353700E-16, -0.0000000000000000000, -1.000000000000000000 ) ) ;
#16 = FACE_OUTER_BOUND ( 'NONE', #74, .T. ) ;
#17 =( CONVERSION_BASED_UNIT ( 'INCH', #94 ) LENGTH_UNIT ( ) NAMED_UNIT ( #211 ) );
#18 = DIRECTION ( 'NONE',  ( -1.000000000000000000, 0.0000000000000000000, 1.224646799147353700E-16 ) ) ;
#19 = CARTESIAN_POINT ( 'NONE',  ( 1.722999026311076435E-34, 0.0000000000000000000, 1.406935475200437016E-18 ) ) ;
#20 = APPLICATION_CONTEXT ( 'automotive_design' ) ;
#21 = CARTESIAN_POINT ( 'NONE',  ( 0.01148849999999999698, 1.406935475200436438E-18, 0.0000000000000000000 ) ) ;
#22 = FILL_AREA_STYLE ('',( #157 ) ) ;
#23 = AXIS2_PLACEMENT_3D ( 'NONE', #196, #292, #270 ) ;
#24 = SURFACE_STYLE_FILL_AREA ( #166 ) ;
#25 = DIRECTION ( 'NONE',  ( 1.000000000000000000, 0.0000000000000000000, 0.0000000000000000000 ) ) ;
#26 = ADVANCED_FACE ( 'NONE', ( #297 ), #93, .T. ) ;
#27 = CARTESIAN_POINT ( 'NONE',  ( -0.01148849999999999698, 0.0000000000000000000, 1.406935475200437016E-18 ) ) ;
#28 = CIRCLE ( 'NONE', #193, 0.04750000000000064587 ) ;
#29 = CYLINDRICAL_SURFACE ( 'NONE', #256, 0.01148849999999999698 ) ;
#30 = EDGE_CURVE ( 'NONE', #34, #151, #178, .T. ) ;
#31 = ORIENTED_EDGE ( 'NONE', *, *, #257, .F. ) ;
#32 = AXIS2_PLACEMENT_3D ( 'NONE', #38, #223, #61 ) ;
#33 = ORIENTED_EDGE ( 'NONE', *, *, #10, .T. ) ;
#34 = VERTEX_POINT ( 'NONE', #87 ) ;
#35 = ORIENTED_EDGE ( 'NONE', *, *, #134, .F. ) ;
#36 = ORIENTED_EDGE ( 'NONE', *, *, #134, .T. ) ;
#37 = DIRECTION ( 'NONE',  ( 1.000000000000000000, 0.0000000000000000000, 0.0000000000000000000 ) ) ;
#38 = CARTESIAN_POINT ( 'NONE',  ( 4.163799117101003240E-18, 0.0000000000000000000, 0.03400000000000000244 ) ) ;
#39 = DIRECTION ( 'NONE',  ( 0.0000000000000000000, 0.0000000000000000000, 1.000000000000000000 ) ) ;
#40 = PRODUCT_RELATED_PRODUCT_CATEGORY ( 'part', '', ( #66 ) ) ;
#41 = CONICAL_SURFACE ( 'NONE', #2, 0.04750000000000064587, 0.7853981633974466137 ) ;
#42 =( GEOMETRIC_REPRESENTATION_CONTEXT ( 3 ) GLOBAL_UNCERTAINTY_ASSIGNED_CONTEXT ( ( #147 ) ) GLOBAL_UNIT_ASSIGNED_CONTEXT ( ( #205, #224, #179 ) ) REPRESENTATION_CONTEXT ( 'NONE', 'WORKASPACE' ) );
#43 = DIRECTION ( 'NONE',  ( 1.000000000000000000, 0.0000000000000000000, 0.0000000000000000000 ) ) ;
#44 = DIRECTION ( 'NONE',  ( 1.000000000000000000, 0.0000000000000000000, 0.0000000000000000000 ) ) ;
#45 = SURFACE_STYLE_USAGE ( .BOTH. , #135 ) ;
#46 = CARTESIAN_POINT ( 'NONE',  ( 0.0000000000000000000, 0.0000000000000000000, 1.485000000000000764 ) ) ;
#47 = FACE_OUTER_BOUND ( 'NONE', #212, .T. ) ;
#48 = APPLICATION_CONTEXT ( 'automotive_design' ) ;
#49 = LINE ( 'NONE', #71, #239 ) ;
#50 = DIRECTION ( 'NONE',  ( -1.000000000000000000, 0.0000000000000000000, 1.224646799147353700E-16 ) ) ;
#51 = ADVANCED_FACE ( 'NONE', ( #16 ), #41, .T. ) ;
#52 = COLOUR_RGB ( '',0.7921568627450980005, 0.8196078431372548767, 0.9333333333333333481 ) ;
#53 = ORIENTED_EDGE ( 'NONE', *, *, #247, .F. ) ;
#54 = AXIS2_PLACEMENT_3D ( 'NONE', #240, #198, #133 ) ;
#55 = EDGE_CURVE ( 'NONE', #34, #149, #159, .T. ) ;
#56 = VECTOR ( 'NONE', #95, 39.37007874015748143 ) ;
#57 = ORIENTED_EDGE ( 'NONE', *, *, #111, .T. ) ;
#58 = ORIENTED_EDGE ( 'NONE', *, *, #117, .T. ) ;
#59 = ORIENTED_EDGE ( 'NONE', *, *, #10, .F. ) ;
#60 = ORIENTED_EDGE ( 'NONE', *, *, #293, .T. ) ;
#61 = DIRECTION ( 'NONE',  ( -1.000000000000000000, 0.0000000000000000000, 0.0000000000000000000 ) ) ;
#62 = FACE_OUTER_BOUND ( 'NONE', #172, .T. ) ;
#63 = DIRECTION ( 'NONE',  ( 1.000000000000000000, 0.0000000000000000000, 0.0000000000000000000 ) ) ;
#64 = FACE_OUTER_BOUND ( 'NONE', #217, .T. ) ;
#65 = SHAPE_DEFINITION_REPRESENTATION ( #140, #210 ) ;
#66 = PRODUCT ( 'Micro_SME-023-2X', 'Micro_SME-023-2X', '', ( #271 ) ) ;
#67 = CARTESIAN_POINT ( 'NONE',  ( 3.959290358183018304E-17, 0.0000000000000000000, 0.3233005925414273452 ) ) ;
#68 = DIRECTION ( 'NONE',  ( 0.1736481776669313859, 0.0000000000000000000, 0.9848077530122077983 ) ) ;
#69 = LINE ( 'NONE', #255, #56 ) ;
#70 = AXIS2_PLACEMENT_3D ( 'NONE', #275, #186, #273 ) ;
#71 = CARTESIAN_POINT ( 'NONE',  ( -0.01148849999999999524, 1.406935475200436630E-18, 0.03400000000000000244 ) ) ;
#72 = CARTESIAN_POINT ( 'NONE',  ( 4.163799117101003240E-18, 0.0000000000000000000, 0.03400000000000000244 ) ) ;
#73 = VECTOR ( 'NONE', #68, 39.37007874015748143 ) ;
#74 = EDGE_LOOP ( 'NONE', ( #191, #126, #35, #11 ) ) ;
#75 = EDGE_CURVE ( 'NONE', #149, #34, #28, .T. ) ;
#76 = DIRECTION ( 'NONE',  ( 0.0000000000000000000, 0.0000000000000000000, -1.000000000000000000 ) ) ;
#77 = ORIENTED_EDGE ( 'NONE', *, *, #150, .F. ) ;
#78 = CLOSED_SHELL ( 'NONE', ( #167, #6, #51, #26, #80, #282, #1, #200, #187, #105 ) ) ;
#79 = ORIENTED_EDGE ( 'NONE', *, *, #293, .F. ) ;
#80 = ADVANCED_FACE ( 'NONE', ( #245 ), #116, .T. ) ;
#81 = ORIENTED_EDGE ( 'NONE', *, *, #243, .F. ) ;
#82 = CARTESIAN_POINT ( 'NONE',  ( 0.0000000000000000000, 0.0000000000000000000, 0.0000000000000000000 ) ) ;
#83 = AXIS2_PLACEMENT_3D ( 'NONE', #156, #131, #89 ) ;
#84 = VECTOR ( 'NONE', #158, 39.37007874015748143 ) ;
#85 = CIRCLE ( 'NONE', #125, 0.01148849999999999698 ) ;
#86 = DIRECTION ( 'NONE',  ( -1.224646799147353700E-16, -0.0000000000000000000, -1.000000000000000000 ) ) ;
#87 = CARTESIAN_POINT ( 'NONE',  ( 0.04750000000000064587, 6.735557395310483192E-18, 1.500000000000000222 ) ) ;
#88 =( NAMED_UNIT ( * ) SI_UNIT ( $, .STERADIAN. ) SOLID_ANGLE_UNIT ( ) );
#89 = DIRECTION ( 'NONE',  ( -1.000000000000000000, 0.0000000000000000000, 0.0000000000000000000 ) ) ;
#90 = CIRCLE ( 'NONE', #32, 0.01148849999999999871 ) ;
#91 = CIRCLE ( 'NONE', #23, 0.06250000000000002776 ) ;
#92 =( NAMED_UNIT ( * ) SI_UNIT ( $, .STERADIAN. ) SOLID_ANGLE_UNIT ( ) );
#93 = CYLINDRICAL_SURFACE ( 'NONE', #83, 0.06250000000000002776 ) ;
#94 = LENGTH_MEASURE_WITH_UNIT ( LENGTH_MEASURE( 0.02539999999999999897 ), #132 );
#95 = DIRECTION ( 'NONE',  ( -0.0000000000000000000, -0.0000000000000000000, -1.000000000000000000 ) ) ;
#96 = LINE ( 'NONE', #169, #73 ) ;
#97 = PRODUCT_DEFINITION ( 'UNKNOWN', '', #148, #259 ) ;
#98 = PRESENTATION_STYLE_ASSIGNMENT (( #252 ) ) ;
#99 = DIRECTION ( 'NONE',  ( -1.224646799147353700E-16, -0.0000000000000000000, -1.000000000000000000 ) ) ;
#100 = CIRCLE ( 'NONE', #165, 0.01148849999999999871 ) ;
#101 = ORIENTED_EDGE ( 'NONE', *, *, #279, .F. ) ;
#102 = EDGE_CURVE ( 'NONE', #283, #195, #90, .T. ) ;
#103 = ORIENTED_EDGE ( 'NONE', *, *, #170, .F. ) ;
#104 = EDGE_LOOP ( 'NONE', ( #280, #258, #58, #101 ) ) ;
#105 = ADVANCED_FACE ( 'NONE', ( #62 ), #139, .F. ) ;
#106 = AXIS2_PLACEMENT_3D ( 'NONE', #112, #110, #267 ) ;
#107 = ORIENTED_EDGE ( 'NONE', *, *, #55, .T. ) ;
#108 = ORIENTED_EDGE ( 'NONE', *, *, #75, .T. ) ;
#109 = FACE_OUTER_BOUND ( 'NONE', #8, .T. ) ;
#110 = DIRECTION ( 'NONE',  ( 0.0000000000000000000, 0.0000000000000000000, 1.000000000000000000 ) ) ;
#111 = EDGE_CURVE ( 'NONE', #14, #194, #230, .T. ) ;
#112 = CARTESIAN_POINT ( 'NONE',  ( 0.0000000000000000000, 0.0000000000000000000, 1.500000000000000222 ) ) ;
#113 = LENGTH_MEASURE_WITH_UNIT ( LENGTH_MEASURE( 0.02539999999999999897 ), #290 );
#114 = CARTESIAN_POINT ( 'NONE',  ( -0.04750000000000064587, 0.0000000000000000000, 1.500000000000000222 ) ) ;
#115 =( CONVERSION_BASED_UNIT ( 'INCH', #228 ) LENGTH_UNIT ( ) NAMED_UNIT ( #214 ) );
#116 = CYLINDRICAL_SURFACE ( 'NONE', #295, 0.06250000000000002776 ) ;
#117 = EDGE_CURVE ( 'NONE', #149, #128, #201, .T. ) ;
#118 = PRESENTATION_LAYER_ASSIGNMENT (  '', '', ( #222 ) ) ;
#119 = PRESENTATION_STYLE_ASSIGNMENT (( #45 ) ) ;
#120 = CARTESIAN_POINT ( 'NONE',  ( 4.163799117101003240E-18, 0.0000000000000000000, 0.03400000000000000244 ) ) ;
#121 = FACE_OUTER_BOUND ( 'NONE', #146, .T. ) ;
#122 = VECTOR ( 'NONE', #266, 39.37007874015748854 ) ;
#123 = CARTESIAN_POINT ( 'NONE',  ( -0.01148849999999999698, 0.0000000000000000000, 2.813870950400874031E-18 ) ) ;
#124 = ORIENTED_EDGE ( 'NONE', *, *, #102, .F. ) ;
#125 = AXIS2_PLACEMENT_3D ( 'NONE', #185, #141, #50 ) ;
#126 = ORIENTED_EDGE ( 'NONE', *, *, #30, .T. ) ;
#127 = ORIENTED_EDGE ( 'NONE', *, *, #160, .T. ) ;
#128 = VERTEX_POINT ( 'NONE', #202 ) ;
#129 = CIRCLE ( 'NONE', #296, 0.06250000000000002776 ) ;
#130 = ORIENTED_EDGE ( 'NONE', *, *, #274, .F. ) ;
#131 = DIRECTION ( 'NONE',  ( -0.0000000000000000000, -0.0000000000000000000, -1.000000000000000000 ) ) ;
#132 =( LENGTH_UNIT ( ) NAMED_UNIT ( * ) SI_UNIT ( $, .METRE. ) );
#133 = DIRECTION ( 'NONE',  ( 1.000000000000000000, 0.0000000000000000000, 0.0000000000000000000 ) ) ;
#134 = EDGE_CURVE ( 'NONE', #128, #151, #91, .T. ) ;
#135 = SURFACE_SIDE_STYLE ('',( #244 ) ) ;
#136 = DIRECTION ( 'NONE',  ( -0.0000000000000000000, -0.0000000000000000000, -1.000000000000000000 ) ) ;
#137 = STYLED_ITEM ( 'NONE', ( #119 ), #210 ) ;
#138 = CARTESIAN_POINT ( 'NONE',  ( 0.0000000000000000000, 0.0000000000000000000, 0.0000000000000000000 ) ) ;
#139 = PLANE ( 'NONE',  #13 ) ;
#140 = PRODUCT_DEFINITION_SHAPE ( 'NONE', 'NONE',  #97 ) ;
#141 = DIRECTION ( 'NONE',  ( -1.224646799147353700E-16, -0.0000000000000000000, -1.000000000000000000 ) ) ;
#142 = VECTOR ( 'NONE', #184, 39.37007874015748143 ) ;
#143 = CARTESIAN_POINT ( 'NONE',  ( -0.01148849999999999524, 4.530488984935698628E-18, 0.03400000000000000244 ) ) ;
#144 = LINE ( 'NONE', #27, #142 ) ;
#145 = DIRECTION ( 'NONE',  ( -0.0000000000000000000, -0.0000000000000000000, -1.000000000000000000 ) ) ;
#146 = EDGE_LOOP ( 'NONE', ( #108, #107 ) ) ;
#147 = UNCERTAINTY_MEASURE_WITH_UNIT (LENGTH_MEASURE( 1.000000000000000082E-05 ), #205, 'distance_accuracy_value', 'NONE');
#148 = PRODUCT_DEFINITION_FORMATION_WITH_SPECIFIED_SOURCE ( 'ANY', '', #66, .NOT_KNOWN. ) ;
#149 = VERTEX_POINT ( 'NONE', #272 ) ;
#150 = EDGE_CURVE ( 'NONE', #263, #238, #188, .T. ) ;
#151 = VERTEX_POINT ( 'NONE', #203 ) ;
#152 = ORIENTED_EDGE ( 'NONE', *, *, #274, .T. ) ;
#153 = VECTOR ( 'NONE', #220, 39.37007874015748854 ) ;
#154 = CARTESIAN_POINT ( 'NONE',  ( 3.959290358183018304E-17, 0.0000000000000000000, 0.3233005925414273452 ) ) ;
#155 = DIRECTION ( 'NONE',  ( -1.224646799147353700E-16, -0.0000000000000000000, -1.000000000000000000 ) ) ;
#156 = CARTESIAN_POINT ( 'NONE',  ( 0.0000000000000000000, 0.0000000000000000000, 1.500000000000000222 ) ) ;
#157 = FILL_AREA_STYLE_COLOUR ( '', #288 ) ;
#158 = DIRECTION ( 'NONE',  ( -1.224646799147353700E-16, -0.0000000000000000000, -1.000000000000000000 ) ) ;
#159 = CIRCLE ( 'NONE', #106, 0.04750000000000064587 ) ;
#160 = EDGE_CURVE ( 'NONE', #238, #263, #204, .T. ) ;
#161 = DIRECTION ( 'NONE',  ( 1.000000000000000000, 0.0000000000000000000, -0.0000000000000000000 ) ) ;
#162 = CARTESIAN_POINT ( 'NONE',  ( -0.06249999999999997918, 0.0000000000000000000, 0.3233005925414273452 ) ) ;
#163 = DIRECTION ( 'NONE',  ( 0.0000000000000000000, 0.0000000000000000000, 1.000000000000000000 ) ) ;
#164 = DIRECTION ( 'NONE',  ( 0.0000000000000000000, 0.0000000000000000000, -1.000000000000000000 ) ) ;
#165 = AXIS2_PLACEMENT_3D ( 'NONE', #72, #99, #277 ) ;
#166 = FILL_AREA_STYLE ('',( #229 ) ) ;
#167 = ADVANCED_FACE ( 'NONE', ( #109 ), #286, .T. ) ;
#168 = CARTESIAN_POINT ( 'NONE',  ( 0.01148850000000000392, 0.0000000000000000000, 0.03400000000000000244 ) ) ;
#169 = CARTESIAN_POINT ( 'NONE',  ( 0.01148850000000000392, 0.0000000000000000000, 0.03400000000000000244 ) ) ;
#170 = EDGE_CURVE ( 'NONE', #151, #238, #221, .T. ) ;
#171 = DIMENSIONAL_EXPONENTS ( 1.000000000000000000, 0.0000000000000000000, 0.0000000000000000000, 0.0000000000000000000, 0.0000000000000000000, 0.0000000000000000000, 0.0000000000000000000 ) ;
#172 = EDGE_LOOP ( 'NONE', ( #152, #57 ) ) ;
#173 = ORIENTED_EDGE ( 'NONE', *, *, #111, .F. ) ;
#174 = AXIS2_PLACEMENT_3D ( 'NONE', #67, #246, #44 ) ;
#175 = ORIENTED_EDGE ( 'NONE', *, *, #257, .T. ) ;
#176 = AXIS2_PLACEMENT_3D ( 'NONE', #281, #76, #216 ) ;
#177 = DIRECTION ( 'NONE',  ( -1.000000000000000000, 0.0000000000000000000, 0.0000000000000000000 ) ) ;
#178 = LINE ( 'NONE', #289, #122 ) ;
#179 =( NAMED_UNIT ( * ) SI_UNIT ( $, .STERADIAN. ) SOLID_ANGLE_UNIT ( ) );
#180 = DIRECTION ( 'NONE',  ( -1.000000000000000000, 0.0000000000000000000, 0.0000000000000000000 ) ) ;
#181 = DIRECTION ( 'NONE',  ( 0.0000000000000000000, 0.0000000000000000000, -1.000000000000000000 ) ) ;
#182 = MECHANICAL_DESIGN_GEOMETRIC_PRESENTATION_REPRESENTATION (  '', ( #137 ), #42 ) ;
#183 = CARTESIAN_POINT ( 'NONE',  ( 0.0000000000000000000, 0.0000000000000000000, 1.500000000000000222 ) ) ;
#184 = DIRECTION ( 'NONE',  ( -1.224646799147353700E-16, -0.0000000000000000000, -1.000000000000000000 ) ) ;
#185 = CARTESIAN_POINT ( 'NONE',  ( 1.722999026311076435E-34, 0.0000000000000000000, 1.406935475200437016E-18 ) ) ;
#186 = DIRECTION ( 'NONE',  ( 0.0000000000000000000, 0.0000000000000000000, 1.000000000000000000 ) ) ;
#187 = ADVANCED_FACE ( 'NONE', ( #47 ), #29, .T. ) ;
#188 = CIRCLE ( 'NONE', #174, 0.06250000000000002776 ) ;
#189 = ORIENTED_EDGE ( 'NONE', *, *, #253, .T. ) ;
#190 = EDGE_LOOP ( 'NONE', ( #36, #9, #77, #53 ) ) ;
#191 = ORIENTED_EDGE ( 'NONE', *, *, #55, .F. ) ;
#192 = UNCERTAINTY_MEASURE_WITH_UNIT (LENGTH_MEASURE( 1.000000000000000082E-05 ), #17, 'distance_accuracy_value', 'NONE');
#193 = AXIS2_PLACEMENT_3D ( 'NONE', #265, #39, #43 ) ;
#194 = VERTEX_POINT ( 'NONE', #123 ) ;
#195 = VERTEX_POINT ( 'NONE', #168 ) ;
#196 = CARTESIAN_POINT ( 'NONE',  ( 0.0000000000000000000, 0.0000000000000000000, 1.485000000000000764 ) ) ;
#197 =( GEOMETRIC_REPRESENTATION_CONTEXT ( 3 ) GLOBAL_UNCERTAINTY_ASSIGNED_CONTEXT ( ( #254 ) ) GLOBAL_UNIT_ASSIGNED_CONTEXT ( ( #115, #199, #92 ) ) REPRESENTATION_CONTEXT ( 'NONE', 'WORKASPACE' ) );
#198 = DIRECTION ( 'NONE',  ( 1.224646799147353700E-16, 0.0000000000000000000, 1.000000000000000000 ) ) ;
#199 =( NAMED_UNIT ( * ) PLANE_ANGLE_UNIT ( ) SI_UNIT ( $, .RADIAN. ) );
#200 = ADVANCED_FACE ( 'NONE', ( #3 ), #287, .T. ) ;
#201 = LINE ( 'NONE', #114, #153 ) ;
#202 = CARTESIAN_POINT ( 'NONE',  ( -0.06250000000000002776, 0.0000000000000000000, 1.485000000000000764 ) ) ;
#203 = CARTESIAN_POINT ( 'NONE',  ( 0.06250000000000002776, 7.654042494670959086E-18, 1.485000000000000764 ) ) ;
#204 = CIRCLE ( 'NONE', #264, 0.06250000000000002776 ) ;
#205 =( CONVERSION_BASED_UNIT ( 'INCH', #113 ) LENGTH_UNIT ( ) NAMED_UNIT ( #171 ) );
#206 =( LENGTH_UNIT ( ) NAMED_UNIT ( * ) SI_UNIT ( $, .METRE. ) );
#207 = DIRECTION ( 'NONE',  ( 1.224646799147353700E-16, 0.0000000000000000000, 1.000000000000000000 ) ) ;
#208 = DIRECTION ( 'NONE',  ( -0.1736481776669311916, 2.126576849575783316E-17, 0.9848077530122080203 ) ) ;
#209 = CARTESIAN_POINT ( 'NONE',  ( 0.06250000000000002776, 7.654042494670959086E-18, 1.500000000000000222 ) ) ;
#210 = ADVANCED_BREP_SHAPE_REPRESENTATION ( 'Micro_SME-023-2X', ( #298, #234 ), #260 ) ;
#211 = DIMENSIONAL_EXPONENTS ( 1.000000000000000000, 0.0000000000000000000, 0.0000000000000000000, 0.0000000000000000000, 0.0000000000000000000, 0.0000000000000000000, 0.0000000000000000000 ) ;
#212 = EDGE_LOOP ( 'NONE', ( #59, #219, #189, #173 ) ) ;
#213 = AXIS2_PLACEMENT_3D ( 'NONE', #82, #155, #241 ) ;
#214 = DIMENSIONAL_EXPONENTS ( 1.000000000000000000, 0.0000000000000000000, 0.0000000000000000000, 0.0000000000000000000, 0.0000000000000000000, 0.0000000000000000000, 0.0000000000000000000 ) ;
#215 = EDGE_LOOP ( 'NONE', ( #79, #81, #175, #127 ) ) ;
#216 = DIRECTION ( 'NONE',  ( -1.000000000000000000, 0.0000000000000000000, 0.0000000000000000000 ) ) ;
#217 = EDGE_LOOP ( 'NONE', ( #124, #60, #284, #31 ) ) ;
#218 = AXIS2_PLACEMENT_3D ( 'NONE', #19, #86, #18 ) ;
#219 = ORIENTED_EDGE ( 'NONE', *, *, #243, .T. ) ;
#220 = DIRECTION ( 'NONE',  ( -0.7071067811865462405, 0.0000000000000000000, -0.7071067811865486830 ) ) ;
#221 = LINE ( 'NONE', #209, #269 ) ;
#222 = STYLED_ITEM ( 'NONE', ( #98 ), #298 ) ;
#223 = DIRECTION ( 'NONE',  ( -1.224646799147353700E-16, -0.0000000000000000000, -1.000000000000000000 ) ) ;
#224 =( NAMED_UNIT ( * ) PLANE_ANGLE_UNIT ( ) SI_UNIT ( $, .RADIAN. ) );
#225 = LINE ( 'NONE', #291, #84 ) ;
#226 = APPLICATION_PROTOCOL_DEFINITION ( 'draft international standard', 'automotive_design', 1998, #48 ) ;
#227 = DIRECTION ( 'NONE',  ( 0.0000000000000000000, 0.0000000000000000000, 1.000000000000000000 ) ) ;
#228 = LENGTH_MEASURE_WITH_UNIT ( LENGTH_MEASURE( 0.02539999999999999897 ), #206 );
#229 = FILL_AREA_STYLE_COLOUR ( '', #52 ) ;
#230 = CIRCLE ( 'NONE', #218, 0.01148849999999999698 ) ;
#231 = DIRECTION ( 'NONE',  ( -1.000000000000000000, 0.0000000000000000000, 1.224646799147353700E-16 ) ) ;
#232 = SURFACE_SIDE_STYLE ('',( #24 ) ) ;
#233 = DIRECTION ( 'NONE',  ( 1.000000000000000000, 0.0000000000000000000, 0.0000000000000000000 ) ) ;
#234 = AXIS2_PLACEMENT_3D ( 'NONE', #248, #163, #63 ) ;
#235 = ORIENTED_EDGE ( 'NONE', *, *, #253, .F. ) ;
#236 = FACE_OUTER_BOUND ( 'NONE', #104, .T. ) ;
#237 = ORIENTED_EDGE ( 'NONE', *, *, #247, .T. ) ;
#238 = VERTEX_POINT ( 'NONE', #249 ) ;
#239 = VECTOR ( 'NONE', #208, 39.37007874015747433 ) ;
#240 = CARTESIAN_POINT ( 'NONE',  ( 4.163799117101003240E-18, 0.0000000000000000000, 0.03400000000000000244 ) ) ;
#241 = DIRECTION ( 'NONE',  ( -1.000000000000000000, 0.0000000000000000000, 1.224646799147353700E-16 ) ) ;
#242 = CARTESIAN_POINT ( 'NONE',  ( 0.0000000000000000000, 0.0000000000000000000, 1.500000000000000222 ) ) ;
#243 = EDGE_CURVE ( 'NONE', #195, #283, #100, .T. ) ;
#244 = SURFACE_STYLE_FILL_AREA ( #22 ) ;
#245 = FACE_OUTER_BOUND ( 'NONE', #285, .T. ) ;
#246 = DIRECTION ( 'NONE',  ( -1.224646799147353700E-16, -0.0000000000000000000, -1.000000000000000000 ) ) ;
#247 = EDGE_CURVE ( 'NONE', #128, #263, #69, .T. ) ;
#248 = CARTESIAN_POINT ( 'NONE',  ( 0.0000000000000000000, 0.0000000000000000000, 0.0000000000000000000 ) ) ;
#249 = CARTESIAN_POINT ( 'NONE',  ( 0.06250000000000006939, 7.654042494670963708E-18, 0.3233005925414273452 ) ) ;
#250 = CONICAL_SURFACE ( 'NONE', #54, 0.01148849999999999871, 0.1745329251994338915 ) ;
#251 = AXIS2_PLACEMENT_3D ( 'NONE', #120, #207, #233 ) ;
#252 = SURFACE_STYLE_USAGE ( .BOTH. , #232 ) ;
#253 = EDGE_CURVE ( 'NONE', #283, #194, #144, .T. ) ;
#254 = UNCERTAINTY_MEASURE_WITH_UNIT (LENGTH_MEASURE( 1.000000000000000082E-05 ), #115, 'distance_accuracy_value', 'NONE');
#255 = CARTESIAN_POINT ( 'NONE',  ( -0.06250000000000002776, 0.0000000000000000000, 1.500000000000000222 ) ) ;
#256 = AXIS2_PLACEMENT_3D ( 'NONE', #5, #276, #231 ) ;
#257 = EDGE_CURVE ( 'NONE', #195, #238, #96, .T. ) ;
#258 = ORIENTED_EDGE ( 'NONE', *, *, #75, .F. ) ;
#259 = PRODUCT_DEFINITION_CONTEXT ( 'detailed design', #20, 'design' ) ;
#260 =( GEOMETRIC_REPRESENTATION_CONTEXT ( 3 ) GLOBAL_UNCERTAINTY_ASSIGNED_CONTEXT ( ( #192 ) ) GLOBAL_UNIT_ASSIGNED_CONTEXT ( ( #17, #294, #88 ) ) REPRESENTATION_CONTEXT ( 'NONE', 'WORKASPACE' ) );
#261 = ORIENTED_EDGE ( 'NONE', *, *, #102, .T. ) ;
#262 = ORIENTED_EDGE ( 'NONE', *, *, #279, .T. ) ;
#263 = VERTEX_POINT ( 'NONE', #162 ) ;
#264 = AXIS2_PLACEMENT_3D ( 'NONE', #154, #15, #37 ) ;
#265 = CARTESIAN_POINT ( 'NONE',  ( 0.0000000000000000000, 0.0000000000000000000, 1.500000000000000222 ) ) ;
#266 = DIRECTION ( 'NONE',  ( 0.7071067811865462405, 8.659560562354916834E-17, -0.7071067811865486830 ) ) ;
#267 = DIRECTION ( 'NONE',  ( 1.000000000000000000, 0.0000000000000000000, 0.0000000000000000000 ) ) ;
#268 = APPLICATION_PROTOCOL_DEFINITION ( 'draft international standard', 'automotive_design', 1998, #20 ) ;
#269 = VECTOR ( 'NONE', #145, 39.37007874015748143 ) ;
#270 = DIRECTION ( 'NONE',  ( 1.000000000000000000, 0.0000000000000000000, 0.0000000000000000000 ) ) ;
#271 = PRODUCT_CONTEXT ( 'NONE', #48, 'mechanical' ) ;
#272 = CARTESIAN_POINT ( 'NONE',  ( -0.04750000000000064587, 0.0000000000000000000, 1.500000000000000222 ) ) ;
#273 = DIRECTION ( 'NONE',  ( 1.000000000000000000, 0.0000000000000000000, -0.0000000000000000000 ) ) ;
#274 = EDGE_CURVE ( 'NONE', #194, #14, #85, .T. ) ;
#275 = CARTESIAN_POINT ( 'NONE',  ( 0.0000000000000000000, 0.0000000000000000000, 1.500000000000000222 ) ) ;
#276 = DIRECTION ( 'NONE',  ( -1.224646799147353700E-16, -0.0000000000000000000, -1.000000000000000000 ) ) ;
#277 = DIRECTION ( 'NONE',  ( -1.000000000000000000, 0.0000000000000000000, 0.0000000000000000000 ) ) ;
#278 = MECHANICAL_DESIGN_GEOMETRIC_PRESENTATION_REPRESENTATION (  '', ( #222 ), #197 ) ;
#279 = EDGE_CURVE ( 'NONE', #151, #128, #129, .T. ) ;
#280 = ORIENTED_EDGE ( 'NONE', *, *, #30, .F. ) ;
#281 = CARTESIAN_POINT ( 'NONE',  ( 0.0000000000000000000, 0.0000000000000000000, 1.500000000000000222 ) ) ;
#282 = ADVANCED_FACE ( 'NONE', ( #121 ), #299, .T. ) ;
#283 = VERTEX_POINT ( 'NONE', #143 ) ;
#284 = ORIENTED_EDGE ( 'NONE', *, *, #150, .T. ) ;
#285 = EDGE_LOOP ( 'NONE', ( #103, #262, #237, #12 ) ) ;
#286 = CYLINDRICAL_SURFACE ( 'NONE', #213, 0.01148849999999999698 ) ;
#287 = CONICAL_SURFACE ( 'NONE', #251, 0.01148849999999999871, 0.1745329251994338915 ) ;
#288 = COLOUR_RGB ( '',0.7921568627450980005, 0.8196078431372548767, 0.9333333333333333481 ) ;
#289 = CARTESIAN_POINT ( 'NONE',  ( 0.04750000000000064587, 5.817072295950006528E-18, 1.500000000000000222 ) ) ;
#290 =( LENGTH_UNIT ( ) NAMED_UNIT ( * ) SI_UNIT ( $, .METRE. ) );
#291 = CARTESIAN_POINT ( 'NONE',  ( 0.01148849999999999698, 1.406935475200436438E-18, -1.406935475200437016E-18 ) ) ;
#292 = DIRECTION ( 'NONE',  ( 0.0000000000000000000, 0.0000000000000000000, -1.000000000000000000 ) ) ;
#293 = EDGE_CURVE ( 'NONE', #283, #263, #49, .T. ) ;
#294 =( NAMED_UNIT ( * ) PLANE_ANGLE_UNIT ( ) SI_UNIT ( $, .RADIAN. ) );
#295 = AXIS2_PLACEMENT_3D ( 'NONE', #183, #136, #180 ) ;
#296 = AXIS2_PLACEMENT_3D ( 'NONE', #46, #164, #25 ) ;
#297 = FACE_OUTER_BOUND ( 'NONE', #190, .T. ) ;
#298 = MANIFOLD_SOLID_BREP ( 'Cut-Revolve1', #78 ) ;
#299 = PLANE ( 'NONE',  #70 ) ;
ENDSEC;
END-ISO-10303-21;
