ISO-10303-21;
HEADER;
FILE_DESCRIPTION (( 'STEP AP214' ),
    '1' );
FILE_NAME ('84042.STEP',
    '2023-06-23T10:46:41',
    ( '' ),
    ( '' ),
    'SwSTEP 2.0',
    'SolidWorks 2023',
    '' );
FILE_SCHEMA (( 'AUTOMOTIVE_DESIGN' ));
ENDSEC;

DATA;
#1 = AXIS2_PLACEMENT_3D ( 'NONE', #206, #233, #349 ) ;
#2 = CARTESIAN_POINT ( 'NONE',  ( 2.865673510004806939E-18, 0.000000000000000000, 0.02340000000000000413 ) ) ;
#3 = EDGE_CURVE ( 'NONE', #249, #220, #31, .T. ) ;
#4 =( CONVERSION_BASED_UNIT ( 'INCH', #143 ) LENGTH_UNIT ( ) NAMED_UNIT ( #20 ) );
#5 =( GEOMETRIC_REPRESENTATION_CONTEXT ( 3 ) GLOBAL_UNCERTAINTY_ASSIGNED_CONTEXT ( ( #85 ) ) GLOBAL_UNIT_ASSIGNED_CONTEXT ( ( #302, #328, #331 ) ) REPRESENTATION_CONTEXT ( 'NONE', 'WORKASPACE' ) );
#6 = PRESENTATION_STYLE_ASSIGNMENT (( #35 ) ) ;
#7 = ORIENTED_EDGE ( 'NONE', *, *, #318, .T. ) ;
#8 =( CONVERSION_BASED_UNIT ( 'INCH', #169 ) LENGTH_UNIT ( ) NAMED_UNIT ( #311 ) );
#9 = CARTESIAN_POINT ( 'NONE',  ( 0.02340000000000000413, 0.1562000000000000888, 2.865673510004806939E-18 ) ) ;
#10 = FILL_AREA_STYLE_COLOUR ( '', #303 ) ;
#11 = AXIS2_PLACEMENT_3D ( 'NONE', #242, #299, #22 ) ;
#12 = FACE_OUTER_BOUND ( 'NONE', #282, .T. ) ;
#13 = ORIENTED_EDGE ( 'NONE', *, *, #128, .T. ) ;
#14 = CARTESIAN_POINT ( 'NONE',  ( -0.02340000000000000413, 0.1562000000000000888, 0.000000000000000000 ) ) ;
#15 = LENGTH_MEASURE_WITH_UNIT ( LENGTH_MEASURE( 0.02539999999999999897 ), #46 );
#16 = STYLED_ITEM ( 'NONE', ( #214 ), #108 ) ;
#17 = ORIENTED_EDGE ( 'NONE', *, *, #304, .T. ) ;
#18 = EDGE_CURVE ( 'NONE', #95, #74, #45, .T. ) ;
#19 = AXIS2_PLACEMENT_3D ( 'NONE', #110, #127, #230 ) ;
#20 = DIMENSIONAL_EXPONENTS ( 1.000000000000000000, 0.000000000000000000, 0.000000000000000000, 0.000000000000000000, 0.000000000000000000, 0.000000000000000000, 0.000000000000000000 ) ;
#21 = CARTESIAN_POINT ( 'NONE',  ( 0.1250000000000000278, 2.500000000000000000, 1.530808498934192125E-17 ) ) ;
#22 = DIRECTION ( 'NONE',  ( -1.000000000000000000, 0.000000000000000000, 0.000000000000000000 ) ) ;
#23 = CARTESIAN_POINT ( 'NONE',  ( 0.000000000000000000, 0.1562000000000000888, 0.000000000000000000 ) ) ;
#24 = FACE_OUTER_BOUND ( 'NONE', #322, .T. ) ;
#25 = AXIS2_PLACEMENT_3D ( 'NONE', #283, #195, #306 ) ;
#26 = EDGE_CURVE ( 'NONE', #261, #220, #348, .T. ) ;
#27 = AXIS2_PLACEMENT_3D ( 'NONE', #238, #86, #114 ) ;
#28 =( LENGTH_UNIT ( ) NAMED_UNIT ( * ) SI_UNIT ( $, .METRE. ) );
#29 = ORIENTED_EDGE ( 'NONE', *, *, #196, .F. ) ;
#30 = CIRCLE ( 'NONE', #150, 0.02340000000000000413 ) ;
#31 = CIRCLE ( 'NONE', #353, 0.1250000000000000278 ) ;
#32 = EDGE_CURVE ( 'NONE', #74, #99, #131, .T. ) ;
#33 = CARTESIAN_POINT ( 'NONE',  ( 2.865673510004806939E-18, 0.000000000000000000, 0.02340000000000000413 ) ) ;
#34 = ORIENTED_EDGE ( 'NONE', *, *, #275, .T. ) ;
#35 = SURFACE_STYLE_USAGE ( .BOTH. , #281 ) ;
#36 = UNCERTAINTY_MEASURE_WITH_UNIT (LENGTH_MEASURE( 1.000000000000000082E-05 ), #132, 'distance_accuracy_value', 'NONE');
#37 = MANIFOLD_SOLID_BREP ( 'Revolve - Cutting Edge', #272 ) ;
#38 = DIMENSIONAL_EXPONENTS ( 1.000000000000000000, 0.000000000000000000, 0.000000000000000000, 0.000000000000000000, 0.000000000000000000, 0.000000000000000000, 0.000000000000000000 ) ;
#39 = ADVANCED_FACE ( 'NONE', ( #263 ), #49, .F. ) ;
#40 = MECHANICAL_DESIGN_GEOMETRIC_PRESENTATION_REPRESENTATION (  '', ( #247 ), #203 ) ;
#41 = VECTOR ( 'NONE', #262, 39.37007874015748143 ) ;
#42 = DIRECTION ( 'NONE',  ( 0.000000000000000000, 0.000000000000000000, -1.000000000000000000 ) ) ;
#43 = EDGE_LOOP ( 'NONE', ( #29, #89 ) ) ;
#44 = CARTESIAN_POINT ( 'NONE',  ( 0.000000000000000000, 0.1562000000000000055, 0.000000000000000000 ) ) ;
#45 = LINE ( 'NONE', #71, #194 ) ;
#46 =( LENGTH_UNIT ( ) NAMED_UNIT ( * ) SI_UNIT ( $, .METRE. ) );
#47 = CIRCLE ( 'NONE', #172, 0.1250000000000000278 ) ;
#48 = LINE ( 'NONE', #313, #41 ) ;
#49 = PLANE ( 'NONE',  #1 ) ;
#50 = FILL_AREA_STYLE_COLOUR ( '', #199 ) ;
#51 = CARTESIAN_POINT ( 'NONE',  ( 0.000000000000000000, 0.000000000000000000, 0.000000000000000000 ) ) ;
#52 = PRESENTATION_LAYER_ASSIGNMENT (  '', '', ( #16 ) ) ;
#53 = DIRECTION ( 'NONE',  ( -0.000000000000000000, -1.000000000000000000, -0.000000000000000000 ) ) ;
#54 = DIRECTION ( 'NONE',  ( -1.000000000000000000, 0.000000000000000000, 0.000000000000000000 ) ) ;
#55 = DIRECTION ( 'NONE',  ( 0.000000000000000000, 0.000000000000000000, -1.000000000000000000 ) ) ;
#56 = FACE_OUTER_BOUND ( 'NONE', #177, .T. ) ;
#57 = MECHANICAL_DESIGN_GEOMETRIC_PRESENTATION_REPRESENTATION (  '', ( #16 ), #5 ) ;
#58 = COLOUR_RGB ( '',1.000000000000000000, 0.000000000000000000, 0.000000000000000000 ) ;
#59 = ADVANCED_FACE ( 'NONE', ( #103 ), #113, .T. ) ;
#60 = FILL_AREA_STYLE_COLOUR ( '', #58 ) ;
#61 = ORIENTED_EDGE ( 'NONE', *, *, #196, .T. ) ;
#62 = MECHANICAL_DESIGN_GEOMETRIC_PRESENTATION_REPRESENTATION (  '', ( #69 ), #309 ) ;
#63 =( NAMED_UNIT ( * ) PLANE_ANGLE_UNIT ( ) SI_UNIT ( $, .RADIAN. ) );
#64 = CARTESIAN_POINT ( 'NONE',  ( 0.1250000000000000000, 2.500000000000000000, 0.000000000000000000 ) ) ;
#65 = ORIENTED_EDGE ( 'NONE', *, *, #26, .T. ) ;
#66 = CARTESIAN_POINT ( 'NONE',  ( -0.1250000000000000278, 0.5353763620489969677, 0.000000000000000000 ) ) ;
#67 = CONICAL_SURFACE ( 'NONE', #11, 0.02340000000000000413, 0.2617993877991501850 ) ;
#68 = CARTESIAN_POINT ( 'NONE',  ( -6.123233995736766036E-17, 2.500000000000000000, 0.000000000000000000 ) ) ;
#69 = STYLED_ITEM ( 'NONE', ( #256 ), #37 ) ;
#70 =( LENGTH_UNIT ( ) NAMED_UNIT ( * ) SI_UNIT ( $, .METRE. ) );
#71 = CARTESIAN_POINT ( 'NONE',  ( 0.000000000000000000, 0.000000000000000000, -0.02340000000000000413 ) ) ;
#72 = ADVANCED_FACE ( 'NONE', ( #24 ), #187, .T. ) ;
#73 = DIRECTION ( 'NONE',  ( -0.000000000000000000, -1.000000000000000000, -0.000000000000000000 ) ) ;
#74 = VERTEX_POINT ( 'NONE', #267 ) ;
#75 = DIRECTION ( 'NONE',  ( -1.000000000000000000, 0.000000000000000000, 0.000000000000000000 ) ) ;
#76 = SURFACE_STYLE_USAGE ( .BOTH. , #289 ) ;
#77 = DIRECTION ( 'NONE',  ( 0.000000000000000000, 0.000000000000000000, 1.000000000000000000 ) ) ;
#78 = EDGE_CURVE ( 'NONE', #99, #74, #149, .T. ) ;
#79 = FILL_AREA_STYLE_COLOUR ( '', #93 ) ;
#80 = SURFACE_STYLE_USAGE ( .BOTH. , #161 ) ;
#81 = CLOSED_SHELL ( 'NONE', ( #347, #82, #39, #72, #59, #138 ) ) ;
#82 = ADVANCED_FACE ( 'NONE', ( #245 ), #67, .T. ) ;
#83 = SURFACE_STYLE_FILL_AREA ( #165 ) ;
#84 = DIRECTION ( 'NONE',  ( 0.000000000000000000, 0.000000000000000000, -1.000000000000000000 ) ) ;
#85 = UNCERTAINTY_MEASURE_WITH_UNIT (LENGTH_MEASURE( 1.000000000000000082E-05 ), #302, 'distance_accuracy_value', 'NONE');
#86 = DIRECTION ( 'NONE',  ( -2.612524104333461037E-17, 1.000000000000000000, -0.000000000000000000 ) ) ;
#87 = PLANE ( 'NONE',  #25 ) ;
#88 = UNCERTAINTY_MEASURE_WITH_UNIT (LENGTH_MEASURE( 1.000000000000000082E-05 ), #4, 'distance_accuracy_value', 'NONE');
#89 = ORIENTED_EDGE ( 'NONE', *, *, #334, .F. ) ;
#90 = DIRECTION ( 'NONE',  ( 2.612524104333461037E-17, -1.000000000000000000, 0.000000000000000000 ) ) ;
#91 = ORIENTED_EDGE ( 'NONE', *, *, #243, .F. ) ;
#92 =( NAMED_UNIT ( * ) SI_UNIT ( $, .STERADIAN. ) SOLID_ANGLE_UNIT ( ) );
#93 = COLOUR_RGB ( '',1.000000000000000000, 0.000000000000000000, 0.000000000000000000 ) ;
#94 = SURFACE_SIDE_STYLE ('',( #118 ) ) ;
#95 = VERTEX_POINT ( 'NONE', #116 ) ;
#96 = FILL_AREA_STYLE ('',( #10 ) ) ;
#97 = ORIENTED_EDGE ( 'NONE', *, *, #3, .T. ) ;
#98 =( CONVERSION_BASED_UNIT ( 'INCH', #170 ) LENGTH_UNIT ( ) NAMED_UNIT ( #229 ) );
#99 = VERTEX_POINT ( 'NONE', #2 ) ;
#100 =( GEOMETRIC_REPRESENTATION_CONTEXT ( 3 ) GLOBAL_UNCERTAINTY_ASSIGNED_CONTEXT ( ( #301 ) ) GLOBAL_UNIT_ASSIGNED_CONTEXT ( ( #356, #329, #223 ) ) REPRESENTATION_CONTEXT ( 'NONE', 'WORKASPACE' ) );
#101 = CIRCLE ( 'NONE', #237, 0.02340000000000000413 ) ;
#102 = DIRECTION ( 'NONE',  ( 0.000000000000000000, 0.000000000000000000, -1.000000000000000000 ) ) ;
#103 = FACE_OUTER_BOUND ( 'NONE', #104, .T. ) ;
#104 = EDGE_LOOP ( 'NONE', ( #119, #97, #34, #228 ) ) ;
#105 = COLOUR_RGB ( '',1.000000000000000000, 0.000000000000000000, 0.000000000000000000 ) ;
#106 =( NAMED_UNIT ( * ) PLANE_ANGLE_UNIT ( ) SI_UNIT ( $, .RADIAN. ) );
#107 = DIMENSIONAL_EXPONENTS ( 1.000000000000000000, 0.000000000000000000, 0.000000000000000000, 0.000000000000000000, 0.000000000000000000, 0.000000000000000000, 0.000000000000000000 ) ;
#108 = ADVANCED_FACE ( 'NONE', ( #56 ), #192, .T. ) ;
#109 = AXIS2_PLACEMENT_3D ( 'NONE', #188, #241, #327 ) ;
#110 = CARTESIAN_POINT ( 'NONE',  ( 0.000000000000000000, 0.000000000000000000, 0.000000000000000000 ) ) ;
#111 = AXIS2_PLACEMENT_3D ( 'NONE', #255, #314, #102 ) ;
#112 =( LENGTH_UNIT ( ) NAMED_UNIT ( * ) SI_UNIT ( $, .METRE. ) );
#113 = CYLINDRICAL_SURFACE ( 'NONE', #27, 0.1250000000000000278 ) ;
#114 = DIRECTION ( 'NONE',  ( -1.000000000000000000, 0.000000000000000000, 0.000000000000000000 ) ) ;
#115 = SHAPE_DEFINITION_REPRESENTATION ( #239, #333 ) ;
#116 = CARTESIAN_POINT ( 'NONE',  ( 0.000000000000000000, 0.1562000000000000055, -0.02340000000000000413 ) ) ;
#117 = ADVANCED_FACE ( 'NONE', ( #335 ), #355, .T. ) ;
#118 = SURFACE_STYLE_FILL_AREA ( #342 ) ;
#119 = ORIENTED_EDGE ( 'NONE', *, *, #304, .F. ) ;
#120 = PRESENTATION_LAYER_ASSIGNMENT (  '', '', ( #136 ) ) ;
#121 = DIRECTION ( 'NONE',  ( -0.000000000000000000, -1.000000000000000000, -0.000000000000000000 ) ) ;
#122 = FACE_OUTER_BOUND ( 'NONE', #159, .T. ) ;
#123 = ORIENTED_EDGE ( 'NONE', *, *, #32, .T. ) ;
#124 = VECTOR ( 'NONE', #293, 39.37007874015748143 ) ;
#125 = DIRECTION ( 'NONE',  ( -2.612524104333461037E-17, 1.000000000000000000, -0.000000000000000000 ) ) ;
#126 = DIRECTION ( 'NONE',  ( -2.612524104333461037E-17, 1.000000000000000000, -0.000000000000000000 ) ) ;
#127 = DIRECTION ( 'NONE',  ( -0.000000000000000000, -1.000000000000000000, -0.000000000000000000 ) ) ;
#128 = EDGE_CURVE ( 'NONE', #343, #99, #201, .T. ) ;
#129 = VERTEX_POINT ( 'NONE', #339 ) ;
#130 = DIRECTION ( 'NONE',  ( -0.000000000000000000, -1.000000000000000000, -0.000000000000000000 ) ) ;
#131 = CIRCLE ( 'NONE', #19, 0.02340000000000000413 ) ;
#132 =( CONVERSION_BASED_UNIT ( 'INCH', #15 ) LENGTH_UNIT ( ) NAMED_UNIT ( #152 ) );
#133 = EDGE_CURVE ( 'NONE', #261, #213, #139, .T. ) ;
#134 = DIRECTION ( 'NONE',  ( -1.000000000000000000, 0.000000000000000000, 0.000000000000000000 ) ) ;
#135 = ORIENTED_EDGE ( 'NONE', *, *, #133, .F. ) ;
#136 = STYLED_ITEM ( 'NONE', ( #274 ), #186 ) ;
#137 = CARTESIAN_POINT ( 'NONE',  ( 0.000000000000000000, 0.000000000000000000, 0.000000000000000000 ) ) ;
#138 = ADVANCED_FACE ( 'NONE', ( #146 ), #337, .F. ) ;
#139 = CIRCLE ( 'NONE', #354, 0.02340000000000000413 ) ;
#140 = SURFACE_SIDE_STYLE ('',( #83 ) ) ;
#141 = AXIS2_PLACEMENT_3D ( 'NONE', #244, #77, #191 ) ;
#142 = PRESENTATION_LAYER_ASSIGNMENT (  '', '', ( #69 ) ) ;
#143 = LENGTH_MEASURE_WITH_UNIT ( LENGTH_MEASURE( 0.02539999999999999897 ), #28 );
#144 = DIRECTION ( 'NONE',  ( -2.612524104333461037E-17, 1.000000000000000000, -0.000000000000000000 ) ) ;
#145 = EDGE_LOOP ( 'NONE', ( #135, #250 ) ) ;
#146 = FACE_OUTER_BOUND ( 'NONE', #208, .T. ) ;
#147 = ADVANCED_FACE ( 'NONE', ( #246 ), #87, .T. ) ;
#148 = LINE ( 'NONE', #9, #212 ) ;
#149 = CIRCLE ( 'NONE', #269, 0.02340000000000000413 ) ;
#150 = AXIS2_PLACEMENT_3D ( 'NONE', #236, #130, #155 ) ;
#151 = CARTESIAN_POINT ( 'NONE',  ( 2.865673510004806939E-18, 0.1562000000000000055, 0.02340000000000000413 ) ) ;
#152 = DIMENSIONAL_EXPONENTS ( 1.000000000000000000, 0.000000000000000000, 0.000000000000000000, 0.000000000000000000, 0.000000000000000000, 0.000000000000000000, 0.000000000000000000 ) ;
#153 = PRODUCT_RELATED_PRODUCT_CATEGORY ( 'part', '', ( #277 ) ) ;
#154 = SURFACE_STYLE_USAGE ( .BOTH. , #290 ) ;
#155 = DIRECTION ( 'NONE',  ( 0.000000000000000000, 0.000000000000000000, -1.000000000000000000 ) ) ;
#156 =( CONVERSION_BASED_UNIT ( 'INCH', #320 ) LENGTH_UNIT ( ) NAMED_UNIT ( #235 ) );
#157 = DIRECTION ( 'NONE',  ( -2.612524104333461037E-17, 1.000000000000000000, -0.000000000000000000 ) ) ;
#158 = CARTESIAN_POINT ( 'NONE',  ( 0.000000000000000000, 0.1562000000000000888, 0.000000000000000000 ) ) ;
#159 = EDGE_LOOP ( 'NONE', ( #123, #226 ) ) ;
#160 = APPLICATION_PROTOCOL_DEFINITION ( 'draft international standard', 'automotive_design', 1998, #193 ) ;
#161 = SURFACE_SIDE_STYLE ('',( #271 ) ) ;
#162 =( GEOMETRIC_REPRESENTATION_CONTEXT ( 3 ) GLOBAL_UNCERTAINTY_ASSIGNED_CONTEXT ( ( #36 ) ) GLOBAL_UNIT_ASSIGNED_CONTEXT ( ( #132, #106, #205 ) ) REPRESENTATION_CONTEXT ( 'NONE', 'WORKASPACE' ) );
#163 = CIRCLE ( 'NONE', #270, 0.1250000000000000555 ) ;
#164 = DIRECTION ( 'NONE',  ( -0.000000000000000000, -1.000000000000000000, -0.000000000000000000 ) ) ;
#165 = FILL_AREA_STYLE ('',( #359 ) ) ;
#166 = STYLED_ITEM ( 'NONE', ( #298 ), #117 ) ;
#167 = SURFACE_STYLE_USAGE ( .BOTH. , #140 ) ;
#168 = EDGE_CURVE ( 'NONE', #213, #249, #148, .T. ) ;
#169 = LENGTH_MEASURE_WITH_UNIT ( LENGTH_MEASURE( 0.02539999999999999897 ), #344 );
#170 = LENGTH_MEASURE_WITH_UNIT ( LENGTH_MEASURE( 0.02539999999999999897 ), #248 );
#171 = ORIENTED_EDGE ( 'NONE', *, *, #275, .F. ) ;
#172 = AXIS2_PLACEMENT_3D ( 'NONE', #287, #126, #75 ) ;
#173 = PRODUCT_DEFINITION_FORMATION_WITH_SPECIFIED_SOURCE ( 'ANY', '', #277, .NOT_KNOWN. ) ;
#174 = DIRECTION ( 'NONE',  ( -1.000000000000000000, 0.000000000000000000, 0.000000000000000000 ) ) ;
#175 = EDGE_LOOP ( 'NONE', ( #312, #234, #185, #350 ) ) ;
#176 = FILL_AREA_STYLE ('',( #288 ) ) ;
#177 = EDGE_LOOP ( 'NONE', ( #61, #13, #338, #307 ) ) ;
#178 = CIRCLE ( 'NONE', #292, 0.02340000000000000413 ) ;
#179 = ORIENTED_EDGE ( 'NONE', *, *, #26, .F. ) ;
#180 = CARTESIAN_POINT ( 'NONE',  ( -0.02340000000000000413, 0.1562000000000000888, 0.000000000000000000 ) ) ;
#181 = FILL_AREA_STYLE ('',( #50 ) ) ;
#182 = SURFACE_STYLE_FILL_AREA ( #176 ) ;
#183 =( NAMED_UNIT ( * ) PLANE_ANGLE_UNIT ( ) SI_UNIT ( $, .RADIAN. ) );
#184 = CARTESIAN_POINT ( 'NONE',  ( -0.1250000000000001110, 2.500000000000000000, 0.000000000000000000 ) ) ;
#185 = ORIENTED_EDGE ( 'NONE', *, *, #18, .T. ) ;
#186 = ADVANCED_FACE ( 'NONE', ( #122 ), #224, .T. ) ;
#187 = CONICAL_SURFACE ( 'NONE', #197, 0.02340000000000000413, 0.2617993877991501850 ) ;
#188 = CARTESIAN_POINT ( 'NONE',  ( -6.123233995736766036E-17, 2.500000000000000000, 0.000000000000000000 ) ) ;
#189 = AXIS2_PLACEMENT_3D ( 'NONE', #68, #285, #134 ) ;
#190 = DIRECTION ( 'NONE',  ( -1.000000000000000000, 0.000000000000000000, 0.000000000000000000 ) ) ;
#191 = DIRECTION ( 'NONE',  ( 1.000000000000000000, 0.000000000000000000, 0.000000000000000000 ) ) ;
#192 = CYLINDRICAL_SURFACE ( 'NONE', #325, 0.02340000000000000413 ) ;
#193 = APPLICATION_CONTEXT ( 'automotive_design' ) ;
#194 = VECTOR ( 'NONE', #316, 39.37007874015748143 ) ;
#195 = DIRECTION ( 'NONE',  ( 0.000000000000000000, 1.000000000000000000, 0.000000000000000000 ) ) ;
#196 = EDGE_CURVE ( 'NONE', #95, #343, #30, .T. ) ;
#197 = AXIS2_PLACEMENT_3D ( 'NONE', #23, #144, #190 ) ;
#198 = ORIENTED_EDGE ( 'NONE', *, *, #168, .T. ) ;
#199 = COLOUR_RGB ( '',0.7921568627450980005, 0.8196078431372548767, 0.9333333333333333481 ) ;
#200 = SURFACE_STYLE_USAGE ( .BOTH. , #94 ) ;
#201 = LINE ( 'NONE', #33, #266 ) ;
#202 = VERTEX_POINT ( 'NONE', #21 ) ;
#203 =( GEOMETRIC_REPRESENTATION_CONTEXT ( 3 ) GLOBAL_UNCERTAINTY_ASSIGNED_CONTEXT ( ( #308 ) ) GLOBAL_UNIT_ASSIGNED_CONTEXT ( ( #8, #63, #92 ) ) REPRESENTATION_CONTEXT ( 'NONE', 'WORKASPACE' ) );
#204 =( GEOMETRIC_REPRESENTATION_CONTEXT ( 3 ) GLOBAL_UNCERTAINTY_ASSIGNED_CONTEXT ( ( #88 ) ) GLOBAL_UNIT_ASSIGNED_CONTEXT ( ( #4, #358, #332 ) ) REPRESENTATION_CONTEXT ( 'NONE', 'WORKASPACE' ) );
#205 =( NAMED_UNIT ( * ) SI_UNIT ( $, .STERADIAN. ) SOLID_ANGLE_UNIT ( ) );
#206 = CARTESIAN_POINT ( 'NONE',  ( 7.985580168996322973E-36, 0.1562000000000000055, 0.000000000000000000 ) ) ;
#207 = DIRECTION ( 'NONE',  ( -2.612524104333461037E-17, 1.000000000000000000, -0.000000000000000000 ) ) ;
#208 = EDGE_LOOP ( 'NONE', ( #7, #276 ) ) ;
#209 = CARTESIAN_POINT ( 'NONE',  ( -9.906073856464757241E-18, 0.5353763620489969677, 0.000000000000000000 ) ) ;
#210 = MECHANICAL_DESIGN_GEOMETRIC_PRESENTATION_REPRESENTATION (  '', ( #166 ), #100 ) ;
#211 = PRODUCT_CONTEXT ( 'NONE', #257, 'mechanical' ) ;
#212 = VECTOR ( 'NONE', #279, 39.37007874015748143 ) ;
#213 = VERTEX_POINT ( 'NONE', #351 ) ;
#214 = PRESENTATION_STYLE_ASSIGNMENT (( #167 ) ) ;
#215 = EDGE_CURVE ( 'NONE', #213, #261, #178, .T. ) ;
#216 = CARTESIAN_POINT ( 'NONE',  ( -6.123233995736766036E-17, 2.500000000000000000, 0.000000000000000000 ) ) ;
#217 = COLOUR_RGB ( '',0.7921568627450980005, 0.8196078431372548767, 0.9333333333333333481 ) ;
#218 = DIRECTION ( 'NONE',  ( -0.000000000000000000, -1.000000000000000000, -0.000000000000000000 ) ) ;
#219 = UNCERTAINTY_MEASURE_WITH_UNIT (LENGTH_MEASURE( 1.000000000000000082E-05 ), #98, 'distance_accuracy_value', 'NONE');
#220 = VERTEX_POINT ( 'NONE', #66 ) ;
#221 = DIRECTION ( 'NONE',  ( 1.000000000000000000, 2.612524104333461037E-17, 0.000000000000000000 ) ) ;
#222 = ORIENTED_EDGE ( 'NONE', *, *, #215, .T. ) ;
#223 =( NAMED_UNIT ( * ) SI_UNIT ( $, .STERADIAN. ) SOLID_ANGLE_UNIT ( ) );
#224 = PLANE ( 'NONE',  #111 ) ;
#225 = MECHANICAL_DESIGN_GEOMETRIC_PRESENTATION_REPRESENTATION (  '', ( #315 ), #162 ) ;
#226 = ORIENTED_EDGE ( 'NONE', *, *, #78, .T. ) ;
#227 = SURFACE_STYLE_FILL_AREA ( #96 ) ;
#228 = ORIENTED_EDGE ( 'NONE', *, *, #357, .F. ) ;
#229 = DIMENSIONAL_EXPONENTS ( 1.000000000000000000, 0.000000000000000000, 0.000000000000000000, 0.000000000000000000, 0.000000000000000000, 0.000000000000000000, 0.000000000000000000 ) ;
#230 = DIRECTION ( 'NONE',  ( 0.000000000000000000, 0.000000000000000000, -1.000000000000000000 ) ) ;
#231 = PRESENTATION_LAYER_ASSIGNMENT (  '', '', ( #315 ) ) ;
#232 = DIRECTION ( 'NONE',  ( -1.000000000000000000, 0.000000000000000000, 0.000000000000000000 ) ) ;
#233 = DIRECTION ( 'NONE',  ( -2.612524104333461037E-17, 1.000000000000000000, 0.000000000000000000 ) ) ;
#234 = ORIENTED_EDGE ( 'NONE', *, *, #334, .T. ) ;
#235 = DIMENSIONAL_EXPONENTS ( 1.000000000000000000, 0.000000000000000000, 0.000000000000000000, 0.000000000000000000, 0.000000000000000000, 0.000000000000000000, 0.000000000000000000 ) ;
#236 = CARTESIAN_POINT ( 'NONE',  ( 0.000000000000000000, 0.1562000000000000055, 0.000000000000000000 ) ) ;
#237 = AXIS2_PLACEMENT_3D ( 'NONE', #44, #73, #42 ) ;
#238 = CARTESIAN_POINT ( 'NONE',  ( -6.123233995736766036E-17, 2.500000000000000000, 0.000000000000000000 ) ) ;
#239 = PRODUCT_DEFINITION_SHAPE ( 'NONE', 'NONE',  #330 ) ;
#240 = FILL_AREA_STYLE ('',( #79 ) ) ;
#241 = DIRECTION ( 'NONE',  ( -2.612524104333461037E-17, 1.000000000000000000, -0.000000000000000000 ) ) ;
#242 = CARTESIAN_POINT ( 'NONE',  ( 0.000000000000000000, 0.1562000000000000888, 0.000000000000000000 ) ) ;
#243 = EDGE_CURVE ( 'NONE', #220, #249, #47, .T. ) ;
#244 = CARTESIAN_POINT ( 'NONE',  ( 0.000000000000000000, 0.000000000000000000, 0.000000000000000000 ) ) ;
#245 = FACE_OUTER_BOUND ( 'NONE', #345, .T. ) ;
#246 = FACE_OUTER_BOUND ( 'NONE', #43, .T. ) ;
#247 = STYLED_ITEM ( 'NONE', ( #6 ), #147 ) ;
#248 =( LENGTH_UNIT ( ) NAMED_UNIT ( * ) SI_UNIT ( $, .METRE. ) );
#249 = VERTEX_POINT ( 'NONE', #258 ) ;
#250 = ORIENTED_EDGE ( 'NONE', *, *, #215, .F. ) ;
#251 = DIRECTION ( 'NONE',  ( 0.000000000000000000, 0.000000000000000000, -1.000000000000000000 ) ) ;
#252 = CARTESIAN_POINT ( 'NONE',  ( 0.000000000000000000, 0.1562000000000000888, 0.000000000000000000 ) ) ;
#253 = AXIS2_PLACEMENT_3D ( 'NONE', #340, #218, #251 ) ;
#254 = PRESENTATION_LAYER_ASSIGNMENT (  '', '', ( #247 ) ) ;
#255 = CARTESIAN_POINT ( 'NONE',  ( 0.000000000000000000, 0.000000000000000000, 0.000000000000000000 ) ) ;
#256 = PRESENTATION_STYLE_ASSIGNMENT (( #76 ) ) ;
#257 = APPLICATION_CONTEXT ( 'automotive_design' ) ;
#258 = CARTESIAN_POINT ( 'NONE',  ( 0.1250000000000000000, 0.5353763620489969677, 1.530808498934191509E-17 ) ) ;
#259 =( NAMED_UNIT ( * ) SI_UNIT ( $, .STERADIAN. ) SOLID_ANGLE_UNIT ( ) );
#260 =( NAMED_UNIT ( * ) PLANE_ANGLE_UNIT ( ) SI_UNIT ( $, .RADIAN. ) );
#261 = VERTEX_POINT ( 'NONE', #180 ) ;
#262 = DIRECTION ( 'NONE',  ( -2.612524104333461037E-17, 1.000000000000000000, -0.000000000000000000 ) ) ;
#263 = FACE_OUTER_BOUND ( 'NONE', #145, .T. ) ;
#264 = APPLICATION_PROTOCOL_DEFINITION ( 'draft international standard', 'automotive_design', 1998, #257 ) ;
#265 =( LENGTH_UNIT ( ) NAMED_UNIT ( * ) SI_UNIT ( $, .METRE. ) );
#266 = VECTOR ( 'NONE', #121, 39.37007874015748143 ) ;
#267 = CARTESIAN_POINT ( 'NONE',  ( 0.000000000000000000, 0.000000000000000000, -0.02340000000000000413 ) ) ;
#268 = LENGTH_MEASURE_WITH_UNIT ( LENGTH_MEASURE( 0.02539999999999999897 ), #112 );
#269 = AXIS2_PLACEMENT_3D ( 'NONE', #137, #53, #55 ) ;
#270 = AXIS2_PLACEMENT_3D ( 'NONE', #216, #295, #54 ) ;
#271 = SURFACE_STYLE_FILL_AREA ( #240 ) ;
#272 = CLOSED_SHELL ( 'NONE', ( #108, #147, #117, #186 ) ) ;
#273 = MANIFOLD_SOLID_BREP ( 'Revolve - Tool Body (Reduced Cut Diameter)', #81 ) ;
#274 = PRESENTATION_STYLE_ASSIGNMENT (( #200 ) ) ;
#275 = EDGE_CURVE ( 'NONE', #220, #129, #323, .T. ) ;
#276 = ORIENTED_EDGE ( 'NONE', *, *, #357, .T. ) ;
#277 = PRODUCT ( '84042', '84042', '', ( #211 ) ) ;
#278 =( GEOMETRIC_REPRESENTATION_CONTEXT ( 3 ) GLOBAL_UNCERTAINTY_ASSIGNED_CONTEXT ( ( #219 ) ) GLOBAL_UNIT_ASSIGNED_CONTEXT ( ( #98, #260, #321 ) ) REPRESENTATION_CONTEXT ( 'NONE', 'WORKASPACE' ) );
#279 = DIRECTION ( 'NONE',  ( 0.2588190451025214611, 0.9659258262890679791, 3.169619151431773569E-17 ) ) ;
#280 = UNCERTAINTY_MEASURE_WITH_UNIT (LENGTH_MEASURE( 1.000000000000000082E-05 ), #156, 'distance_accuracy_value', 'NONE');
#281 = SURFACE_SIDE_STYLE ('',( #227 ) ) ;
#282 = EDGE_LOOP ( 'NONE', ( #284, #17, #294, #171 ) ) ;
#283 = CARTESIAN_POINT ( 'NONE',  ( 0.000000000000000000, 0.1562000000000000055, 0.000000000000000000 ) ) ;
#284 = ORIENTED_EDGE ( 'NONE', *, *, #243, .T. ) ;
#285 = DIRECTION ( 'NONE',  ( -2.612524104333461037E-17, 1.000000000000000000, -0.000000000000000000 ) ) ;
#286 = PRESENTATION_LAYER_ASSIGNMENT (  '', '', ( #166 ) ) ;
#287 = CARTESIAN_POINT ( 'NONE',  ( -9.906073856464757241E-18, 0.5353763620489969677, 0.000000000000000000 ) ) ;
#288 = FILL_AREA_STYLE_COLOUR ( '', #217 ) ;
#289 = SURFACE_SIDE_STYLE ('',( #291 ) ) ;
#290 = SURFACE_SIDE_STYLE ('',( #182 ) ) ;
#291 = SURFACE_STYLE_FILL_AREA ( #181 ) ;
#292 = AXIS2_PLACEMENT_3D ( 'NONE', #158, #207, #232 ) ;
#293 = DIRECTION ( 'NONE',  ( -2.612524104333461037E-17, 1.000000000000000000, -0.000000000000000000 ) ) ;
#294 = ORIENTED_EDGE ( 'NONE', *, *, #318, .F. ) ;
#295 = DIRECTION ( 'NONE',  ( -2.612524104333461037E-17, 1.000000000000000000, -0.000000000000000000 ) ) ;
#296 = DIRECTION ( 'NONE',  ( -0.2588190451025214611, 0.9659258262890679791, 0.000000000000000000 ) ) ;
#297 = MECHANICAL_DESIGN_GEOMETRIC_PRESENTATION_REPRESENTATION (  '', ( #136 ), #278 ) ;
#298 = PRESENTATION_STYLE_ASSIGNMENT (( #80 ) ) ;
#299 = DIRECTION ( 'NONE',  ( -2.612524104333461037E-17, 1.000000000000000000, -0.000000000000000000 ) ) ;
#300 = LENGTH_MEASURE_WITH_UNIT ( LENGTH_MEASURE( 0.02539999999999999897 ), #265 );
#301 = UNCERTAINTY_MEASURE_WITH_UNIT (LENGTH_MEASURE( 1.000000000000000082E-05 ), #356, 'distance_accuracy_value', 'NONE');
#302 =( CONVERSION_BASED_UNIT ( 'INCH', #268 ) LENGTH_UNIT ( ) NAMED_UNIT ( #107 ) );
#303 = COLOUR_RGB ( '',1.000000000000000000, 0.000000000000000000, 0.000000000000000000 ) ;
#304 = EDGE_CURVE ( 'NONE', #249, #202, #48, .T. ) ;
#305 = PRODUCT_DEFINITION_CONTEXT ( 'detailed design', #193, 'design' ) ;
#306 = DIRECTION ( 'NONE',  ( 0.000000000000000000, -0.000000000000000000, 1.000000000000000000 ) ) ;
#307 = ORIENTED_EDGE ( 'NONE', *, *, #18, .F. ) ;
#308 = UNCERTAINTY_MEASURE_WITH_UNIT (LENGTH_MEASURE( 1.000000000000000082E-05 ), #8, 'distance_accuracy_value', 'NONE');
#309 =( GEOMETRIC_REPRESENTATION_CONTEXT ( 3 ) GLOBAL_UNCERTAINTY_ASSIGNED_CONTEXT ( ( #280 ) ) GLOBAL_UNIT_ASSIGNED_CONTEXT ( ( #156, #183, #259 ) ) REPRESENTATION_CONTEXT ( 'NONE', 'WORKASPACE' ) );
#310 = ORIENTED_EDGE ( 'NONE', *, *, #168, .F. ) ;
#311 = DIMENSIONAL_EXPONENTS ( 1.000000000000000000, 0.000000000000000000, 0.000000000000000000, 0.000000000000000000, 0.000000000000000000, 0.000000000000000000, 0.000000000000000000 ) ;
#312 = ORIENTED_EDGE ( 'NONE', *, *, #128, .F. ) ;
#313 = CARTESIAN_POINT ( 'NONE',  ( 0.1249999999999999584, 2.500000000000000000, 1.530808498934191817E-17 ) ) ;
#314 = DIRECTION ( 'NONE',  ( 0.000000000000000000, -1.000000000000000000, -0.000000000000000000 ) ) ;
#315 = STYLED_ITEM ( 'NONE', ( #319 ), #273 ) ;
#316 = DIRECTION ( 'NONE',  ( -0.000000000000000000, -1.000000000000000000, -0.000000000000000000 ) ) ;
#317 = CIRCLE ( 'NONE', #189, 0.1250000000000000555 ) ;
#318 = EDGE_CURVE ( 'NONE', #129, #202, #317, .T. ) ;
#319 = PRESENTATION_STYLE_ASSIGNMENT (( #154 ) ) ;
#320 = LENGTH_MEASURE_WITH_UNIT ( LENGTH_MEASURE( 0.02539999999999999897 ), #70 );
#321 =( NAMED_UNIT ( * ) SI_UNIT ( $, .STERADIAN. ) SOLID_ANGLE_UNIT ( ) );
#322 = EDGE_LOOP ( 'NONE', ( #310, #222, #65, #352 ) ) ;
#323 = LINE ( 'NONE', #184, #124 ) ;
#324 = DIRECTION ( 'NONE',  ( -1.000000000000000000, 0.000000000000000000, 0.000000000000000000 ) ) ;
#325 = AXIS2_PLACEMENT_3D ( 'NONE', #51, #164, #84 ) ;
#326 = ORIENTED_EDGE ( 'NONE', *, *, #133, .T. ) ;
#327 = DIRECTION ( 'NONE',  ( -1.000000000000000000, 0.000000000000000000, 0.000000000000000000 ) ) ;
#328 =( NAMED_UNIT ( * ) PLANE_ANGLE_UNIT ( ) SI_UNIT ( $, .RADIAN. ) );
#329 =( NAMED_UNIT ( * ) PLANE_ANGLE_UNIT ( ) SI_UNIT ( $, .RADIAN. ) );
#330 = PRODUCT_DEFINITION ( 'UNKNOWN', '', #173, #305 ) ;
#331 =( NAMED_UNIT ( * ) SI_UNIT ( $, .STERADIAN. ) SOLID_ANGLE_UNIT ( ) );
#332 =( NAMED_UNIT ( * ) SI_UNIT ( $, .STERADIAN. ) SOLID_ANGLE_UNIT ( ) );
#333 = ADVANCED_BREP_SHAPE_REPRESENTATION ( '84042', ( #37, #273, #141 ), #204 ) ;
#334 = EDGE_CURVE ( 'NONE', #343, #95, #101, .T. ) ;
#335 = FACE_OUTER_BOUND ( 'NONE', #175, .T. ) ;
#336 = VECTOR ( 'NONE', #296, 39.37007874015748143 ) ;
#337 = PLANE ( 'NONE',  #341 ) ;
#338 = ORIENTED_EDGE ( 'NONE', *, *, #32, .F. ) ;
#339 = CARTESIAN_POINT ( 'NONE',  ( -0.1250000000000001388, 2.500000000000000000, 0.000000000000000000 ) ) ;
#340 = CARTESIAN_POINT ( 'NONE',  ( 0.000000000000000000, 0.000000000000000000, 0.000000000000000000 ) ) ;
#341 = AXIS2_PLACEMENT_3D ( 'NONE', #64, #90, #221 ) ;
#342 = FILL_AREA_STYLE ('',( #60 ) ) ;
#343 = VERTEX_POINT ( 'NONE', #151 ) ;
#344 =( LENGTH_UNIT ( ) NAMED_UNIT ( * ) SI_UNIT ( $, .METRE. ) );
#345 = EDGE_LOOP ( 'NONE', ( #326, #198, #91, #179 ) ) ;
#346 = CYLINDRICAL_SURFACE ( 'NONE', #109, 0.1250000000000000278 ) ;
#347 = ADVANCED_FACE ( 'NONE', ( #12 ), #346, .T. ) ;
#348 = LINE ( 'NONE', #14, #336 ) ;
#349 = DIRECTION ( 'NONE',  ( -1.000000000000000000, -2.612524104333461037E-17, 0.000000000000000000 ) ) ;
#350 = ORIENTED_EDGE ( 'NONE', *, *, #78, .F. ) ;
#351 = CARTESIAN_POINT ( 'NONE',  ( 0.02340000000000000413, 0.1562000000000000888, 9.086879249673361014E-18 ) ) ;
#352 = ORIENTED_EDGE ( 'NONE', *, *, #3, .F. ) ;
#353 = AXIS2_PLACEMENT_3D ( 'NONE', #209, #157, #324 ) ;
#354 = AXIS2_PLACEMENT_3D ( 'NONE', #252, #125, #174 ) ;
#355 = CYLINDRICAL_SURFACE ( 'NONE', #253, 0.02340000000000000413 ) ;
#356 =( CONVERSION_BASED_UNIT ( 'INCH', #300 ) LENGTH_UNIT ( ) NAMED_UNIT ( #38 ) );
#357 = EDGE_CURVE ( 'NONE', #202, #129, #163, .T. ) ;
#358 =( NAMED_UNIT ( * ) PLANE_ANGLE_UNIT ( ) SI_UNIT ( $, .RADIAN. ) );
#359 = FILL_AREA_STYLE_COLOUR ( '', #105 ) ;
ENDSEC;
END-ISO-10303-21;
