ISO-10303-21;
HEADER;
FILE_DESCRIPTION (( 'STEP AP214' ),
    '1' );
FILE_NAME ('Micro_MMBM-004-8.STEP',
    '2021-09-03T16:22:12',
    ( '' ),
    ( '' ),
    'SwSTEP 2.0',
    'SolidWorks 2020',
    '' );
FILE_SCHEMA (( 'AUTOMOTIVE_DESIGN' ));
ENDSEC;

DATA;
#1 = PRODUCT_RELATED_PRODUCT_CATEGORY ( 'part', '', ( #35 ) ) ;
#2 = DIRECTION ( 'NONE',  ( 1.000000000000000000, 0.0000000000000000000, 0.0000000000000000000 ) ) ;
#3 = DIRECTION ( 'NONE',  ( -0.0000000000000000000, -0.0000000000000000000, -1.000000000000000000 ) ) ;
#4 = VECTOR ( 'NONE', #323, 39.37007874015748143 ) ;
#5 = AXIS2_PLACEMENT_3D ( 'NONE', #47, #189, #27 ) ;
#6 = ADVANCED_FACE ( 'NONE', ( #283 ), #341, .T. ) ;
#7 = LINE ( 'NONE', #126, #319 ) ;
#8 = ORIENTED_EDGE ( 'NONE', *, *, #228, .T. ) ;
#9 = CARTESIAN_POINT ( 'NONE',  ( 0.06374000000000018540, 7.805898697765251255E-18, 1.968503999999999809 ) ) ;
#10 = EDGE_LOOP ( 'NONE', ( #239, #307, #182, #164 ) ) ;
#11 = EDGE_CURVE ( 'NONE', #131, #281, #87, .T. ) ;
#12 = AXIS2_PLACEMENT_3D ( 'NONE', #230, #89, #199 ) ;
#13 = ORIENTED_EDGE ( 'NONE', *, *, #232, .T. ) ;
#14 = DIMENSIONAL_EXPONENTS ( 1.000000000000000000, 0.0000000000000000000, 0.0000000000000000000, 0.0000000000000000000, 0.0000000000000000000, 0.0000000000000000000, 0.0000000000000000000 ) ;
#15 = EDGE_CURVE ( 'NONE', #104, #79, #140, .T. ) ;
#16 = ORIENTED_EDGE ( 'NONE', *, *, #308, .F. ) ;
#17 = ORIENTED_EDGE ( 'NONE', *, *, #18, .T. ) ;
#18 = EDGE_CURVE ( 'NONE', #281, #131, #373, .T. ) ;
#19 = CARTESIAN_POINT ( 'NONE',  ( 0.0000000000000000000, 0.0000000000000000000, 0.0000000000000000000 ) ) ;
#20 = AXIS2_PLACEMENT_3D ( 'NONE', #279, #23, #24 ) ;
#21 = AXIS2_PLACEMENT_3D ( 'NONE', #98, #63, #136 ) ;
#22 = DIRECTION ( 'NONE',  ( 0.0000000000000000000, 0.0000000000000000000, -1.000000000000000000 ) ) ;
#23 = DIRECTION ( 'NONE',  ( -0.0000000000000000000, -0.0000000000000000000, -1.000000000000000000 ) ) ;
#24 = DIRECTION ( 'NONE',  ( -1.000000000000000000, 0.0000000000000000000, 0.0000000000000000000 ) ) ;
#25 = EDGE_LOOP ( 'NONE', ( #108, #339, #361, #125 ) ) ;
#26 = AXIS2_PLACEMENT_3D ( 'NONE', #112, #176, #2 ) ;
#27 = DIRECTION ( 'NONE',  ( -1.000000000000000000, 0.0000000000000000000, 0.0000000000000000000 ) ) ;
#28 = ADVANCED_FACE ( 'NONE', ( #194, #192 ), #347, .T. ) ;
#29 = FACE_OUTER_BOUND ( 'NONE', #68, .T. ) ;
#30 = EDGE_CURVE ( 'NONE', #329, #52, #109, .T. ) ;
#31 = DIRECTION ( 'NONE',  ( 0.0000000000000000000, 0.0000000000000000000, -1.000000000000000000 ) ) ;
#32 = DIRECTION ( 'NONE',  ( -1.000000000000000000, 0.0000000000000000000, 0.0000000000000000000 ) ) ;
#33 = FACE_OUTER_BOUND ( 'NONE', #137, .T. ) ;
#34 = CARTESIAN_POINT ( 'NONE',  ( 0.007873212599999998562, 9.641904609596609667E-19, 0.0000000000000000000 ) ) ;
#35 = PRODUCT ( 'Micro_MMBM-004-8', 'Micro_MMBM-004-8', '', ( #80 ) ) ;
#36 = AXIS2_PLACEMENT_3D ( 'NONE', #84, #3, #288 ) ;
#37 = LINE ( 'NONE', #325, #372 ) ;
#38 = EDGE_LOOP ( 'NONE', ( #97, #66 ) ) ;
#39 = CARTESIAN_POINT ( 'NONE',  ( -0.007480500000000001905, 0.0000000000000000000, 0.01797518382871478304 ) ) ;
#40 = CARTESIAN_POINT ( 'NONE',  ( 0.07874000000000001831, 9.642868896486260050E-18, 1.968503999999999809 ) ) ;
#41 = AXIS2_PLACEMENT_3D ( 'NONE', #59, #352, #351 ) ;
#42 = CARTESIAN_POINT ( 'NONE',  ( 0.0000000000000000000, 0.0000000000000000000, 0.3149610000000000465 ) ) ;
#43 =( GEOMETRIC_REPRESENTATION_CONTEXT ( 3 ) GLOBAL_UNCERTAINTY_ASSIGNED_CONTEXT ( ( #267 ) ) GLOBAL_UNIT_ASSIGNED_CONTEXT ( ( #225, #106, #252 ) ) REPRESENTATION_CONTEXT ( 'NONE', 'WORKASPACE' ) );
#44 = EDGE_LOOP ( 'NONE', ( #135, #327, #184, #331 ) ) ;
#45 = VERTEX_POINT ( 'NONE', #251 ) ;
#46 = ADVANCED_FACE ( 'NONE', ( #309 ), #223, .T. ) ;
#47 = CARTESIAN_POINT ( 'NONE',  ( 0.007480500000000038334, 0.0000000000000000000, 0.3149609999999999910 ) ) ;
#48 = CARTESIAN_POINT ( 'NONE',  ( 0.0000000000000000000, 0.0000000000000000000, 0.01797518382871478304 ) ) ;
#49 = EDGE_LOOP ( 'NONE', ( #312, #334 ) ) ;
#50 = ADVANCED_FACE ( 'NONE', ( #305 ), #160, .T. ) ;
#51 =( LENGTH_UNIT ( ) NAMED_UNIT ( * ) SI_UNIT ( $, .METRE. ) );
#52 = VERTEX_POINT ( 'NONE', #320 ) ;
#53 = ORIENTED_EDGE ( 'NONE', *, *, #105, .F. ) ;
#54 = MECHANICAL_DESIGN_GEOMETRIC_PRESENTATION_REPRESENTATION (  '', ( #335 ), #301 ) ;
#55 = CONICAL_SURFACE ( 'NONE', #12, 0.007873212599999998562, 0.1745329251994334474 ) ;
#56 = CARTESIAN_POINT ( 'NONE',  ( -0.06374000000000018540, 0.0000000000000000000, 1.968503999999999809 ) ) ;
#57 = LINE ( 'NONE', #56, #367 ) ;
#58 = DIRECTION ( 'NONE',  ( -0.1736481776669308030, 0.0000000000000000000, -0.9848077530122077983 ) ) ;
#59 = CARTESIAN_POINT ( 'NONE',  ( 0.0000000000000000000, 0.0000000000000000000, 0.01574800000000000158 ) ) ;
#60 = CARTESIAN_POINT ( 'NONE',  ( 0.0000000000000000000, 0.0000000000000000000, 0.0000000000000000000 ) ) ;
#61 = LINE ( 'NONE', #211, #179 ) ;
#62 = UNCERTAINTY_MEASURE_WITH_UNIT (LENGTH_MEASURE( 1.000000000000000082E-05 ), #165, 'distance_accuracy_value', 'NONE');
#63 = DIRECTION ( 'NONE',  ( -0.0000000000000000000, -0.0000000000000000000, -1.000000000000000000 ) ) ;
#64 = ORIENTED_EDGE ( 'NONE', *, *, #30, .F. ) ;
#65 = DIRECTION ( 'NONE',  ( -0.0000000000000000000, -0.0000000000000000000, -1.000000000000000000 ) ) ;
#66 = ORIENTED_EDGE ( 'NONE', *, *, #30, .T. ) ;
#67 = FACE_OUTER_BOUND ( 'NONE', #138, .T. ) ;
#68 = EDGE_LOOP ( 'NONE', ( #16, #303, #153, #154 ) ) ;
#69 = LINE ( 'NONE', #34, #349 ) ;
#70 = AXIS2_PLACEMENT_3D ( 'NONE', #78, #22, #162 ) ;
#71 = ORIENTED_EDGE ( 'NONE', *, *, #15, .T. ) ;
#72 = DIMENSIONAL_EXPONENTS ( 1.000000000000000000, 0.0000000000000000000, 0.0000000000000000000, 0.0000000000000000000, 0.0000000000000000000, 0.0000000000000000000, 0.0000000000000000000 ) ;
#73 = DIRECTION ( 'NONE',  ( 1.000000000000000000, 0.0000000000000000000, 0.0000000000000000000 ) ) ;
#74 = ADVANCED_FACE ( 'NONE', ( #204 ), #203, .T. ) ;
#75 = DIRECTION ( 'NONE',  ( -0.0000000000000000000, -0.0000000000000000000, -1.000000000000000000 ) ) ;
#76 = CARTESIAN_POINT ( 'NONE',  ( -0.07874000000000001831, 0.0000000000000000000, 0.3149610000000000465 ) ) ;
#77 = CARTESIAN_POINT ( 'NONE',  ( 0.0000000000000000000, 0.0000000000000000000, 0.3149609999999999910 ) ) ;
#78 = CARTESIAN_POINT ( 'NONE',  ( 0.0000000000000000000, 0.0000000000000000000, 1.968503999999999809 ) ) ;
#79 = VERTEX_POINT ( 'NONE', #286 ) ;
#80 = PRODUCT_CONTEXT ( 'NONE', #313, 'mechanical' ) ;
#81 = ORIENTED_EDGE ( 'NONE', *, *, #113, .F. ) ;
#82 = DIRECTION ( 'NONE',  ( 0.0000000000000000000, 0.0000000000000000000, 1.000000000000000000 ) ) ;
#83 = ADVANCED_FACE ( 'NONE', ( #33 ), #147, .T. ) ;
#84 = CARTESIAN_POINT ( 'NONE',  ( 0.0000000000000000000, 0.0000000000000000000, 0.3149610000000000465 ) ) ;
#85 = CONICAL_SURFACE ( 'NONE', #41, 0.007873212599999998562, 0.1745329251994334474 ) ;
#86 = AXIS2_PLACEMENT_3D ( 'NONE', #48, #306, #190 ) ;
#87 = CIRCLE ( 'NONE', #213, 0.007480500000000038334 ) ;
#88 = EDGE_CURVE ( 'NONE', #52, #79, #57, .T. ) ;
#89 = DIRECTION ( 'NONE',  ( -0.0000000000000000000, -0.0000000000000000000, -1.000000000000000000 ) ) ;
#90 = DIRECTION ( 'NONE',  ( -0.0000000000000000000, -0.0000000000000000000, -1.000000000000000000 ) ) ;
#91 = CARTESIAN_POINT ( 'NONE',  ( 0.07874000000000001831, 9.642868896486260050E-18, 1.953504000000000129 ) ) ;
#92 = AXIS2_PLACEMENT_3D ( 'NONE', #77, #111, #226 ) ;
#93 = PRODUCT_DEFINITION_FORMATION_WITH_SPECIFIED_SOURCE ( 'ANY', '', #35, .NOT_KNOWN. ) ;
#94 = VECTOR ( 'NONE', #58, 39.37007874015748854 ) ;
#95 = LINE ( 'NONE', #263, #94 ) ;
#96 = CYLINDRICAL_SURFACE ( 'NONE', #344, 0.07874000000000001831 ) ;
#97 = ORIENTED_EDGE ( 'NONE', *, *, #188, .T. ) ;
#98 = CARTESIAN_POINT ( 'NONE',  ( 0.0000000000000000000, 0.0000000000000000000, 0.01574800000000000158 ) ) ;
#99 = ADVANCED_FACE ( 'NONE', ( #234 ), #85, .T. ) ;
#100 = DIRECTION ( 'NONE',  ( 1.000000000000000000, 0.0000000000000000000, -0.0000000000000000000 ) ) ;
#101 = CARTESIAN_POINT ( 'NONE',  ( 0.0000000000000000000, 0.0000000000000000000, 0.0000000000000000000 ) ) ;
#102 = VERTEX_POINT ( 'NONE', #172 ) ;
#103 = CONICAL_SURFACE ( 'NONE', #70, 0.06374000000000018540, 0.7853981633974528309 ) ;
#104 = VERTEX_POINT ( 'NONE', #91 ) ;
#105 = EDGE_CURVE ( 'NONE', #359, #242, #276, .T. ) ;
#106 =( NAMED_UNIT ( * ) PLANE_ANGLE_UNIT ( ) SI_UNIT ( $, .RADIAN. ) );
#107 = FACE_OUTER_BOUND ( 'NONE', #345, .T. ) ;
#108 = ORIENTED_EDGE ( 'NONE', *, *, #332, .F. ) ;
#109 = CIRCLE ( 'NONE', #149, 0.06374000000000018540 ) ;
#110 = DIRECTION ( 'NONE',  ( 1.000000000000000000, 0.0000000000000000000, 0.0000000000000000000 ) ) ;
#111 = DIRECTION ( 'NONE',  ( -0.0000000000000000000, -0.0000000000000000000, -1.000000000000000000 ) ) ;
#112 = CARTESIAN_POINT ( 'NONE',  ( 0.0000000000000000000, 0.0000000000000000000, 1.968503999999999809 ) ) ;
#113 = EDGE_CURVE ( 'NONE', #197, #284, #350, .T. ) ;
#114 = FACE_OUTER_BOUND ( 'NONE', #38, .T. ) ;
#115 = AXIS2_PLACEMENT_3D ( 'NONE', #287, #175, #201 ) ;
#116 = CIRCLE ( 'NONE', #214, 0.07874000000000001831 ) ;
#117 = DIRECTION ( 'NONE',  ( 0.0000000000000000000, 0.0000000000000000000, 1.000000000000000000 ) ) ;
#118 = CARTESIAN_POINT ( 'NONE',  ( 0.0000000000000000000, 0.0000000000000000000, 0.0000000000000000000 ) ) ;
#119 = EDGE_CURVE ( 'NONE', #256, #212, #229, .T. ) ;
#120 = AXIS2_PLACEMENT_3D ( 'NONE', #101, #333, #100 ) ;
#121 = VECTOR ( 'NONE', #377, 39.37007874015748143 ) ;
#122 = SURFACE_STYLE_USAGE ( .BOTH. , #360 ) ;
#123 = EDGE_CURVE ( 'NONE', #197, #45, #326, .T. ) ;
#124 = DIRECTION ( 'NONE',  ( -0.0000000000000000000, -0.0000000000000000000, -1.000000000000000000 ) ) ;
#125 = ORIENTED_EDGE ( 'NONE', *, *, #167, .F. ) ;
#126 = CARTESIAN_POINT ( 'NONE',  ( 0.007873212599999998562, 9.641904609596609667E-19, 0.01574800000000000158 ) ) ;
#127 = ORIENTED_EDGE ( 'NONE', *, *, #200, .F. ) ;
#128 = CARTESIAN_POINT ( 'NONE',  ( -0.007873212599999998562, 0.0000000000000000000, 0.0000000000000000000 ) ) ;
#129 =( NAMED_UNIT ( * ) SI_UNIT ( $, .STERADIAN. ) SOLID_ANGLE_UNIT ( ) );
#130 = ORIENTED_EDGE ( 'NONE', *, *, #337, .F. ) ;
#131 = VERTEX_POINT ( 'NONE', #355 ) ;
#132 = ADVANCED_FACE ( 'NONE', ( #114 ), #291, .T. ) ;
#133 = VECTOR ( 'NONE', #144, 39.37007874015748143 ) ;
#134 = DIRECTION ( 'NONE',  ( 1.000000000000000000, 0.0000000000000000000, 0.0000000000000000000 ) ) ;
#135 = ORIENTED_EDGE ( 'NONE', *, *, #289, .F. ) ;
#136 = DIRECTION ( 'NONE',  ( -1.000000000000000000, 0.0000000000000000000, 0.0000000000000000000 ) ) ;
#137 = EDGE_LOOP ( 'NONE', ( #187, #195, #272, #81 ) ) ;
#138 = EDGE_LOOP ( 'NONE', ( #150, #13, #53, #130 ) ) ;
#139 = UNCERTAINTY_MEASURE_WITH_UNIT (LENGTH_MEASURE( 1.000000000000000082E-05 ), #148, 'distance_accuracy_value', 'NONE');
#140 = CIRCLE ( 'NONE', #314, 0.07874000000000001831 ) ;
#141 = EDGE_LOOP ( 'NONE', ( #127, #209, #371, #324 ) ) ;
#142 = DIRECTION ( 'NONE',  ( -0.0000000000000000000, -0.0000000000000000000, -1.000000000000000000 ) ) ;
#143 = FACE_OUTER_BOUND ( 'NONE', #25, .T. ) ;
#144 = DIRECTION ( 'NONE',  ( -0.0000000000000000000, -0.0000000000000000000, -1.000000000000000000 ) ) ;
#145 = COLOUR_RGB ( '',0.7921568627450980005, 0.8196078431372548767, 0.9333333333333333481 ) ;
#146 = DIRECTION ( 'NONE',  ( 1.000000000000000000, 0.0000000000000000000, -0.0000000000000000000 ) ) ;
#147 = CYLINDRICAL_SURFACE ( 'NONE', #293, 0.007873212599999998562 ) ;
#148 =( CONVERSION_BASED_UNIT ( 'INCH', #271 ) LENGTH_UNIT ( ) NAMED_UNIT ( #14 ) );
#149 = AXIS2_PLACEMENT_3D ( 'NONE', #246, #82, #110 ) ;
#150 = ORIENTED_EDGE ( 'NONE', *, *, #363, .T. ) ;
#151 = PRODUCT_DEFINITION ( 'UNKNOWN', '', #93, #296 ) ;
#152 = SURFACE_STYLE_FILL_AREA ( #177 ) ;
#153 = ORIENTED_EDGE ( 'NONE', *, *, #161, .T. ) ;
#154 = ORIENTED_EDGE ( 'NONE', *, *, #340, .F. ) ;
#155 = CIRCLE ( 'NONE', #237, 0.07874000000000001831 ) ;
#156 = PRESENTATION_STYLE_ASSIGNMENT (( #122 ) ) ;
#157 = CARTESIAN_POINT ( 'NONE',  ( 0.0000000000000000000, 0.0000000000000000000, 0.0000000000000000000 ) ) ;
#158 = EDGE_LOOP ( 'NONE', ( #8, #221 ) ) ;
#159 = SHAPE_DEFINITION_REPRESENTATION ( #258, #259 ) ;
#160 = CYLINDRICAL_SURFACE ( 'NONE', #236, 0.007480500000000020119 ) ;
#161 = EDGE_CURVE ( 'NONE', #256, #197, #95, .T. ) ;
#162 = DIRECTION ( 'NONE',  ( -1.000000000000000000, 0.0000000000000000000, 0.0000000000000000000 ) ) ;
#163 = ORIENTED_EDGE ( 'NONE', *, *, #88, .F. ) ;
#164 = ORIENTED_EDGE ( 'NONE', *, *, #161, .F. ) ;
#165 =( CONVERSION_BASED_UNIT ( 'INCH', #342 ) LENGTH_UNIT ( ) NAMED_UNIT ( #72 ) );
#166 = ORIENTED_EDGE ( 'NONE', *, *, #363, .F. ) ;
#167 = EDGE_CURVE ( 'NONE', #102, #284, #302, .T. ) ;
#168 = DIRECTION ( 'NONE',  ( 1.000000000000000000, 0.0000000000000000000, 0.0000000000000000000 ) ) ;
#169 = STYLED_ITEM ( 'NONE', ( #156 ), #257 ) ;
#170 = CIRCLE ( 'NONE', #26, 0.06374000000000018540 ) ;
#171 = DIRECTION ( 'NONE',  ( -0.7071067811865507924, 0.0000000000000000000, -0.7071067811865443531 ) ) ;
#172 = CARTESIAN_POINT ( 'NONE',  ( 0.007873212599999998562, 9.641904609596609667E-19, 0.0000000000000000000 ) ) ;
#173 = CARTESIAN_POINT ( 'NONE',  ( 0.0000000000000000000, 0.0000000000000000000, 1.968503999999999809 ) ) ;
#174 = MECHANICAL_DESIGN_GEOMETRIC_PRESENTATION_REPRESENTATION (  '', ( #169 ), #354 ) ;
#175 = DIRECTION ( 'NONE',  ( -0.0000000000000000000, -0.0000000000000000000, -1.000000000000000000 ) ) ;
#176 = DIRECTION ( 'NONE',  ( 0.0000000000000000000, 0.0000000000000000000, 1.000000000000000000 ) ) ;
#177 = FILL_AREA_STYLE ('',( #181 ) ) ;
#178 = CLOSED_SHELL ( 'NONE', ( #83, #50, #99, #378, #241, #6, #132, #74, #28, #224, #46, #196, #315 ) ) ;
#179 = VECTOR ( 'NONE', #358, 39.37007874015748143 ) ;
#180 = CARTESIAN_POINT ( 'NONE',  ( 0.0000000000000000000, 0.0000000000000000000, 0.0000000000000000000 ) ) ;
#181 = FILL_AREA_STYLE_COLOUR ( '', #255 ) ;
#182 = ORIENTED_EDGE ( 'NONE', *, *, #123, .F. ) ;
#183 = DIRECTION ( 'NONE',  ( -0.0000000000000000000, -0.0000000000000000000, -1.000000000000000000 ) ) ;
#184 = ORIENTED_EDGE ( 'NONE', *, *, #88, .T. ) ;
#185 = FACE_OUTER_BOUND ( 'NONE', #158, .T. ) ;
#186 = AXIS2_PLACEMENT_3D ( 'NONE', #60, #142, #32 ) ;
#187 = ORIENTED_EDGE ( 'NONE', *, *, #123, .T. ) ;
#188 = EDGE_CURVE ( 'NONE', #52, #329, #170, .T. ) ;
#189 = DIRECTION ( 'NONE',  ( -0.0000000000000000000, 0.0000000000000000000, -1.000000000000000000 ) ) ;
#190 = DIRECTION ( 'NONE',  ( -1.000000000000000000, 0.0000000000000000000, 0.0000000000000000000 ) ) ;
#191 = DIMENSIONAL_EXPONENTS ( 1.000000000000000000, 0.0000000000000000000, 0.0000000000000000000, 0.0000000000000000000, 0.0000000000000000000, 0.0000000000000000000, 0.0000000000000000000 ) ;
#192 = FACE_OUTER_BOUND ( 'NONE', #219, .T. ) ;
#193 = LENGTH_MEASURE_WITH_UNIT ( LENGTH_MEASURE( 0.02539999999999999897 ), #346 );
#194 = FACE_BOUND ( 'NONE', #49, .T. ) ;
#195 = ORIENTED_EDGE ( 'NONE', *, *, #332, .T. ) ;
#196 = ADVANCED_FACE ( 'NONE', ( #143 ), #379, .T. ) ;
#197 = VERTEX_POINT ( 'NONE', #376 ) ;
#198 = CARTESIAN_POINT ( 'NONE',  ( 0.007480500000000020119, 9.160970381021800957E-19, 0.0000000000000000000 ) ) ;
#199 = DIRECTION ( 'NONE',  ( -1.000000000000000000, 0.0000000000000000000, 0.0000000000000000000 ) ) ;
#200 = EDGE_CURVE ( 'NONE', #131, #212, #348, .T. ) ;
#201 = DIRECTION ( 'NONE',  ( -1.000000000000000000, 0.0000000000000000000, 0.0000000000000000000 ) ) ;
#202 = CARTESIAN_POINT ( 'NONE',  ( -0.007873212599999998562, 0.0000000000000000000, 0.0000000000000000000 ) ) ;
#203 = CONICAL_SURFACE ( 'NONE', #247, 0.06374000000000018540, 0.7853981633974528309 ) ;
#204 = FACE_OUTER_BOUND ( 'NONE', #44, .T. ) ;
#205 = CARTESIAN_POINT ( 'NONE',  ( -0.007480500000000038334, 0.0000000000000000000, 0.3149609999999999910 ) ) ;
#206 = ORIENTED_EDGE ( 'NONE', *, *, #289, .T. ) ;
#207 = VECTOR ( 'NONE', #240, 39.37007874015748143 ) ;
#208 = AXIS2_PLACEMENT_3D ( 'NONE', #180, #183, #328 ) ;
#209 = ORIENTED_EDGE ( 'NONE', *, *, #11, .T. ) ;
#210 = CARTESIAN_POINT ( 'NONE',  ( 0.06374000000000018540, 8.724383797125754882E-18, 1.968503999999999809 ) ) ;
#211 = CARTESIAN_POINT ( 'NONE',  ( -0.007480500000000020119, 0.0000000000000000000, 0.0000000000000000000 ) ) ;
#212 = VERTEX_POINT ( 'NONE', #316 ) ;
#213 = AXIS2_PLACEMENT_3D ( 'NONE', #275, #75, #369 ) ;
#214 = AXIS2_PLACEMENT_3D ( 'NONE', #218, #282, #134 ) ;
#215 = SURFACE_STYLE_FILL_AREA ( #280 ) ;
#216 = CIRCLE ( 'NONE', #208, 0.007873212599999998562 ) ;
#217 = DIRECTION ( 'NONE',  ( -1.000000000000000000, 0.0000000000000000000, 0.0000000000000000000 ) ) ;
#218 = CARTESIAN_POINT ( 'NONE',  ( 0.0000000000000000000, 0.0000000000000000000, 1.953504000000000129 ) ) ;
#219 = EDGE_LOOP ( 'NONE', ( #270, #269 ) ) ;
#220 = FILL_AREA_STYLE_COLOUR ( '', #145 ) ;
#221 = ORIENTED_EDGE ( 'NONE', *, *, #167, .T. ) ;
#222 = APPLICATION_PROTOCOL_DEFINITION ( 'draft international standard', 'automotive_design', 1998, #313 ) ;
#223 = CYLINDRICAL_SURFACE ( 'NONE', #353, 0.007480500000000020119 ) ;
#224 = ADVANCED_FACE ( 'NONE', ( #29 ), #55, .T. ) ;
#225 =( CONVERSION_BASED_UNIT ( 'INCH', #193 ) LENGTH_UNIT ( ) NAMED_UNIT ( #191 ) );
#226 = DIRECTION ( 'NONE',  ( -1.000000000000000000, 0.0000000000000000000, 0.0000000000000000000 ) ) ;
#227 = DIRECTION ( 'NONE',  ( -0.0000000000000000000, -0.0000000000000000000, -1.000000000000000000 ) ) ;
#228 = EDGE_CURVE ( 'NONE', #284, #102, #216, .T. ) ;
#229 = CIRCLE ( 'NONE', #115, 0.007480500000000001905 ) ;
#230 = CARTESIAN_POINT ( 'NONE',  ( 0.0000000000000000000, 0.0000000000000000000, 0.01574800000000000158 ) ) ;
#231 = CIRCLE ( 'NONE', #86, 0.007480500000000001905 ) ;
#232 = EDGE_CURVE ( 'NONE', #104, #242, #330, .T. ) ;
#233 = DIRECTION ( 'NONE',  ( -1.000000000000000000, 0.0000000000000000000, 0.0000000000000000000 ) ) ;
#234 = FACE_OUTER_BOUND ( 'NONE', #10, .T. ) ;
#235 = DIRECTION ( 'NONE',  ( -1.000000000000000000, 0.0000000000000000000, 0.0000000000000000000 ) ) ;
#236 = AXIS2_PLACEMENT_3D ( 'NONE', #19, #90, #233 ) ;
#237 = AXIS2_PLACEMENT_3D ( 'NONE', #42, #65, #245 ) ;
#238 = CARTESIAN_POINT ( 'NONE',  ( 0.07874000000000001831, 9.642868896486260050E-18, 0.3149610000000000465 ) ) ;
#239 = ORIENTED_EDGE ( 'NONE', *, *, #119, .T. ) ;
#240 = DIRECTION ( 'NONE',  ( -0.0000000000000000000, -0.0000000000000000000, -1.000000000000000000 ) ) ;
#241 = ADVANCED_FACE ( 'NONE', ( #67 ), #96, .T. ) ;
#242 = VERTEX_POINT ( 'NONE', #238 ) ;
#243 = PRESENTATION_LAYER_ASSIGNMENT (  '', '', ( #169 ) ) ;
#244 = DIRECTION ( 'NONE',  ( -1.000000000000000000, 0.0000000000000000000, 0.0000000000000000000 ) ) ;
#245 = DIRECTION ( 'NONE',  ( -1.000000000000000000, 0.0000000000000000000, 0.0000000000000000000 ) ) ;
#246 = CARTESIAN_POINT ( 'NONE',  ( 0.0000000000000000000, 0.0000000000000000000, 1.968503999999999809 ) ) ;
#247 = AXIS2_PLACEMENT_3D ( 'NONE', #262, #31, #317 ) ;
#248 = CIRCLE ( 'NONE', #21, 0.007873212599999998562 ) ;
#249 = ORIENTED_EDGE ( 'NONE', *, *, #337, .T. ) ;
#250 = SURFACE_STYLE_USAGE ( .BOTH. , #278 ) ;
#251 = CARTESIAN_POINT ( 'NONE',  ( 0.007873212599999998562, 9.641904609596609667E-19, 0.01574800000000000158 ) ) ;
#252 =( NAMED_UNIT ( * ) SI_UNIT ( $, .STERADIAN. ) SOLID_ANGLE_UNIT ( ) );
#253 = EDGE_CURVE ( 'NONE', #242, #359, #155, .T. ) ;
#254 = CARTESIAN_POINT ( 'NONE',  ( 0.0000000000000000000, 0.0000000000000000000, 1.953504000000000129 ) ) ;
#255 = COLOUR_RGB ( '',0.7921568627450980005, 0.8196078431372548767, 0.9333333333333333481 ) ;
#256 = VERTEX_POINT ( 'NONE', #39 ) ;
#257 = MANIFOLD_SOLID_BREP ( 'Cut-Revolve1', #178 ) ;
#258 = PRODUCT_DEFINITION_SHAPE ( 'NONE', 'NONE',  #151 ) ;
#259 = ADVANCED_BREP_SHAPE_REPRESENTATION ( 'Micro_MMBM-004-8', ( #257, #266 ), #43 ) ;
#260 = DIRECTION ( 'NONE',  ( -1.000000000000000000, 0.0000000000000000000, 0.0000000000000000000 ) ) ;
#261 = CARTESIAN_POINT ( 'NONE',  ( 0.0000000000000000000, 0.0000000000000000000, 0.0000000000000000000 ) ) ;
#262 = CARTESIAN_POINT ( 'NONE',  ( 0.0000000000000000000, 0.0000000000000000000, 1.968503999999999809 ) ) ;
#263 = CARTESIAN_POINT ( 'NONE',  ( -0.007873212599999998562, 0.0000000000000000000, 0.01574800000000000158 ) ) ;
#264 = DIRECTION ( 'NONE',  ( -1.000000000000000000, 0.0000000000000000000, 0.0000000000000000000 ) ) ;
#265 = DIRECTION ( 'NONE',  ( -0.0000000000000000000, -0.0000000000000000000, -1.000000000000000000 ) ) ;
#266 = AXIS2_PLACEMENT_3D ( 'NONE', #157, #338, #73 ) ;
#267 = UNCERTAINTY_MEASURE_WITH_UNIT (LENGTH_MEASURE( 1.000000000000000082E-05 ), #225, 'distance_accuracy_value', 'NONE');
#268 = PLANE ( 'NONE',  #120 ) ;
#269 = ORIENTED_EDGE ( 'NONE', *, *, #253, .T. ) ;
#270 = ORIENTED_EDGE ( 'NONE', *, *, #105, .T. ) ;
#271 = LENGTH_MEASURE_WITH_UNIT ( LENGTH_MEASURE( 0.02539999999999999897 ), #356 );
#272 = ORIENTED_EDGE ( 'NONE', *, *, #228, .F. ) ;
#273 = EDGE_LOOP ( 'NONE', ( #294, #71, #249, #299 ) ) ;
#274 =( NAMED_UNIT ( * ) SI_UNIT ( $, .STERADIAN. ) SOLID_ANGLE_UNIT ( ) );
#275 = CARTESIAN_POINT ( 'NONE',  ( 0.0000000000000000000, 0.0000000000000000000, 0.3149609999999999910 ) ) ;
#276 = CIRCLE ( 'NONE', #36, 0.07874000000000001831 ) ;
#277 = PRESENTATION_LAYER_ASSIGNMENT (  '', '', ( #335 ) ) ;
#278 = SURFACE_SIDE_STYLE ('',( #215 ) ) ;
#279 = CARTESIAN_POINT ( 'NONE',  ( 0.0000000000000000000, 0.0000000000000000000, 1.968503999999999809 ) ) ;
#280 = FILL_AREA_STYLE ('',( #220 ) ) ;
#281 = VERTEX_POINT ( 'NONE', #205 ) ;
#282 = DIRECTION ( 'NONE',  ( 0.0000000000000000000, 0.0000000000000000000, -1.000000000000000000 ) ) ;
#283 = FACE_OUTER_BOUND ( 'NONE', #273, .T. ) ;
#284 = VERTEX_POINT ( 'NONE', #128 ) ;
#285 = AXIS2_PLACEMENT_3D ( 'NONE', #173, #117, #146 ) ;
#286 = CARTESIAN_POINT ( 'NONE',  ( -0.07874000000000001831, 0.0000000000000000000, 1.953504000000000129 ) ) ;
#287 = CARTESIAN_POINT ( 'NONE',  ( 0.0000000000000000000, 0.0000000000000000000, 0.01797518382871478304 ) ) ;
#288 = DIRECTION ( 'NONE',  ( -1.000000000000000000, 0.0000000000000000000, 0.0000000000000000000 ) ) ;
#289 = EDGE_CURVE ( 'NONE', #329, #104, #292, .T. ) ;
#290 = DIRECTION ( 'NONE',  ( -0.0000000000000000000, -0.0000000000000000000, -1.000000000000000000 ) ) ;
#291 = PLANE ( 'NONE',  #285 ) ;
#292 = LINE ( 'NONE', #9, #4 ) ;
#293 = AXIS2_PLACEMENT_3D ( 'NONE', #261, #290, #264 ) ;
#294 = ORIENTED_EDGE ( 'NONE', *, *, #232, .F. ) ;
#295 = EDGE_CURVE ( 'NONE', #281, #256, #61, .T. ) ;
#296 = PRODUCT_DEFINITION_CONTEXT ( 'detailed design', #366, 'design' ) ;
#297 = DIRECTION ( 'NONE',  ( -0.0000000000000000000, -0.0000000000000000000, -1.000000000000000000 ) ) ;
#298 =( NAMED_UNIT ( * ) PLANE_ANGLE_UNIT ( ) SI_UNIT ( $, .RADIAN. ) );
#299 = ORIENTED_EDGE ( 'NONE', *, *, #253, .F. ) ;
#300 = CARTESIAN_POINT ( 'NONE',  ( 0.0000000000000000000, 0.0000000000000000000, 1.968503999999999809 ) ) ;
#301 =( GEOMETRIC_REPRESENTATION_CONTEXT ( 3 ) GLOBAL_UNCERTAINTY_ASSIGNED_CONTEXT ( ( #62 ) ) GLOBAL_UNIT_ASSIGNED_CONTEXT ( ( #165, #374, #274 ) ) REPRESENTATION_CONTEXT ( 'NONE', 'WORKASPACE' ) );
#302 = CIRCLE ( 'NONE', #186, 0.007873212599999998562 ) ;
#303 = ORIENTED_EDGE ( 'NONE', *, *, #368, .T. ) ;
#304 = APPLICATION_PROTOCOL_DEFINITION ( 'draft international standard', 'automotive_design', 1998, #366 ) ;
#305 = FACE_OUTER_BOUND ( 'NONE', #364, .T. ) ;
#306 = DIRECTION ( 'NONE',  ( -0.0000000000000000000, -0.0000000000000000000, -1.000000000000000000 ) ) ;
#307 = ORIENTED_EDGE ( 'NONE', *, *, #308, .T. ) ;
#308 = EDGE_CURVE ( 'NONE', #212, #45, #7, .T. ) ;
#309 = FACE_OUTER_BOUND ( 'NONE', #141, .T. ) ;
#310 = PRESENTATION_STYLE_ASSIGNMENT (( #250 ) ) ;
#311 = ORIENTED_EDGE ( 'NONE', *, *, #295, .F. ) ;
#312 = ORIENTED_EDGE ( 'NONE', *, *, #18, .F. ) ;
#313 = APPLICATION_CONTEXT ( 'automotive_design' ) ;
#314 = AXIS2_PLACEMENT_3D ( 'NONE', #254, #375, #168 ) ;
#315 = ADVANCED_FACE ( 'NONE', ( #185 ), #268, .F. ) ;
#316 = CARTESIAN_POINT ( 'NONE',  ( 0.007480500000000001905, 9.401437495309192793E-19, 0.01797518382871478304 ) ) ;
#317 = DIRECTION ( 'NONE',  ( -1.000000000000000000, 0.0000000000000000000, 0.0000000000000000000 ) ) ;
#318 = CARTESIAN_POINT ( 'NONE',  ( 0.0000000000000000000, 0.0000000000000000000, 0.01574800000000000158 ) ) ;
#319 = VECTOR ( 'NONE', #362, 39.37007874015748854 ) ;
#320 = CARTESIAN_POINT ( 'NONE',  ( -0.06374000000000018540, 0.0000000000000000000, 1.968503999999999809 ) ) ;
#321 = AXIS2_PLACEMENT_3D ( 'NONE', #318, #322, #235 ) ;
#322 = DIRECTION ( 'NONE',  ( -0.0000000000000000000, -0.0000000000000000000, -1.000000000000000000 ) ) ;
#323 = DIRECTION ( 'NONE',  ( 0.7071067811865507924, 8.659560562354973534E-17, -0.7071067811865443531 ) ) ;
#324 = ORIENTED_EDGE ( 'NONE', *, *, #368, .F. ) ;
#325 = CARTESIAN_POINT ( 'NONE',  ( -0.07874000000000001831, 0.0000000000000000000, 1.968503999999999809 ) ) ;
#326 = CIRCLE ( 'NONE', #321, 0.007873212599999998562 ) ;
#327 = ORIENTED_EDGE ( 'NONE', *, *, #188, .F. ) ;
#328 = DIRECTION ( 'NONE',  ( -1.000000000000000000, 0.0000000000000000000, 0.0000000000000000000 ) ) ;
#329 = VERTEX_POINT ( 'NONE', #210 ) ;
#330 = LINE ( 'NONE', #40, #207 ) ;
#331 = ORIENTED_EDGE ( 'NONE', *, *, #15, .F. ) ;
#332 = EDGE_CURVE ( 'NONE', #45, #102, #69, .T. ) ;
#333 = DIRECTION ( 'NONE',  ( 0.0000000000000000000, 0.0000000000000000000, 1.000000000000000000 ) ) ;
#334 = ORIENTED_EDGE ( 'NONE', *, *, #11, .F. ) ;
#335 = STYLED_ITEM ( 'NONE', ( #310 ), #259 ) ;
#336 = AXIS2_PLACEMENT_3D ( 'NONE', #118, #227, #260 ) ;
#337 = EDGE_CURVE ( 'NONE', #79, #359, #37, .T. ) ;
#338 = DIRECTION ( 'NONE',  ( 0.0000000000000000000, 0.0000000000000000000, 1.000000000000000000 ) ) ;
#339 = ORIENTED_EDGE ( 'NONE', *, *, #340, .T. ) ;
#340 = EDGE_CURVE ( 'NONE', #45, #197, #248, .T. ) ;
#341 = CYLINDRICAL_SURFACE ( 'NONE', #20, 0.07874000000000001831 ) ;
#342 = LENGTH_MEASURE_WITH_UNIT ( LENGTH_MEASURE( 0.02539999999999999897 ), #51 );
#343 = ORIENTED_EDGE ( 'NONE', *, *, #119, .F. ) ;
#344 = AXIS2_PLACEMENT_3D ( 'NONE', #300, #297, #244 ) ;
#345 = EDGE_LOOP ( 'NONE', ( #64, #206, #166, #163 ) ) ;
#346 =( LENGTH_UNIT ( ) NAMED_UNIT ( * ) SI_UNIT ( $, .METRE. ) );
#347 = PLANE ( 'NONE',  #5 ) ;
#348 = LINE ( 'NONE', #198, #121 ) ;
#349 = VECTOR ( 'NONE', #265, 39.37007874015748143 ) ;
#350 = LINE ( 'NONE', #202, #133 ) ;
#351 = DIRECTION ( 'NONE',  ( -1.000000000000000000, 0.0000000000000000000, 0.0000000000000000000 ) ) ;
#352 = DIRECTION ( 'NONE',  ( -0.0000000000000000000, -0.0000000000000000000, -1.000000000000000000 ) ) ;
#353 = AXIS2_PLACEMENT_3D ( 'NONE', #365, #370, #217 ) ;
#354 =( GEOMETRIC_REPRESENTATION_CONTEXT ( 3 ) GLOBAL_UNCERTAINTY_ASSIGNED_CONTEXT ( ( #139 ) ) GLOBAL_UNIT_ASSIGNED_CONTEXT ( ( #148, #298, #129 ) ) REPRESENTATION_CONTEXT ( 'NONE', 'WORKASPACE' ) );
#355 = CARTESIAN_POINT ( 'NONE',  ( 0.007480500000000038334, 9.160970381021822142E-19, 0.3149609999999999910 ) ) ;
#356 =( LENGTH_UNIT ( ) NAMED_UNIT ( * ) SI_UNIT ( $, .METRE. ) );
#357 = ORIENTED_EDGE ( 'NONE', *, *, #200, .T. ) ;
#358 = DIRECTION ( 'NONE',  ( -0.0000000000000000000, -0.0000000000000000000, -1.000000000000000000 ) ) ;
#359 = VERTEX_POINT ( 'NONE', #76 ) ;
#360 = SURFACE_SIDE_STYLE ('',( #152 ) ) ;
#361 = ORIENTED_EDGE ( 'NONE', *, *, #113, .T. ) ;
#362 = DIRECTION ( 'NONE',  ( 0.1736481776669308030, 2.126576849575777153E-17, -0.9848077530122077983 ) ) ;
#363 = EDGE_CURVE ( 'NONE', #79, #104, #116, .T. ) ;
#364 = EDGE_LOOP ( 'NONE', ( #17, #357, #343, #311 ) ) ;
#365 = CARTESIAN_POINT ( 'NONE',  ( 0.0000000000000000000, 0.0000000000000000000, 0.0000000000000000000 ) ) ;
#366 = APPLICATION_CONTEXT ( 'automotive_design' ) ;
#367 = VECTOR ( 'NONE', #171, 39.37007874015748143 ) ;
#368 = EDGE_CURVE ( 'NONE', #212, #256, #231, .T. ) ;
#369 = DIRECTION ( 'NONE',  ( -1.000000000000000000, 0.0000000000000000000, 0.0000000000000000000 ) ) ;
#370 = DIRECTION ( 'NONE',  ( -0.0000000000000000000, -0.0000000000000000000, -1.000000000000000000 ) ) ;
#371 = ORIENTED_EDGE ( 'NONE', *, *, #295, .T. ) ;
#372 = VECTOR ( 'NONE', #124, 39.37007874015748143 ) ;
#373 = CIRCLE ( 'NONE', #92, 0.007480500000000038334 ) ;
#374 =( NAMED_UNIT ( * ) PLANE_ANGLE_UNIT ( ) SI_UNIT ( $, .RADIAN. ) );
#375 = DIRECTION ( 'NONE',  ( 0.0000000000000000000, 0.0000000000000000000, -1.000000000000000000 ) ) ;
#376 = CARTESIAN_POINT ( 'NONE',  ( -0.007873212599999998562, 0.0000000000000000000, 0.01574800000000000158 ) ) ;
#377 = DIRECTION ( 'NONE',  ( -0.0000000000000000000, -0.0000000000000000000, -1.000000000000000000 ) ) ;
#378 = ADVANCED_FACE ( 'NONE', ( #107 ), #103, .T. ) ;
#379 = CYLINDRICAL_SURFACE ( 'NONE', #336, 0.007873212599999998562 ) ;
ENDSEC;
END-ISO-10303-21;
