ISO-10303-21;
HEADER;
FILE_DESCRIPTION (( 'STEP AP214' ),
    '1' );
FILE_NAME ('Micro_RNC-187-2X.STEP',
    '2021-09-03T17:34:39',
    ( '' ),
    ( '' ),
    'SwSTEP 2.0',
    'SolidWorks 2020',
    '' );
FILE_SCHEMA (( 'AUTOMOTIVE_DESIGN' ));
ENDSEC;

DATA;
#1 = DIRECTION ( 'NONE',  ( -1.000000000000000000, 0.0000000000000000000, 0.0000000000000000000 ) ) ;
#2 = DIRECTION ( 'NONE',  ( 0.7071067811865490160, 0.0000000000000000000, 0.7071067811865460184 ) ) ;
#3 = AXIS2_PLACEMENT_3D ( 'NONE', #125, #24, #168 ) ;
#4 = ADVANCED_FACE ( 'NONE', ( #107 ), #225, .T. ) ;
#5 = CARTESIAN_POINT ( 'NONE',  ( 0.004000000000000000083, 0.0000000000000000000, 0.0000000000000000000 ) ) ;
#6 = APPLICATION_CONTEXT ( 'automotive_design' ) ;
#7 = LENGTH_MEASURE_WITH_UNIT ( LENGTH_MEASURE( 0.02539999999999999897 ), #100 );
#8 = DIRECTION ( 'NONE',  ( -1.000000000000000000, 0.0000000000000000000, 0.0000000000000000000 ) ) ;
#9 = EDGE_CURVE ( 'NONE', #35, #75, #123, .T. ) ;
#10 = PRODUCT ( 'Micro_RNC-187-2X', 'Micro_RNC-187-2X', '', ( #68 ) ) ;
#11 = AXIS2_PLACEMENT_3D ( 'NONE', #56, #202, #26 ) ;
#12 = EDGE_CURVE ( 'NONE', #160, #244, #47, .T. ) ;
#13 = CIRCLE ( 'NONE', #155, 0.09375000000000001388 ) ;
#14 = DIRECTION ( 'NONE',  ( 1.000000000000000000, 0.0000000000000000000, 0.0000000000000000000 ) ) ;
#15 = ORIENTED_EDGE ( 'NONE', *, *, #174, .T. ) ;
#16 = PRODUCT_DEFINITION_CONTEXT ( 'detailed design', #185, 'design' ) ;
#17 = ORIENTED_EDGE ( 'NONE', *, *, #25, .T. ) ;
#18 = MECHANICAL_DESIGN_GEOMETRIC_PRESENTATION_REPRESENTATION (  '', ( #97 ), #77 ) ;
#19 = ORIENTED_EDGE ( 'NONE', *, *, #229, .T. ) ;
#20 = CARTESIAN_POINT ( 'NONE',  ( 0.0000000000000000000, 0.0000000000000000000, 0.08974999999999963562 ) ) ;
#21 = PRESENTATION_LAYER_ASSIGNMENT (  '', '', ( #97 ) ) ;
#22 = DIRECTION ( 'NONE',  ( 0.0000000000000000000, 0.0000000000000000000, -1.000000000000000000 ) ) ;
#23 = CIRCLE ( 'NONE', #37, 0.09375000000000001388 ) ;
#24 = DIRECTION ( 'NONE',  ( -0.0000000000000000000, -0.0000000000000000000, -1.000000000000000000 ) ) ;
#25 = EDGE_CURVE ( 'NONE', #75, #244, #23, .T. ) ;
#26 = DIRECTION ( 'NONE',  ( 1.000000000000000000, 0.0000000000000000000, -0.0000000000000000000 ) ) ;
#27 = DIRECTION ( 'NONE',  ( -0.0000000000000000000, -0.0000000000000000000, -1.000000000000000000 ) ) ;
#28 = AXIS2_PLACEMENT_3D ( 'NONE', #224, #94, #1 ) ;
#29 = EDGE_CURVE ( 'NONE', #160, #88, #201, .T. ) ;
#30 =( NAMED_UNIT ( * ) PLANE_ANGLE_UNIT ( ) SI_UNIT ( $, .RADIAN. ) );
#31 = DIRECTION ( 'NONE',  ( -1.000000000000000000, 0.0000000000000000000, 0.0000000000000000000 ) ) ;
#32 = CARTESIAN_POINT ( 'NONE',  ( 0.0000000000000000000, 0.0000000000000000000, 2.000000000000000000 ) ) ;
#33 = DIRECTION ( 'NONE',  ( 1.000000000000000000, 0.0000000000000000000, 0.0000000000000000000 ) ) ;
#34 = APPLICATION_PROTOCOL_DEFINITION ( 'draft international standard', 'automotive_design', 1998, #185 ) ;
#35 = VERTEX_POINT ( 'NONE', #110 ) ;
#36 = ORIENTED_EDGE ( 'NONE', *, *, #210, .F. ) ;
#37 = AXIS2_PLACEMENT_3D ( 'NONE', #20, #27, #93 ) ;
#38 = EDGE_LOOP ( 'NONE', ( #89, #179 ) ) ;
#39 = CARTESIAN_POINT ( 'NONE',  ( 0.0000000000000000000, 0.0000000000000000000, 2.000000000000000000 ) ) ;
#40 = CARTESIAN_POINT ( 'NONE',  ( 0.0000000000000000000, 0.0000000000000000000, 2.000000000000000000 ) ) ;
#41 = EDGE_CURVE ( 'NONE', #35, #72, #13, .T. ) ;
#42 = DIRECTION ( 'NONE',  ( 0.0000000000000000000, 0.0000000000000000000, -1.000000000000000000 ) ) ;
#43 = FILL_AREA_STYLE ('',( #206 ) ) ;
#44 = FACE_OUTER_BOUND ( 'NONE', #70, .T. ) ;
#45 =( NAMED_UNIT ( * ) SI_UNIT ( $, .STERADIAN. ) SOLID_ANGLE_UNIT ( ) );
#46 = APPLICATION_PROTOCOL_DEFINITION ( 'draft international standard', 'automotive_design', 1998, #6 ) ;
#47 = LINE ( 'NONE', #102, #86 ) ;
#48 = UNCERTAINTY_MEASURE_WITH_UNIT (LENGTH_MEASURE( 1.000000000000000082E-05 ), #87, 'distance_accuracy_value', 'NONE');
#49 = ORIENTED_EDGE ( 'NONE', *, *, #25, .F. ) ;
#50 = VERTEX_POINT ( 'NONE', #57 ) ;
#51 = EDGE_CURVE ( 'NONE', #88, #75, #248, .T. ) ;
#52 = DIMENSIONAL_EXPONENTS ( 1.000000000000000000, 0.0000000000000000000, 0.0000000000000000000, 0.0000000000000000000, 0.0000000000000000000, 0.0000000000000000000, 0.0000000000000000000 ) ;
#53 = ORIENTED_EDGE ( 'NONE', *, *, #51, .F. ) ;
#54 = DIRECTION ( 'NONE',  ( 0.0000000000000000000, 0.0000000000000000000, -1.000000000000000000 ) ) ;
#55 = CIRCLE ( 'NONE', #105, 0.004000000000000000083 ) ;
#56 = CARTESIAN_POINT ( 'NONE',  ( 0.0000000000000000000, 0.0000000000000000000, 0.0000000000000000000 ) ) ;
#57 = CARTESIAN_POINT ( 'NONE',  ( 0.004000000000000000083, 0.0000000000000000000, 2.000000000000000000 ) ) ;
#58 = DIRECTION ( 'NONE',  ( -0.7071067811865490160, -8.659560562354951347E-17, -0.7071067811865460184 ) ) ;
#59 = AXIS2_PLACEMENT_3D ( 'NONE', #32, #209, #195 ) ;
#60 = CARTESIAN_POINT ( 'NONE',  ( 0.0000000000000000000, 0.0000000000000000000, 2.000000000000000000 ) ) ;
#61 = CIRCLE ( 'NONE', #65, 0.09375000000000001388 ) ;
#62 = CARTESIAN_POINT ( 'NONE',  ( 0.004000000000000000083, 0.0000000000000000000, 2.000000000000000000 ) ) ;
#63 =( CONVERSION_BASED_UNIT ( 'INCH', #135 ) LENGTH_UNIT ( ) NAMED_UNIT ( #52 ) );
#64 =( NAMED_UNIT ( * ) SI_UNIT ( $, .STERADIAN. ) SOLID_ANGLE_UNIT ( ) );
#65 = AXIS2_PLACEMENT_3D ( 'NONE', #182, #22, #130 ) ;
#66 = ADVANCED_FACE ( 'NONE', ( #249 ), #170, .T. ) ;
#67 =( NAMED_UNIT ( * ) PLANE_ANGLE_UNIT ( ) SI_UNIT ( $, .RADIAN. ) );
#68 = PRODUCT_CONTEXT ( 'NONE', #6, 'mechanical' ) ;
#69 = ORIENTED_EDGE ( 'NONE', *, *, #149, .F. ) ;
#70 = EDGE_LOOP ( 'NONE', ( #138, #103, #19, #49 ) ) ;
#71 = COLOUR_RGB ( '',0.7921568627450980005, 0.8196078431372548767, 0.9333333333333333481 ) ;
#72 = VERTEX_POINT ( 'NONE', #146 ) ;
#73 = DIMENSIONAL_EXPONENTS ( 1.000000000000000000, 0.0000000000000000000, 0.0000000000000000000, 0.0000000000000000000, 0.0000000000000000000, 0.0000000000000000000, 0.0000000000000000000 ) ;
#74 = EDGE_LOOP ( 'NONE', ( #245, #238, #199, #17 ) ) ;
#75 = VERTEX_POINT ( 'NONE', #80 ) ;
#76 = AXIS2_PLACEMENT_3D ( 'NONE', #223, #54, #33 ) ;
#77 =( GEOMETRIC_REPRESENTATION_CONTEXT ( 3 ) GLOBAL_UNCERTAINTY_ASSIGNED_CONTEXT ( ( #48 ) ) GLOBAL_UNIT_ASSIGNED_CONTEXT ( ( #87, #121, #237 ) ) REPRESENTATION_CONTEXT ( 'NONE', 'WORKASPACE' ) );
#78 = VECTOR ( 'NONE', #58, 39.37007874015748143 ) ;
#79 = DIRECTION ( 'NONE',  ( 0.0000000000000000000, 0.0000000000000000000, 1.000000000000000000 ) ) ;
#80 = CARTESIAN_POINT ( 'NONE',  ( 0.09375000000000001388, 1.148106374200643863E-17, 0.08974999999999963562 ) ) ;
#81 = DIRECTION ( 'NONE',  ( 1.000000000000000000, 0.0000000000000000000, 0.0000000000000000000 ) ) ;
#82 = FACE_OUTER_BOUND ( 'NONE', #74, .T. ) ;
#83 = DIRECTION ( 'NONE',  ( 0.0000000000000000000, 0.0000000000000000000, 1.000000000000000000 ) ) ;
#84 =( CONVERSION_BASED_UNIT ( 'INCH', #7 ) LENGTH_UNIT ( ) NAMED_UNIT ( #73 ) );
#85 = ADVANCED_FACE ( 'NONE', ( #169 ), #96, .T. ) ;
#86 = VECTOR ( 'NONE', #171, 39.37007874015748143 ) ;
#87 =( CONVERSION_BASED_UNIT ( 'INCH', #159 ) LENGTH_UNIT ( ) NAMED_UNIT ( #188 ) );
#88 = VERTEX_POINT ( 'NONE', #167 ) ;
#89 = ORIENTED_EDGE ( 'NONE', *, *, #216, .T. ) ;
#90 = EDGE_LOOP ( 'NONE', ( #162, #120 ) ) ;
#91 = PRODUCT_RELATED_PRODUCT_CATEGORY ( 'part', '', ( #10 ) ) ;
#92 = CARTESIAN_POINT ( 'NONE',  ( 0.0000000000000000000, 0.0000000000000000000, 0.0000000000000000000 ) ) ;
#93 = DIRECTION ( 'NONE',  ( -1.000000000000000000, 0.0000000000000000000, 0.0000000000000000000 ) ) ;
#94 = DIRECTION ( 'NONE',  ( -0.0000000000000000000, -0.0000000000000000000, -1.000000000000000000 ) ) ;
#95 = LINE ( 'NONE', #127, #78 ) ;
#96 = CYLINDRICAL_SURFACE ( 'NONE', #101, 0.09375000000000001388 ) ;
#97 = STYLED_ITEM ( 'NONE', ( #158 ), #193 ) ;
#98 = DIRECTION ( 'NONE',  ( -1.000000000000000000, 0.0000000000000000000, 0.0000000000000000000 ) ) ;
#99 = UNCERTAINTY_MEASURE_WITH_UNIT (LENGTH_MEASURE( 1.000000000000000082E-05 ), #63, 'distance_accuracy_value', 'NONE');
#100 =( LENGTH_UNIT ( ) NAMED_UNIT ( * ) SI_UNIT ( $, .METRE. ) );
#101 = AXIS2_PLACEMENT_3D ( 'NONE', #39, #111, #148 ) ;
#102 = CARTESIAN_POINT ( 'NONE',  ( -0.004000000000000000083, 4.898587196589413537E-19, 0.0000000000000000000 ) ) ;
#103 = ORIENTED_EDGE ( 'NONE', *, *, #41, .T. ) ;
#104 = EDGE_LOOP ( 'NONE', ( #196, #219, #139, #221 ) ) ;
#105 = AXIS2_PLACEMENT_3D ( 'NONE', #173, #115, #98 ) ;
#106 = SURFACE_STYLE_USAGE ( .BOTH. , #142 ) ;
#107 = FACE_OUTER_BOUND ( 'NONE', #164, .T. ) ;
#108 = DIRECTION ( 'NONE',  ( -1.000000000000000000, 0.0000000000000000000, 0.0000000000000000000 ) ) ;
#109 = DIRECTION ( 'NONE',  ( 0.7071067811865490160, 0.0000000000000000000, -0.7071067811865460184 ) ) ;
#110 = CARTESIAN_POINT ( 'NONE',  ( 0.09375000000000001388, 1.148106374200643863E-17, 1.910250000000000226 ) ) ;
#111 = DIRECTION ( 'NONE',  ( -0.0000000000000000000, -0.0000000000000000000, -1.000000000000000000 ) ) ;
#112 = FACE_OUTER_BOUND ( 'NONE', #38, .T. ) ;
#113 = DIRECTION ( 'NONE',  ( -0.0000000000000000000, -0.0000000000000000000, -1.000000000000000000 ) ) ;
#114 = VECTOR ( 'NONE', #144, 39.37007874015748143 ) ;
#115 = DIRECTION ( 'NONE',  ( 0.0000000000000000000, 0.0000000000000000000, -1.000000000000000000 ) ) ;
#116 = MECHANICAL_DESIGN_GEOMETRIC_PRESENTATION_REPRESENTATION (  '', ( #194 ), #215 ) ;
#117 = EDGE_LOOP ( 'NONE', ( #143, #239, #198, #53 ) ) ;
#118 = ADVANCED_FACE ( 'NONE', ( #82 ), #189, .T. ) ;
#119 = VECTOR ( 'NONE', #113, 39.37007874015748143 ) ;
#120 = ORIENTED_EDGE ( 'NONE', *, *, #191, .F. ) ;
#121 =( NAMED_UNIT ( * ) PLANE_ANGLE_UNIT ( ) SI_UNIT ( $, .RADIAN. ) );
#122 = EDGE_LOOP ( 'NONE', ( #178, #15, #141, #69 ) ) ;
#123 = LINE ( 'NONE', #200, #114 ) ;
#124 = AXIS2_PLACEMENT_3D ( 'NONE', #208, #79, #81 ) ;
#125 = CARTESIAN_POINT ( 'NONE',  ( 0.0000000000000000000, 0.0000000000000000000, 0.0000000000000000000 ) ) ;
#126 = DIRECTION ( 'NONE',  ( 1.000000000000000000, 0.0000000000000000000, 0.0000000000000000000 ) ) ;
#127 = CARTESIAN_POINT ( 'NONE',  ( -0.004000000000000000083, -4.898587196589413537E-19, 2.000000000000000000 ) ) ;
#128 = DIRECTION ( 'NONE',  ( 0.0000000000000000000, 0.0000000000000000000, -1.000000000000000000 ) ) ;
#129 = PRODUCT_DEFINITION ( 'UNKNOWN', '', #247, #16 ) ;
#130 = DIRECTION ( 'NONE',  ( -1.000000000000000000, 0.0000000000000000000, 0.0000000000000000000 ) ) ;
#131 = FACE_OUTER_BOUND ( 'NONE', #90, .T. ) ;
#132 = CLOSED_SHELL ( 'NONE', ( #207, #66, #85, #226, #118, #166, #4, #222 ) ) ;
#133 = SURFACE_SIDE_STYLE ('',( #214 ) ) ;
#134 = SURFACE_STYLE_USAGE ( .BOTH. , #133 ) ;
#135 = LENGTH_MEASURE_WITH_UNIT ( LENGTH_MEASURE( 0.02539999999999999897 ), #233 );
#136 = CARTESIAN_POINT ( 'NONE',  ( 0.0000000000000000000, 0.0000000000000000000, 2.000000000000000000 ) ) ;
#137 = UNCERTAINTY_MEASURE_WITH_UNIT (LENGTH_MEASURE( 1.000000000000000082E-05 ), #84, 'distance_accuracy_value', 'NONE');
#138 = ORIENTED_EDGE ( 'NONE', *, *, #9, .F. ) ;
#139 = ORIENTED_EDGE ( 'NONE', *, *, #150, .F. ) ;
#140 =( LENGTH_UNIT ( ) NAMED_UNIT ( * ) SI_UNIT ( $, .METRE. ) );
#141 = ORIENTED_EDGE ( 'NONE', *, *, #41, .F. ) ;
#142 = SURFACE_SIDE_STYLE ('',( #235 ) ) ;
#143 = ORIENTED_EDGE ( 'NONE', *, *, #29, .F. ) ;
#144 = DIRECTION ( 'NONE',  ( -0.0000000000000000000, -0.0000000000000000000, -1.000000000000000000 ) ) ;
#145 = VECTOR ( 'NONE', #2, 39.37007874015748143 ) ;
#146 = CARTESIAN_POINT ( 'NONE',  ( -0.09375000000000001388, 0.0000000000000000000, 1.910250000000000226 ) ) ;
#147 = DIRECTION ( 'NONE',  ( 1.000000000000000000, 0.0000000000000000000, 0.0000000000000000000 ) ) ;
#148 = DIRECTION ( 'NONE',  ( -1.000000000000000000, 0.0000000000000000000, 0.0000000000000000000 ) ) ;
#149 = EDGE_CURVE ( 'NONE', #50, #35, #151, .T. ) ;
#150 = EDGE_CURVE ( 'NONE', #244, #75, #176, .T. ) ;
#151 = LINE ( 'NONE', #62, #246 ) ;
#152 = DIRECTION ( 'NONE',  ( -0.0000000000000000000, -0.0000000000000000000, -1.000000000000000000 ) ) ;
#153 =( GEOMETRIC_REPRESENTATION_CONTEXT ( 3 ) GLOBAL_UNCERTAINTY_ASSIGNED_CONTEXT ( ( #137 ) ) GLOBAL_UNIT_ASSIGNED_CONTEXT ( ( #84, #67, #64 ) ) REPRESENTATION_CONTEXT ( 'NONE', 'WORKASPACE' ) );
#154 = CYLINDRICAL_SURFACE ( 'NONE', #183, 0.09375000000000001388 ) ;
#155 = AXIS2_PLACEMENT_3D ( 'NONE', #203, #42, #186 ) ;
#156 = FILL_AREA_STYLE_COLOUR ( '', #71 ) ;
#157 = FILL_AREA_STYLE ('',( #156 ) ) ;
#158 = PRESENTATION_STYLE_ASSIGNMENT (( #106 ) ) ;
#159 = LENGTH_MEASURE_WITH_UNIT ( LENGTH_MEASURE( 0.02539999999999999897 ), #140 );
#160 = VERTEX_POINT ( 'NONE', #227 ) ;
#161 = AXIS2_PLACEMENT_3D ( 'NONE', #184, #172, #8 ) ;
#162 = ORIENTED_EDGE ( 'NONE', *, *, #243, .F. ) ;
#163 = CONICAL_SURFACE ( 'NONE', #180, 0.004000000000000000083, 0.7853981633974503884 ) ;
#164 = EDGE_LOOP ( 'NONE', ( #181, #177, #242, #36 ) ) ;
#165 = VERTEX_POINT ( 'NONE', #228 ) ;
#166 = ADVANCED_FACE ( 'NONE', ( #112 ), #187, .F. ) ;
#167 = CARTESIAN_POINT ( 'NONE',  ( 0.004000000000000000083, 0.0000000000000000000, 0.0000000000000000000 ) ) ;
#168 = DIRECTION ( 'NONE',  ( -1.000000000000000000, 0.0000000000000000000, 0.0000000000000000000 ) ) ;
#169 = FACE_OUTER_BOUND ( 'NONE', #104, .T. ) ;
#170 = CONICAL_SURFACE ( 'NONE', #124, 0.004000000000000000083, 0.7853981633974503884 ) ;
#171 = DIRECTION ( 'NONE',  ( -0.7071067811865490160, 8.659560562354951347E-17, 0.7071067811865460184 ) ) ;
#172 = DIRECTION ( 'NONE',  ( -0.0000000000000000000, -0.0000000000000000000, -1.000000000000000000 ) ) ;
#173 = CARTESIAN_POINT ( 'NONE',  ( 0.0000000000000000000, 0.0000000000000000000, 2.000000000000000000 ) ) ;
#174 = EDGE_CURVE ( 'NONE', #165, #72, #95, .T. ) ;
#175 = PLANE ( 'NONE',  #59 ) ;
#176 = CIRCLE ( 'NONE', #28, 0.09375000000000001388 ) ;
#177 = ORIENTED_EDGE ( 'NONE', *, *, #191, .T. ) ;
#178 = ORIENTED_EDGE ( 'NONE', *, *, #243, .T. ) ;
#179 = ORIENTED_EDGE ( 'NONE', *, *, #29, .T. ) ;
#180 = AXIS2_PLACEMENT_3D ( 'NONE', #40, #128, #126 ) ;
#181 = ORIENTED_EDGE ( 'NONE', *, *, #174, .F. ) ;
#182 = CARTESIAN_POINT ( 'NONE',  ( 0.0000000000000000000, 0.0000000000000000000, 1.910250000000000226 ) ) ;
#183 = AXIS2_PLACEMENT_3D ( 'NONE', #136, #152, #31 ) ;
#184 = CARTESIAN_POINT ( 'NONE',  ( 0.0000000000000000000, 0.0000000000000000000, 0.0000000000000000000 ) ) ;
#185 = APPLICATION_CONTEXT ( 'automotive_design' ) ;
#186 = DIRECTION ( 'NONE',  ( -1.000000000000000000, 0.0000000000000000000, 0.0000000000000000000 ) ) ;
#187 = PLANE ( 'NONE',  #11 ) ;
#188 = DIMENSIONAL_EXPONENTS ( 1.000000000000000000, 0.0000000000000000000, 0.0000000000000000000, 0.0000000000000000000, 0.0000000000000000000, 0.0000000000000000000, 0.0000000000000000000 ) ;
#189 = CONICAL_SURFACE ( 'NONE', #236, 0.004000000000000000083, 0.7853981633974503884 ) ;
#190 = CARTESIAN_POINT ( 'NONE',  ( -0.09375000000000001388, 0.0000000000000000000, 0.08974999999999963562 ) ) ;
#191 = EDGE_CURVE ( 'NONE', #165, #50, #211, .T. ) ;
#192 = LINE ( 'NONE', #212, #119 ) ;
#193 = ADVANCED_BREP_SHAPE_REPRESENTATION ( 'Micro_RNC-187-2X', ( #213, #230 ), #153 ) ;
#194 = STYLED_ITEM ( 'NONE', ( #234 ), #213 ) ;
#195 = DIRECTION ( 'NONE',  ( 1.000000000000000000, 0.0000000000000000000, -0.0000000000000000000 ) ) ;
#196 = ORIENTED_EDGE ( 'NONE', *, *, #210, .T. ) ;
#197 = COLOUR_RGB ( '',0.7921568627450980005, 0.8196078431372548767, 0.9333333333333333481 ) ;
#198 = ORIENTED_EDGE ( 'NONE', *, *, #150, .T. ) ;
#199 = ORIENTED_EDGE ( 'NONE', *, *, #51, .T. ) ;
#200 = CARTESIAN_POINT ( 'NONE',  ( 0.09375000000000001388, 1.148106374200643863E-17, 2.000000000000000000 ) ) ;
#201 = CIRCLE ( 'NONE', #3, 0.004000000000000000083 ) ;
#202 = DIRECTION ( 'NONE',  ( 0.0000000000000000000, 0.0000000000000000000, 1.000000000000000000 ) ) ;
#203 = CARTESIAN_POINT ( 'NONE',  ( 0.0000000000000000000, 0.0000000000000000000, 1.910250000000000226 ) ) ;
#204 = DIRECTION ( 'NONE',  ( 0.0000000000000000000, 0.0000000000000000000, -1.000000000000000000 ) ) ;
#205 = CIRCLE ( 'NONE', #161, 0.004000000000000000083 ) ;
#206 = FILL_AREA_STYLE_COLOUR ( '', #197 ) ;
#207 = ADVANCED_FACE ( 'NONE', ( #232 ), #163, .T. ) ;
#208 = CARTESIAN_POINT ( 'NONE',  ( 0.0000000000000000000, 0.0000000000000000000, 0.0000000000000000000 ) ) ;
#209 = DIRECTION ( 'NONE',  ( 0.0000000000000000000, 0.0000000000000000000, 1.000000000000000000 ) ) ;
#210 = EDGE_CURVE ( 'NONE', #72, #35, #61, .T. ) ;
#211 = CIRCLE ( 'NONE', #241, 0.004000000000000000083 ) ;
#212 = CARTESIAN_POINT ( 'NONE',  ( -0.09375000000000001388, 0.0000000000000000000, 2.000000000000000000 ) ) ;
#213 = MANIFOLD_SOLID_BREP ( 'Mirror1', #132 ) ;
#214 = SURFACE_STYLE_FILL_AREA ( #43 ) ;
#215 =( GEOMETRIC_REPRESENTATION_CONTEXT ( 3 ) GLOBAL_UNCERTAINTY_ASSIGNED_CONTEXT ( ( #99 ) ) GLOBAL_UNIT_ASSIGNED_CONTEXT ( ( #63, #30, #45 ) ) REPRESENTATION_CONTEXT ( 'NONE', 'WORKASPACE' ) );
#216 = EDGE_CURVE ( 'NONE', #88, #160, #205, .T. ) ;
#217 = DIRECTION ( 'NONE',  ( 0.0000000000000000000, 0.0000000000000000000, 1.000000000000000000 ) ) ;
#218 = PRODUCT_DEFINITION_SHAPE ( 'NONE', 'NONE',  #129 ) ;
#219 = ORIENTED_EDGE ( 'NONE', *, *, #9, .T. ) ;
#220 = SHAPE_DEFINITION_REPRESENTATION ( #218, #193 ) ;
#221 = ORIENTED_EDGE ( 'NONE', *, *, #229, .F. ) ;
#222 = ADVANCED_FACE ( 'NONE', ( #131 ), #175, .T. ) ;
#223 = CARTESIAN_POINT ( 'NONE',  ( 0.0000000000000000000, 0.0000000000000000000, 2.000000000000000000 ) ) ;
#224 = CARTESIAN_POINT ( 'NONE',  ( 0.0000000000000000000, 0.0000000000000000000, 0.08974999999999963562 ) ) ;
#225 = CONICAL_SURFACE ( 'NONE', #76, 0.004000000000000000083, 0.7853981633974503884 ) ;
#226 = ADVANCED_FACE ( 'NONE', ( #44 ), #154, .T. ) ;
#227 = CARTESIAN_POINT ( 'NONE',  ( -0.004000000000000000083, 5.985461230832689413E-18, 0.0000000000000000000 ) ) ;
#228 = CARTESIAN_POINT ( 'NONE',  ( -0.004000000000000000083, -5.985461230832689413E-18, 2.000000000000000000 ) ) ;
#229 = EDGE_CURVE ( 'NONE', #72, #244, #192, .T. ) ;
#230 = AXIS2_PLACEMENT_3D ( 'NONE', #240, #217, #14 ) ;
#231 = PRESENTATION_LAYER_ASSIGNMENT (  '', '', ( #194 ) ) ;
#232 = FACE_OUTER_BOUND ( 'NONE', #122, .T. ) ;
#233 =( LENGTH_UNIT ( ) NAMED_UNIT ( * ) SI_UNIT ( $, .METRE. ) );
#234 = PRESENTATION_STYLE_ASSIGNMENT (( #134 ) ) ;
#235 = SURFACE_STYLE_FILL_AREA ( #157 ) ;
#236 = AXIS2_PLACEMENT_3D ( 'NONE', #92, #83, #147 ) ;
#237 =( NAMED_UNIT ( * ) SI_UNIT ( $, .STERADIAN. ) SOLID_ANGLE_UNIT ( ) );
#238 = ORIENTED_EDGE ( 'NONE', *, *, #216, .F. ) ;
#239 = ORIENTED_EDGE ( 'NONE', *, *, #12, .T. ) ;
#240 = CARTESIAN_POINT ( 'NONE',  ( 0.0000000000000000000, 0.0000000000000000000, 0.0000000000000000000 ) ) ;
#241 = AXIS2_PLACEMENT_3D ( 'NONE', #60, #204, #108 ) ;
#242 = ORIENTED_EDGE ( 'NONE', *, *, #149, .T. ) ;
#243 = EDGE_CURVE ( 'NONE', #50, #165, #55, .T. ) ;
#244 = VERTEX_POINT ( 'NONE', #190 ) ;
#245 = ORIENTED_EDGE ( 'NONE', *, *, #12, .F. ) ;
#246 = VECTOR ( 'NONE', #109, 39.37007874015748143 ) ;
#247 = PRODUCT_DEFINITION_FORMATION_WITH_SPECIFIED_SOURCE ( 'ANY', '', #10, .NOT_KNOWN. ) ;
#248 = LINE ( 'NONE', #5, #145 ) ;
#249 = FACE_OUTER_BOUND ( 'NONE', #117, .T. ) ;
ENDSEC;
END-ISO-10303-21;
