ISO-10303-21;
HEADER;
FILE_DESCRIPTION (( 'STEP AP214' ),
    '1' );
FILE_NAME ('Micro_RDD-70.STEP',
    '2021-08-31T15:20:56',
    ( '' ),
    ( '' ),
    'SwSTEP 2.0',
    'SolidWorks 2020',
    '' );
FILE_SCHEMA (( 'AUTOMOTIVE_DESIGN' ));
ENDSEC;

DATA;
#1 = DIRECTION ( 'NONE',  ( -1.000000000000000000, 0.0000000000000000000, 1.367291288120251888E-16 ) ) ;
#2 = DIRECTION ( 'NONE',  ( 0.0000000000000000000, 0.0000000000000000000, -1.000000000000000000 ) ) ;
#3 = PRODUCT_RELATED_PRODUCT_CATEGORY ( 'part', '', ( #146 ) ) ;
#4 = CARTESIAN_POINT ( 'NONE',  ( 0.0000000000000000000, 0.0000000000000000000, 2.485000000000000320 ) ) ;
#5 = DIRECTION ( 'NONE',  ( 1.000000000000000000, 0.0000000000000000000, 0.0000000000000000000 ) ) ;
#6 = EDGE_CURVE ( 'NONE', #177, #205, #273, .T. ) ;
#7 = APPLICATION_PROTOCOL_DEFINITION ( 'draft international standard', 'automotive_design', 1998, #195 ) ;
#8 = DIRECTION ( 'NONE',  ( -1.224646799147353207E-16, -0.0000000000000000000, -1.000000000000000000 ) ) ;
#9 = DIMENSIONAL_EXPONENTS ( 1.000000000000000000, 0.0000000000000000000, 0.0000000000000000000, 0.0000000000000000000, 0.0000000000000000000, 0.0000000000000000000, 0.0000000000000000000 ) ;
#10 = CARTESIAN_POINT ( 'NONE',  ( -0.1250000000000000000, 0.0000000000000000000, 2.500000000000000000 ) ) ;
#11 = EDGE_LOOP ( 'NONE', ( #182, #309 ) ) ;
#12 = ADVANCED_FACE ( 'NONE', ( #169 ), #288, .T. ) ;
#13 = VERTEX_POINT ( 'NONE', #269 ) ;
#14 = DIMENSIONAL_EXPONENTS ( 1.000000000000000000, 0.0000000000000000000, 0.0000000000000000000, 0.0000000000000000000, 0.0000000000000000000, 0.0000000000000000000, 0.0000000000000000000 ) ;
#15 = EDGE_LOOP ( 'NONE', ( #115, #21, #286, #124 ) ) ;
#16 = ORIENTED_EDGE ( 'NONE', *, *, #278, .T. ) ;
#17 = ORIENTED_EDGE ( 'NONE', *, *, #145, .T. ) ;
#18 = CARTESIAN_POINT ( 'NONE',  ( 0.0000000000000000000, 0.0000000000000000000, 0.0000000000000000000 ) ) ;
#19 = CARTESIAN_POINT ( 'NONE',  ( 0.0000000000000000000, 0.0000000000000000000, 2.500000000000000000 ) ) ;
#20 = DIRECTION ( 'NONE',  ( 0.9238795325112879597, 0.0000000000000000000, 0.3826834323650865621 ) ) ;
#21 = ORIENTED_EDGE ( 'NONE', *, *, #250, .T. ) ;
#22 = CARTESIAN_POINT ( 'NONE',  ( 0.0000000000000000000, 0.0000000000000000000, 2.500000000000000000 ) ) ;
#23 = DIRECTION ( 'NONE',  ( 1.000000000000000000, 0.0000000000000000000, -1.379608302175842567E-16 ) ) ;
#24 = VECTOR ( 'NONE', #137, 39.37007874015748143 ) ;
#25 = CARTESIAN_POINT ( 'NONE',  ( 0.1250000000000000000, 1.530808498934191509E-17, 2.500000000000000000 ) ) ;
#26 =( LENGTH_UNIT ( ) NAMED_UNIT ( * ) SI_UNIT ( $, .METRE. ) );
#27 = UNCERTAINTY_MEASURE_WITH_UNIT (LENGTH_MEASURE( 1.000000000000000082E-05 ), #113, 'distance_accuracy_value', 'NONE');
#28 = DIRECTION ( 'NONE',  ( -1.224646799147353207E-16, -0.0000000000000000000, -1.000000000000000000 ) ) ;
#29 = EDGE_CURVE ( 'NONE', #185, #180, #308, .T. ) ;
#30 = APPLICATION_PROTOCOL_DEFINITION ( 'draft international standard', 'automotive_design', 1998, #164 ) ;
#31 = ADVANCED_FACE ( 'NONE', ( #132 ), #262, .T. ) ;
#32 = EDGE_CURVE ( 'NONE', #109, #13, #49, .T. ) ;
#33 = DIRECTION ( 'NONE',  ( 0.0000000000000000000, 0.0000000000000000000, 1.000000000000000000 ) ) ;
#34 = EDGE_LOOP ( 'NONE', ( #152, #290, #136, #90 ) ) ;
#35 = CARTESIAN_POINT ( 'NONE',  ( 0.1250000000000000833, 1.530808498934192433E-17, 0.7507089102274522308 ) ) ;
#36 = ORIENTED_EDGE ( 'NONE', *, *, #299, .T. ) ;
#37 = CIRCLE ( 'NONE', #222, 0.1250000000000000000 ) ;
#38 = COLOUR_RGB ( '',0.7921568627450980005, 0.8196078431372548767, 0.9333333333333333481 ) ;
#39 = SURFACE_SIDE_STYLE ('',( #179 ) ) ;
#40 = CARTESIAN_POINT ( 'NONE',  ( 4.821444091131312288E-15, 0.0000000000000000000, 39.37007874015748143 ) ) ;
#41 = VECTOR ( 'NONE', #212, 39.37007874015748143 ) ;
#42 = DIRECTION ( 'NONE',  ( -1.000000000000000000, 0.0000000000000000000, 1.224646799147353454E-16 ) ) ;
#43 = CONICAL_SURFACE ( 'NONE', #231, 0.1100000000000001948, 0.7853981633974517207 ) ;
#44 = DIRECTION ( 'NONE',  ( -1.000000000000000000, 0.0000000000000000000, 0.0000000000000000000 ) ) ;
#45 = ORIENTED_EDGE ( 'NONE', *, *, #6, .T. ) ;
#46 = LINE ( 'NONE', #294, #102 ) ;
#47 = DIRECTION ( 'NONE',  ( 0.0000000000000000000, 0.0000000000000000000, -1.000000000000000000 ) ) ;
#48 = DIRECTION ( 'NONE',  ( 1.000000000000000000, 0.0000000000000000000, 0.0000000000000000000 ) ) ;
#49 = LINE ( 'NONE', #257, #140 ) ;
#50 = AXIS2_PLACEMENT_3D ( 'NONE', #18, #86, #42 ) ;
#51 = DIRECTION ( 'NONE',  ( -1.224646799147353207E-16, -0.0000000000000000000, -1.000000000000000000 ) ) ;
#52 = UNCERTAINTY_MEASURE_WITH_UNIT (LENGTH_MEASURE( 1.000000000000000082E-05 ), #148, 'distance_accuracy_value', 'NONE');
#53 = ADVANCED_FACE ( 'NONE', ( #312 ), #289, .T. ) ;
#54 = PRESENTATION_LAYER_ASSIGNMENT (  '', '', ( #149 ) ) ;
#55 = SHAPE_DEFINITION_REPRESENTATION ( #200, #160 ) ;
#56 = PRESENTATION_STYLE_ASSIGNMENT (( #173 ) ) ;
#57 = AXIS2_PLACEMENT_3D ( 'NONE', #295, #51, #214 ) ;
#58 = CARTESIAN_POINT ( 'NONE',  ( 0.0000000000000000000, 0.0000000000000000000, 0.0000000000000000000 ) ) ;
#59 = DIRECTION ( 'NONE',  ( 0.0000000000000000000, 0.0000000000000000000, -1.000000000000000000 ) ) ;
#60 = ORIENTED_EDGE ( 'NONE', *, *, #199, .F. ) ;
#61 = DIMENSIONAL_EXPONENTS ( 1.000000000000000000, 0.0000000000000000000, 0.0000000000000000000, 0.0000000000000000000, 0.0000000000000000000, 0.0000000000000000000, 0.0000000000000000000 ) ;
#62 = FILL_AREA_STYLE_COLOUR ( '', #209 ) ;
#63 = AXIS2_PLACEMENT_3D ( 'NONE', #304, #242, #190 ) ;
#64 = ADVANCED_FACE ( 'NONE', ( #123 ), #271, .T. ) ;
#65 = ORIENTED_EDGE ( 'NONE', *, *, #138, .F. ) ;
#66 = EDGE_LOOP ( 'NONE', ( #74, #292, #156 ) ) ;
#67 = ORIENTED_EDGE ( 'NONE', *, *, #192, .T. ) ;
#68 = DIRECTION ( 'NONE',  ( -1.224646799147353207E-16, -0.0000000000000000000, -1.000000000000000000 ) ) ;
#69 = VERTEX_POINT ( 'NONE', #108 ) ;
#70 = MECHANICAL_DESIGN_GEOMETRIC_PRESENTATION_REPRESENTATION (  '', ( #149 ), #306 ) ;
#71 =( NAMED_UNIT ( * ) SI_UNIT ( $, .STERADIAN. ) SOLID_ANGLE_UNIT ( ) );
#72 = CARTESIAN_POINT ( 'NONE',  ( 0.1248750000000000970, 0.0000000000000000000, 0.7500000000000001110 ) ) ;
#73 = DIRECTION ( 'NONE',  ( 0.0000000000000000000, 0.0000000000000000000, 1.000000000000000000 ) ) ;
#74 = ORIENTED_EDGE ( 'NONE', *, *, #6, .F. ) ;
#75 = DIRECTION ( 'NONE',  ( 1.000000000000000000, 0.0000000000000000000, 0.0000000000000000000 ) ) ;
#76 = CARTESIAN_POINT ( 'NONE',  ( 0.0000000000000000000, 0.0000000000000000000, 0.0000000000000000000 ) ) ;
#77 = FACE_OUTER_BOUND ( 'NONE', #11, .T. ) ;
#78 = CIRCLE ( 'NONE', #235, 0.1248749999999999999 ) ;
#79 = ORIENTED_EDGE ( 'NONE', *, *, #134, .F. ) ;
#80 = ADVANCED_FACE ( 'NONE', ( #207 ), #84, .T. ) ;
#81 = AXIS2_PLACEMENT_3D ( 'NONE', #19, #111, #44 ) ;
#82 = VERTEX_POINT ( 'NONE', #35 ) ;
#83 = CARTESIAN_POINT ( 'NONE',  ( 9.184850993605150903E-17, 0.0000000000000000000, 0.7500000000000001110 ) ) ;
#84 = CYLINDRICAL_SURFACE ( 'NONE', #201, 0.1250000000000000000 ) ;
#85 = ADVANCED_FACE ( 'NONE', ( #204 ), #161, .T. ) ;
#86 = DIRECTION ( 'NONE',  ( -1.224646799147353207E-16, -0.0000000000000000000, -1.000000000000000000 ) ) ;
#87 = ORIENTED_EDGE ( 'NONE', *, *, #32, .T. ) ;
#88 = CARTESIAN_POINT ( 'NONE',  ( 0.0000000000000000000, 0.0000000000000000000, 0.0000000000000000000 ) ) ;
#89 = PRODUCT_DEFINITION ( 'UNKNOWN', '', #265, #225 ) ;
#90 = ORIENTED_EDGE ( 'NONE', *, *, #220, .F. ) ;
#91 = ORIENTED_EDGE ( 'NONE', *, *, #142, .F. ) ;
#92 = EDGE_CURVE ( 'NONE', #150, #69, #131, .T. ) ;
#93 = AXIS2_PLACEMENT_3D ( 'NONE', #119, #47, #5 ) ;
#94 = CARTESIAN_POINT ( 'NONE',  ( 6.334475600128813636E-18, 0.0000000000000000000, 0.05172491860133976438 ) ) ;
#95 = LINE ( 'NONE', #25, #24 ) ;
#96 = MANIFOLD_SOLID_BREP ( 'Cut-Revolve1', #305 ) ;
#97 = DIRECTION ( 'NONE',  ( 0.0000000000000000000, 0.0000000000000000000, -1.000000000000000000 ) ) ;
#98 = CARTESIAN_POINT ( 'NONE',  ( 4.821444091131312288E-15, 0.0000000000000000000, 39.37007874015748143 ) ) ;
#99 = VECTOR ( 'NONE', #100, 39.37007874015748143 ) ;
#100 = DIRECTION ( 'NONE',  ( 0.1736481776669314969, 0.0000000000000000000, 0.9848077530122077983 ) ) ;
#101 = SURFACE_STYLE_FILL_AREA ( #228 ) ;
#102 = VECTOR ( 'NONE', #163, 39.37007874015748143 ) ;
#103 = EDGE_CURVE ( 'NONE', #150, #205, #310, .T. ) ;
#104 = CIRCLE ( 'NONE', #93, 0.1250000000000000000 ) ;
#105 = DIRECTION ( 'NONE',  ( -1.000000000000000000, 0.0000000000000000000, 1.224646799147353454E-16 ) ) ;
#106 = VERTEX_POINT ( 'NONE', #314 ) ;
#107 = EDGE_LOOP ( 'NONE', ( #65, #45, #264 ) ) ;
#108 = CARTESIAN_POINT ( 'NONE',  ( -0.1249999999999999167, 0.0000000000000000000, 0.7507089102274522308 ) ) ;
#109 = VERTEX_POINT ( 'NONE', #234 ) ;
#110 = LINE ( 'NONE', #10, #41 ) ;
#111 = DIRECTION ( 'NONE',  ( -0.0000000000000000000, -0.0000000000000000000, -1.000000000000000000 ) ) ;
#112 = ORIENTED_EDGE ( 'NONE', *, *, #32, .F. ) ;
#113 =( CONVERSION_BASED_UNIT ( 'INCH', #181 ) LENGTH_UNIT ( ) NAMED_UNIT ( #9 ) );
#114 = EDGE_CURVE ( 'NONE', #106, #69, #110, .T. ) ;
#115 = ORIENTED_EDGE ( 'NONE', *, *, #29, .F. ) ;
#116 = DIRECTION ( 'NONE',  ( 0.0000000000000000000, 0.0000000000000000000, 1.000000000000000000 ) ) ;
#117 = CARTESIAN_POINT ( 'NONE',  ( 0.1100000000000001948, 1.347111479062090784E-17, 2.500000000000000000 ) ) ;
#118 = CARTESIAN_POINT ( 'NONE',  ( 0.0000000000000000000, 0.0000000000000000000, 2.500000000000000000 ) ) ;
#119 = CARTESIAN_POINT ( 'NONE',  ( 0.0000000000000000000, 0.0000000000000000000, 2.485000000000000320 ) ) ;
#120 = LENGTH_MEASURE_WITH_UNIT ( LENGTH_MEASURE( 0.02539999999999999897 ), #226 );
#121 =( NAMED_UNIT ( * ) SI_UNIT ( $, .STERADIAN. ) SOLID_ANGLE_UNIT ( ) );
#122 = DIRECTION ( 'NONE',  ( 1.000000000000000000, 0.0000000000000000000, 0.0000000000000000000 ) ) ;
#123 = FACE_OUTER_BOUND ( 'NONE', #66, .T. ) ;
#124 = ORIENTED_EDGE ( 'NONE', *, *, #198, .F. ) ;
#125 = PRESENTATION_LAYER_ASSIGNMENT (  '', '', ( #247 ) ) ;
#126 = CARTESIAN_POINT ( 'NONE',  ( 9.184850993605150903E-17, 0.0000000000000000000, 0.7500000000000001110 ) ) ;
#127 = ADVANCED_FACE ( 'NONE', ( #291 ), #318, .T. ) ;
#128 = DIRECTION ( 'NONE',  ( 1.000000000000000000, 0.0000000000000000000, 0.0000000000000000000 ) ) ;
#129 = ORIENTED_EDGE ( 'NONE', *, *, #103, .T. ) ;
#130 = ORIENTED_EDGE ( 'NONE', *, *, #278, .F. ) ;
#131 = LINE ( 'NONE', #208, #251 ) ;
#132 = FACE_OUTER_BOUND ( 'NONE', #157, .T. ) ;
#133 = AXIS2_PLACEMENT_3D ( 'NONE', #167, #224, #168 ) ;
#134 = EDGE_CURVE ( 'NONE', #150, #109, #322, .T. ) ;
#135 =( NAMED_UNIT ( * ) PLANE_ANGLE_UNIT ( ) SI_UNIT ( $, .RADIAN. ) );
#136 = ORIENTED_EDGE ( 'NONE', *, *, #198, .T. ) ;
#137 = DIRECTION ( 'NONE',  ( -0.0000000000000000000, -0.0000000000000000000, -1.000000000000000000 ) ) ;
#138 = EDGE_CURVE ( 'NONE', #177, #13, #158, .T. ) ;
#139 = DIRECTION ( 'NONE',  ( 1.000000000000000000, 0.0000000000000000000, 0.0000000000000000000 ) ) ;
#140 = VECTOR ( 'NONE', #8, 39.37007874015748143 ) ;
#141 = AXIS2_PLACEMENT_3D ( 'NONE', #270, #272, #48 ) ;
#142 = EDGE_CURVE ( 'NONE', #69, #82, #313, .T. ) ;
#143 = CARTESIAN_POINT ( 'NONE',  ( -0.1100000000000001948, 0.0000000000000000000, 2.500000000000000000 ) ) ;
#144 = LINE ( 'NONE', #117, #240 ) ;
#145 = EDGE_CURVE ( 'NONE', #109, #150, #78, .T. ) ;
#146 = PRODUCT ( 'Micro_RDD-70', 'Micro_RDD-70', '', ( #197 ) ) ;
#147 = AXIS2_PLACEMENT_3D ( 'NONE', #118, #73, #75 ) ;
#148 =( CONVERSION_BASED_UNIT ( 'INCH', #120 ) LENGTH_UNIT ( ) NAMED_UNIT ( #61 ) );
#149 = STYLED_ITEM ( 'NONE', ( #232 ), #96 ) ;
#150 = VERTEX_POINT ( 'NONE', #267 ) ;
#151 = ORIENTED_EDGE ( 'NONE', *, *, #215, .T. ) ;
#152 = ORIENTED_EDGE ( 'NONE', *, *, #250, .F. ) ;
#153 = CARTESIAN_POINT ( 'NONE',  ( 0.0000000000000000000, 0.0000000000000000000, 2.500000000000000000 ) ) ;
#154 = VECTOR ( 'NONE', #193, 39.37007874015748854 ) ;
#155 =( LENGTH_UNIT ( ) NAMED_UNIT ( * ) SI_UNIT ( $, .METRE. ) );
#156 = ORIENTED_EDGE ( 'NONE', *, *, #199, .T. ) ;
#157 = EDGE_LOOP ( 'NONE', ( #130, #171, #254, #296 ) ) ;
#158 = LINE ( 'NONE', #261, #166 ) ;
#159 = ORIENTED_EDGE ( 'NONE', *, *, #192, .F. ) ;
#160 = ADVANCED_BREP_SHAPE_REPRESENTATION ( 'Micro_RDD-70', ( #96, #323 ), #223 ) ;
#161 = CONICAL_SURFACE ( 'NONE', #300, 0.1248749999999999999, 0.1745329251994340025 ) ;
#162 = FILL_AREA_STYLE ('',( #62 ) ) ;
#163 = DIRECTION ( 'NONE',  ( -0.7071067811865499042, 0.0000000000000000000, -0.7071067811865451302 ) ) ;
#164 = APPLICATION_CONTEXT ( 'automotive_design' ) ;
#165 = CARTESIAN_POINT ( 'NONE',  ( -0.1248749999999999999, 1.529277690435257475E-17, 0.05172491860133978520 ) ) ;
#166 = VECTOR ( 'NONE', #20, 39.37007874015748854 ) ;
#167 = CARTESIAN_POINT ( 'NONE',  ( 6.334475600128813636E-18, 0.0000000000000000000, 0.05172491860133976438 ) ) ;
#168 = DIRECTION ( 'NONE',  ( -1.000000000000000000, 0.0000000000000000000, 1.367291288120251888E-16 ) ) ;
#169 = FACE_OUTER_BOUND ( 'NONE', #15, .T. ) ;
#170 = CONICAL_SURFACE ( 'NONE', #216, 95.04777804618574066, 1.178097245096175749 ) ;
#171 = ORIENTED_EDGE ( 'NONE', *, *, #220, .T. ) ;
#172 = DIRECTION ( 'NONE',  ( 0.0000000000000000000, 0.0000000000000000000, 1.000000000000000000 ) ) ;
#173 = SURFACE_STYLE_USAGE ( .BOTH. , #279 ) ;
#174 = AXIS2_PLACEMENT_3D ( 'NONE', #245, #59, #301 ) ;
#175 = MECHANICAL_DESIGN_GEOMETRIC_PRESENTATION_REPRESENTATION (  '', ( #247 ), #187 ) ;
#176 = DIRECTION ( 'NONE',  ( -1.224646799147353207E-16, -0.0000000000000000000, -1.000000000000000000 ) ) ;
#177 = VERTEX_POINT ( 'NONE', #76 ) ;
#178 = CARTESIAN_POINT ( 'NONE',  ( 0.0000000000000000000, 0.0000000000000000000, 2.500000000000000000 ) ) ;
#179 = SURFACE_STYLE_FILL_AREA ( #162 ) ;
#180 = VERTEX_POINT ( 'NONE', #143 ) ;
#181 = LENGTH_MEASURE_WITH_UNIT ( LENGTH_MEASURE( 0.02539999999999999897 ), #155 );
#182 = ORIENTED_EDGE ( 'NONE', *, *, #293, .T. ) ;
#183 = DIRECTION ( 'NONE',  ( -1.000000000000000000, 0.0000000000000000000, 0.0000000000000000000 ) ) ;
#184 = DIRECTION ( 'NONE',  ( 1.000000000000000000, 0.0000000000000000000, 0.0000000000000000000 ) ) ;
#185 = VERTEX_POINT ( 'NONE', #188 ) ;
#186 = DIRECTION ( 'NONE',  ( 1.224646799147353207E-16, 0.0000000000000000000, 1.000000000000000000 ) ) ;
#187 =( GEOMETRIC_REPRESENTATION_CONTEXT ( 3 ) GLOBAL_UNCERTAINTY_ASSIGNED_CONTEXT ( ( #52 ) ) GLOBAL_UNIT_ASSIGNED_CONTEXT ( ( #148, #249, #121 ) ) REPRESENTATION_CONTEXT ( 'NONE', 'WORKASPACE' ) );
#188 = CARTESIAN_POINT ( 'NONE',  ( 0.1100000000000001948, 1.438959988998141146E-17, 2.500000000000000000 ) ) ;
#189 = DIRECTION ( 'NONE',  ( 1.000000000000000000, 0.0000000000000000000, -0.0000000000000000000 ) ) ;
#190 = DIRECTION ( 'NONE',  ( 1.000000000000000000, 0.0000000000000000000, 0.0000000000000000000 ) ) ;
#191 = DIRECTION ( 'NONE',  ( 1.224646799147353207E-16, 0.0000000000000000000, 1.000000000000000000 ) ) ;
#192 = EDGE_CURVE ( 'NONE', #109, #82, #217, .T. ) ;
#193 = DIRECTION ( 'NONE',  ( -0.9238795325112879597, 1.131426112287701740E-16, 0.3826834323650867842 ) ) ;
#194 = CARTESIAN_POINT ( 'NONE',  ( 0.1250000000000000000, 1.530808498934191509E-17, 2.485000000000000320 ) ) ;
#195 = APPLICATION_CONTEXT ( 'automotive_design' ) ;
#196 = CONICAL_SURFACE ( 'NONE', #63, 0.1248749999999999999, 0.1745329251994340025 ) ;
#197 = PRODUCT_CONTEXT ( 'NONE', #164, 'mechanical' ) ;
#198 = EDGE_CURVE ( 'NONE', #180, #106, #46, .T. ) ;
#199 = EDGE_CURVE ( 'NONE', #13, #205, #263, .T. ) ;
#200 = PRODUCT_DEFINITION_SHAPE ( 'NONE', 'NONE',  #89 ) ;
#201 = AXIS2_PLACEMENT_3D ( 'NONE', #153, #285, #255 ) ;
#202 = EDGE_LOOP ( 'NONE', ( #151, #16, #91, #284 ) ) ;
#203 = EDGE_CURVE ( 'NONE', #205, #13, #246, .T. ) ;
#204 = FACE_OUTER_BOUND ( 'NONE', #258, .T. ) ;
#205 = VERTEX_POINT ( 'NONE', #165 ) ;
#206 = EDGE_LOOP ( 'NONE', ( #253, #87, #219, #317 ) ) ;
#207 = FACE_OUTER_BOUND ( 'NONE', #202, .T. ) ;
#208 = CARTESIAN_POINT ( 'NONE',  ( -0.1248749999999999166, 1.529277690435257475E-17, 0.7500000000000001110 ) ) ;
#209 = COLOUR_RGB ( '',0.7921568627450980005, 0.8196078431372548767, 0.9333333333333333481 ) ;
#210 = ORIENTED_EDGE ( 'NONE', *, *, #145, .F. ) ;
#211 = CIRCLE ( 'NONE', #147, 0.1100000000000001948 ) ;
#212 = DIRECTION ( 'NONE',  ( -0.0000000000000000000, -0.0000000000000000000, -1.000000000000000000 ) ) ;
#213 = DIRECTION ( 'NONE',  ( 1.224646799147353207E-16, 0.0000000000000000000, 1.000000000000000000 ) ) ;
#214 = DIRECTION ( 'NONE',  ( 1.000000000000000000, 0.0000000000000000000, 0.0000000000000000000 ) ) ;
#215 = EDGE_CURVE ( 'NONE', #106, #236, #104, .T. ) ;
#216 = AXIS2_PLACEMENT_3D ( 'NONE', #98, #191, #23 ) ;
#217 = LINE ( 'NONE', #72, #99 ) ;
#218 = FACE_OUTER_BOUND ( 'NONE', #311, .T. ) ;
#219 = ORIENTED_EDGE ( 'NONE', *, *, #203, .F. ) ;
#220 = EDGE_CURVE ( 'NONE', #236, #106, #37, .T. ) ;
#221 = UNCERTAINTY_MEASURE_WITH_UNIT (LENGTH_MEASURE( 1.000000000000000082E-05 ), #277, 'distance_accuracy_value', 'NONE');
#222 = AXIS2_PLACEMENT_3D ( 'NONE', #4, #2, #139 ) ;
#223 =( GEOMETRIC_REPRESENTATION_CONTEXT ( 3 ) GLOBAL_UNCERTAINTY_ASSIGNED_CONTEXT ( ( #221 ) ) GLOBAL_UNIT_ASSIGNED_CONTEXT ( ( #277, #280, #282 ) ) REPRESENTATION_CONTEXT ( 'NONE', 'WORKASPACE' ) );
#224 = DIRECTION ( 'NONE',  ( -1.224646799147353207E-16, -0.0000000000000000000, -1.000000000000000000 ) ) ;
#225 = PRODUCT_DEFINITION_CONTEXT ( 'detailed design', #195, 'design' ) ;
#226 =( LENGTH_UNIT ( ) NAMED_UNIT ( * ) SI_UNIT ( $, .METRE. ) );
#227 = AXIS2_PLACEMENT_3D ( 'NONE', #178, #172, #184 ) ;
#228 = FILL_AREA_STYLE ('',( #307 ) ) ;
#229 = DIRECTION ( 'NONE',  ( -0.1736481776669312749, 2.126576849575784241E-17, 0.9848077530122077983 ) ) ;
#230 = AXIS2_PLACEMENT_3D ( 'NONE', #83, #176, #183 ) ;
#231 = AXIS2_PLACEMENT_3D ( 'NONE', #302, #97, #244 ) ;
#232 = PRESENTATION_STYLE_ASSIGNMENT (( #287 ) ) ;
#233 = DIRECTION ( 'NONE',  ( -1.224646799147353207E-16, -0.0000000000000000000, -1.000000000000000000 ) ) ;
#234 = CARTESIAN_POINT ( 'NONE',  ( 0.1248750000000000970, 0.0000000000000000000, 0.7500000000000001110 ) ) ;
#235 = AXIS2_PLACEMENT_3D ( 'NONE', #241, #28, #321 ) ;
#236 = VERTEX_POINT ( 'NONE', #194 ) ;
#237 = PLANE ( 'NONE',  #276 ) ;
#238 = ADVANCED_FACE ( 'NONE', ( #239 ), #170, .T. ) ;
#239 = FACE_OUTER_BOUND ( 'NONE', #107, .T. ) ;
#240 = VECTOR ( 'NONE', #298, 39.37007874015748143 ) ;
#241 = CARTESIAN_POINT ( 'NONE',  ( 9.184850993605150903E-17, 0.0000000000000000000, 0.7500000000000001110 ) ) ;
#242 = DIRECTION ( 'NONE',  ( 1.224646799147353207E-16, 0.0000000000000000000, 1.000000000000000000 ) ) ;
#243 = CARTESIAN_POINT ( 'NONE',  ( 0.0000000000000000000, 0.0000000000000000000, 0.0000000000000000000 ) ) ;
#244 = DIRECTION ( 'NONE',  ( -1.000000000000000000, 0.0000000000000000000, 0.0000000000000000000 ) ) ;
#245 = CARTESIAN_POINT ( 'NONE',  ( 0.0000000000000000000, 0.0000000000000000000, 2.500000000000000000 ) ) ;
#246 = CIRCLE ( 'NONE', #133, 0.1248749999999999999 ) ;
#247 = STYLED_ITEM ( 'NONE', ( #56 ), #160 ) ;
#248 = LENGTH_MEASURE_WITH_UNIT ( LENGTH_MEASURE( 0.02539999999999999897 ), #26 );
#249 =( NAMED_UNIT ( * ) PLANE_ANGLE_UNIT ( ) SI_UNIT ( $, .RADIAN. ) );
#250 = EDGE_CURVE ( 'NONE', #185, #236, #144, .T. ) ;
#251 = VECTOR ( 'NONE', #229, 39.37007874015748143 ) ;
#252 = ADVANCED_FACE ( 'NONE', ( #218 ), #196, .T. ) ;
#253 = ORIENTED_EDGE ( 'NONE', *, *, #134, .T. ) ;
#254 = ORIENTED_EDGE ( 'NONE', *, *, #114, .T. ) ;
#255 = DIRECTION ( 'NONE',  ( -1.000000000000000000, 0.0000000000000000000, 0.0000000000000000000 ) ) ;
#256 = AXIS2_PLACEMENT_3D ( 'NONE', #40, #213, #320 ) ;
#257 = CARTESIAN_POINT ( 'NONE',  ( 0.1248749999999999999, 1.529277690435257475E-17, -1.529277690435257475E-17 ) ) ;
#258 = EDGE_LOOP ( 'NONE', ( #297, #210, #67, #36 ) ) ;
#259 = CARTESIAN_POINT ( 'NONE',  ( -0.1248749999999999999, 0.0000000000000000000, 1.529277690435257475E-17 ) ) ;
#260 = ORIENTED_EDGE ( 'NONE', *, *, #142, .T. ) ;
#261 = CARTESIAN_POINT ( 'NONE',  ( 0.0000000000000000000, 0.0000000000000000000, 0.0000000000000000000 ) ) ;
#262 = CYLINDRICAL_SURFACE ( 'NONE', #81, 0.1250000000000000000 ) ;
#263 = CIRCLE ( 'NONE', #283, 0.1248749999999999999 ) ;
#264 = ORIENTED_EDGE ( 'NONE', *, *, #203, .T. ) ;
#265 = PRODUCT_DEFINITION_FORMATION_WITH_SPECIFIED_SOURCE ( 'ANY', '', #146, .NOT_KNOWN. ) ;
#266 = ADVANCED_FACE ( 'NONE', ( #274 ), #43, .T. ) ;
#267 = CARTESIAN_POINT ( 'NONE',  ( -0.1248749999999999166, 1.530043094684724646E-17, 0.7500000000000001110 ) ) ;
#268 = DIRECTION ( 'NONE',  ( -1.224646799147353207E-16, -0.0000000000000000000, -1.000000000000000000 ) ) ;
#269 = CARTESIAN_POINT ( 'NONE',  ( 0.1248749999999999999, 0.0000000000000000000, 0.05172491860133975050 ) ) ;
#270 = CARTESIAN_POINT ( 'NONE',  ( 9.193532640014472135E-17, 0.0000000000000000000, 0.7507089102274522308 ) ) ;
#271 = CONICAL_SURFACE ( 'NONE', #256, 95.04777804618574066, 1.178097245096175749 ) ;
#272 = DIRECTION ( 'NONE',  ( -1.224646799147353207E-16, -0.0000000000000000000, -1.000000000000000000 ) ) ;
#273 = LINE ( 'NONE', #243, #154 ) ;
#274 = FACE_OUTER_BOUND ( 'NONE', #34, .T. ) ;
#275 = AXIS2_PLACEMENT_3D ( 'NONE', #88, #68, #105 ) ;
#276 = AXIS2_PLACEMENT_3D ( 'NONE', #22, #116, #189 ) ;
#277 =( CONVERSION_BASED_UNIT ( 'INCH', #248 ) LENGTH_UNIT ( ) NAMED_UNIT ( #14 ) );
#278 = EDGE_CURVE ( 'NONE', #236, #82, #95, .T. ) ;
#279 = SURFACE_SIDE_STYLE ('',( #101 ) ) ;
#280 =( NAMED_UNIT ( * ) PLANE_ANGLE_UNIT ( ) SI_UNIT ( $, .RADIAN. ) );
#281 = ADVANCED_FACE ( 'NONE', ( #77 ), #237, .T. ) ;
#282 =( NAMED_UNIT ( * ) SI_UNIT ( $, .STERADIAN. ) SOLID_ANGLE_UNIT ( ) );
#283 = AXIS2_PLACEMENT_3D ( 'NONE', #94, #268, #1 ) ;
#284 = ORIENTED_EDGE ( 'NONE', *, *, #114, .F. ) ;
#285 = DIRECTION ( 'NONE',  ( -0.0000000000000000000, -0.0000000000000000000, -1.000000000000000000 ) ) ;
#286 = ORIENTED_EDGE ( 'NONE', *, *, #215, .F. ) ;
#287 = SURFACE_STYLE_USAGE ( .BOTH. , #39 ) ;
#288 = CONICAL_SURFACE ( 'NONE', #174, 0.1100000000000001948, 0.7853981633974517207 ) ;
#289 = CYLINDRICAL_SURFACE ( 'NONE', #50, 0.1248749999999999999 ) ;
#290 = ORIENTED_EDGE ( 'NONE', *, *, #293, .F. ) ;
#291 = FACE_OUTER_BOUND ( 'NONE', #319, .T. ) ;
#292 = ORIENTED_EDGE ( 'NONE', *, *, #138, .T. ) ;
#293 = EDGE_CURVE ( 'NONE', #180, #185, #211, .T. ) ;
#294 = CARTESIAN_POINT ( 'NONE',  ( -0.1100000000000001948, 0.0000000000000000000, 2.500000000000000000 ) ) ;
#295 = CARTESIAN_POINT ( 'NONE',  ( 9.193532640014472135E-17, 0.0000000000000000000, 0.7507089102274522308 ) ) ;
#296 = ORIENTED_EDGE ( 'NONE', *, *, #299, .F. ) ;
#297 = ORIENTED_EDGE ( 'NONE', *, *, #92, .F. ) ;
#298 = DIRECTION ( 'NONE',  ( 0.7071067811865499042, 8.659560562354961208E-17, -0.7071067811865451302 ) ) ;
#299 = EDGE_CURVE ( 'NONE', #82, #69, #316, .T. ) ;
#300 = AXIS2_PLACEMENT_3D ( 'NONE', #126, #186, #128 ) ;
#301 = DIRECTION ( 'NONE',  ( -1.000000000000000000, 0.0000000000000000000, 0.0000000000000000000 ) ) ;
#302 = CARTESIAN_POINT ( 'NONE',  ( 0.0000000000000000000, 0.0000000000000000000, 2.500000000000000000 ) ) ;
#303 = ORIENTED_EDGE ( 'NONE', *, *, #92, .T. ) ;
#304 = CARTESIAN_POINT ( 'NONE',  ( 9.184850993605150903E-17, 0.0000000000000000000, 0.7500000000000001110 ) ) ;
#305 = CLOSED_SHELL ( 'NONE', ( #53, #238, #252, #12, #80, #31, #281, #266, #85, #64, #127 ) ) ;
#306 =( GEOMETRIC_REPRESENTATION_CONTEXT ( 3 ) GLOBAL_UNCERTAINTY_ASSIGNED_CONTEXT ( ( #27 ) ) GLOBAL_UNIT_ASSIGNED_CONTEXT ( ( #113, #135, #71 ) ) REPRESENTATION_CONTEXT ( 'NONE', 'WORKASPACE' ) );
#307 = FILL_AREA_STYLE_COLOUR ( '', #38 ) ;
#308 = CIRCLE ( 'NONE', #227, 0.1100000000000001948 ) ;
#309 = ORIENTED_EDGE ( 'NONE', *, *, #29, .T. ) ;
#310 = LINE ( 'NONE', #259, #315 ) ;
#311 = EDGE_LOOP ( 'NONE', ( #79, #303, #260, #159 ) ) ;
#312 = FACE_OUTER_BOUND ( 'NONE', #206, .T. ) ;
#313 = CIRCLE ( 'NONE', #57, 0.1250000000000000000 ) ;
#314 = CARTESIAN_POINT ( 'NONE',  ( -0.1250000000000000000, 0.0000000000000000000, 2.485000000000000320 ) ) ;
#315 = VECTOR ( 'NONE', #233, 39.37007874015748143 ) ;
#316 = CIRCLE ( 'NONE', #141, 0.1250000000000000000 ) ;
#317 = ORIENTED_EDGE ( 'NONE', *, *, #103, .F. ) ;
#318 = CYLINDRICAL_SURFACE ( 'NONE', #275, 0.1248749999999999999 ) ;
#319 = EDGE_LOOP ( 'NONE', ( #112, #17, #129, #60 ) ) ;
#320 = DIRECTION ( 'NONE',  ( 1.000000000000000000, 0.0000000000000000000, -1.379608302175842567E-16 ) ) ;
#321 = DIRECTION ( 'NONE',  ( -1.000000000000000000, 0.0000000000000000000, 0.0000000000000000000 ) ) ;
#322 = CIRCLE ( 'NONE', #230, 0.1248749999999999999 ) ;
#323 = AXIS2_PLACEMENT_3D ( 'NONE', #58, #33, #122 ) ;
ENDSEC;
END-ISO-10303-21;
