ISO-10303-21;
HEADER;
FILE_DESCRIPTION (( 'STEP AP214' ),
    '1' );
FILE_NAME ('Micro_BMR-050-2X.STEP',
    '2021-09-03T14:13:32',
    ( '' ),
    ( '' ),
    'SwSTEP 2.0',
    'SolidWorks 2020',
    '' );
FILE_SCHEMA (( 'AUTOMOTIVE_DESIGN' ));
ENDSEC;

DATA;
#1 = VERTEX_POINT ( 'NONE', #61 ) ;
#2 = CARTESIAN_POINT ( 'NONE',  ( 0.0000000000000000000, 0.0000000000000000000, 0.0000000000000000000 ) ) ;
#3 = ORIENTED_EDGE ( 'NONE', *, *, #149, .T. ) ;
#4 = CARTESIAN_POINT ( 'NONE',  ( 1.836970198721029749E-17, 0.0000000000000000000, 0.1499999999999999944 ) ) ;
#5 = FACE_OUTER_BOUND ( 'NONE', #256, .T. ) ;
#6 = CARTESIAN_POINT ( 'NONE',  ( 4.587833071305773195E-18, 0.0000000000000000000, 0.0000000000000000000 ) ) ;
#7 = EDGE_CURVE ( 'NONE', #119, #103, #177, .T. ) ;
#8 = SURFACE_STYLE_USAGE ( .BOTH. , #154 ) ;
#9 = CIRCLE ( 'NONE', #145, 0.02497500000000000067 ) ;
#10 = DIRECTION ( 'NONE',  ( -0.0000000000000000000, -0.0000000000000000000, -1.000000000000000000 ) ) ;
#11 = CARTESIAN_POINT ( 'NONE',  ( 0.02497500000000000067, 3.058555380870514950E-18, -3.058555380870515335E-18 ) ) ;
#12 = ORIENTED_EDGE ( 'NONE', *, *, #105, .F. ) ;
#13 = PRODUCT_DEFINITION_FORMATION_WITH_SPECIFIED_SOURCE ( 'ANY', '', #249, .NOT_KNOWN. ) ;
#14 = ADVANCED_FACE ( 'NONE', ( #239 ), #131, .T. ) ;
#15 = FILL_AREA_STYLE ('',( #284 ) ) ;
#16 = UNCERTAINTY_MEASURE_WITH_UNIT (LENGTH_MEASURE( 1.000000000000000082E-05 ), #94, 'distance_accuracy_value', 'NONE');
#17 = CARTESIAN_POINT ( 'NONE',  ( -0.04750000000000064587, 0.0000000000000000000, 1.500000000000000222 ) ) ;
#18 =( NAMED_UNIT ( * ) PLANE_ANGLE_UNIT ( ) SI_UNIT ( $, .RADIAN. ) );
#19 = AXIS2_PLACEMENT_3D ( 'NONE', #132, #166, #25 ) ;
#20 = CARTESIAN_POINT ( 'NONE',  ( 0.02497500000000000414, 3.058555380870514950E-18, 0.02497499999999999720 ) ) ;
#21 = DIRECTION ( 'NONE',  ( 1.000000000000000000, 0.0000000000000000000, 0.0000000000000000000 ) ) ;
#22 = CARTESIAN_POINT ( 'NONE',  ( 0.0000000000000000000, 0.0000000000000000000, 0.0000000000000000000 ) ) ;
#23 = DIRECTION ( 'NONE',  ( 1.224646799147353454E-16, 0.0000000000000000000, 1.000000000000000000 ) ) ;
#24 = VECTOR ( 'NONE', #255, 39.37007874015748854 ) ;
#25 = DIRECTION ( 'NONE',  ( -1.000000000000000000, 0.0000000000000000000, 1.709114110150314860E-16 ) ) ;
#26 = DIRECTION ( 'NONE',  ( -1.224646799147353454E-16, -0.0000000000000000000, -1.000000000000000000 ) ) ;
#27 = EDGE_CURVE ( 'NONE', #103, #185, #313, .T. ) ;
#28 = ORIENTED_EDGE ( 'NONE', *, *, #123, .T. ) ;
#29 = AXIS2_PLACEMENT_3D ( 'NONE', #113, #173, #47 ) ;
#30 = ORIENTED_EDGE ( 'NONE', *, *, #27, .F. ) ;
#31 = DIMENSIONAL_EXPONENTS ( 1.000000000000000000, 0.0000000000000000000, 0.0000000000000000000, 0.0000000000000000000, 0.0000000000000000000, 0.0000000000000000000, 0.0000000000000000000 ) ;
#32 = DIRECTION ( 'NONE',  ( 1.000000000000000000, 0.0000000000000000000, 0.0000000000000000000 ) ) ;
#33 = EDGE_CURVE ( 'NONE', #201, #306, #128, .T. ) ;
#34 = DIRECTION ( 'NONE',  ( 0.0000000000000000000, 0.0000000000000000000, -1.000000000000000000 ) ) ;
#35 = DIRECTION ( 'NONE',  ( 1.000000000000000000, 0.0000000000000000000, 0.0000000000000000000 ) ) ;
#36 = DIRECTION ( 'NONE',  ( -0.0000000000000000000, -0.0000000000000000000, -1.000000000000000000 ) ) ;
#37 = AXIS2_PLACEMENT_3D ( 'NONE', #117, #34, #309 ) ;
#38 = CYLINDRICAL_SURFACE ( 'NONE', #240, 0.06250000000000002776 ) ;
#39 = DIRECTION ( 'NONE',  ( 0.0000000000000000000, 0.0000000000000000000, -1.000000000000000000 ) ) ;
#40 = DIRECTION ( 'NONE',  ( -1.000000000000000000, 0.0000000000000000000, 0.0000000000000000000 ) ) ;
#41 = ORIENTED_EDGE ( 'NONE', *, *, #265, .T. ) ;
#42 = LENGTH_MEASURE_WITH_UNIT ( LENGTH_MEASURE( 0.02539999999999999897 ), #136 );
#43 = COLOUR_RGB ( '',0.7921568627450980005, 0.8196078431372548767, 0.9333333333333333481 ) ;
#44 = DIRECTION ( 'NONE',  ( 1.000000000000000000, 0.0000000000000000000, 0.0000000000000000000 ) ) ;
#45 = CARTESIAN_POINT ( 'NONE',  ( 3.058555380870515335E-18, 0.0000000000000000000, 0.02497500000000000067 ) ) ;
#46 =( CONVERSION_BASED_UNIT ( 'INCH', #42 ) LENGTH_UNIT ( ) NAMED_UNIT ( #31 ) );
#47 = DIRECTION ( 'NONE',  ( -1.000000000000000000, 1.224646799147353207E-16, 0.0000000000000000000 ) ) ;
#48 = EDGE_LOOP ( 'NONE', ( #56, #211, #12 ) ) ;
#49 = DIRECTION ( 'NONE',  ( 0.0000000000000000000, 1.000000000000000000, 0.0000000000000000000 ) ) ;
#50 = AXIS2_PLACEMENT_3D ( 'NONE', #4, #59, #32 ) ;
#51 = ADVANCED_FACE ( 'NONE', ( #5 ), #170, .T. ) ;
#52 = ORIENTED_EDGE ( 'NONE', *, *, #181, .F. ) ;
#53 =( NAMED_UNIT ( * ) SI_UNIT ( $, .STERADIAN. ) SOLID_ANGLE_UNIT ( ) );
#54 = ORIENTED_EDGE ( 'NONE', *, *, #108, .T. ) ;
#55 = FACE_OUTER_BOUND ( 'NONE', #83, .T. ) ;
#56 = ORIENTED_EDGE ( 'NONE', *, *, #199, .F. ) ;
#57 = LINE ( 'NONE', #175, #24 ) ;
#58 = SURFACE_STYLE_FILL_AREA ( #285 ) ;
#59 = DIRECTION ( 'NONE',  ( 1.224646799147353454E-16, 0.0000000000000000000, 1.000000000000000000 ) ) ;
#60 = VECTOR ( 'NONE', #10, 39.37007874015748143 ) ;
#61 = CARTESIAN_POINT ( 'NONE',  ( -0.02497499999999998332, 5.356298937770737018E-18, 0.1499999999999999944 ) ) ;
#62 = EDGE_LOOP ( 'NONE', ( #54, #300, #106, #147 ) ) ;
#63 = ORIENTED_EDGE ( 'NONE', *, *, #188, .F. ) ;
#64 =( NAMED_UNIT ( * ) SI_UNIT ( $, .STERADIAN. ) SOLID_ANGLE_UNIT ( ) );
#65 = AXIS2_PLACEMENT_3D ( 'NONE', #77, #39, #40 ) ;
#66 = AXIS2_PLACEMENT_3D ( 'NONE', #142, #248, #260 ) ;
#67 =( NAMED_UNIT ( * ) PLANE_ANGLE_UNIT ( ) SI_UNIT ( $, .RADIAN. ) );
#68 = FACE_OUTER_BOUND ( 'NONE', #254, .T. ) ;
#69 = DIRECTION ( 'NONE',  ( 0.1736481776669313304, 0.0000000000000000000, 0.9848077530122077983 ) ) ;
#70 = EDGE_CURVE ( 'NONE', #280, #124, #86, .T. ) ;
#71 = CIRCLE ( 'NONE', #157, 0.02497500000000000067 ) ;
#72 = CARTESIAN_POINT ( 'NONE',  ( -0.02497499999999999720, 0.0000000000000000000, 0.02497500000000000414 ) ) ;
#73 = ORIENTED_EDGE ( 'NONE', *, *, #7, .T. ) ;
#74 = ORIENTED_EDGE ( 'NONE', *, *, #214, .T. ) ;
#75 = DIRECTION ( 'NONE',  ( -1.000000000000000000, 0.0000000000000000000, 0.0000000000000000000 ) ) ;
#76 = EDGE_LOOP ( 'NONE', ( #283, #135, #184, #99 ) ) ;
#77 = CARTESIAN_POINT ( 'NONE',  ( 0.0000000000000000000, 0.0000000000000000000, 1.500000000000000222 ) ) ;
#78 = DIRECTION ( 'NONE',  ( 0.0000000000000000000, 0.0000000000000000000, 1.000000000000000000 ) ) ;
#79 = FACE_OUTER_BOUND ( 'NONE', #62, .T. ) ;
#80 = CARTESIAN_POINT ( 'NONE',  ( 3.058555380870515335E-18, 0.0000000000000000000, 0.02497500000000000067 ) ) ;
#81 = ADVANCED_FACE ( 'NONE', ( #109 ), #38, .T. ) ;
#82 = PRESENTATION_LAYER_ASSIGNMENT (  '', '', ( #229 ) ) ;
#83 = EDGE_LOOP ( 'NONE', ( #168, #52, #242, #203 ) ) ;
#84 = SURFACE_STYLE_FILL_AREA ( #15 ) ;
#85 = UNCERTAINTY_MEASURE_WITH_UNIT (LENGTH_MEASURE( 1.000000000000000082E-05 ), #148, 'distance_accuracy_value', 'NONE');
#86 = LINE ( 'NONE', #11, #264 ) ;
#87 =( NAMED_UNIT ( * ) SI_UNIT ( $, .STERADIAN. ) SOLID_ANGLE_UNIT ( ) );
#88 = CARTESIAN_POINT ( 'NONE',  ( -0.06250000000000002776, 0.0000000000000000000, 1.485000000000000764 ) ) ;
#89 = PRODUCT_DEFINITION_CONTEXT ( 'detailed design', #118, 'design' ) ;
#90 = VECTOR ( 'NONE', #278, 39.37007874015748143 ) ;
#91 = DIRECTION ( 'NONE',  ( 1.000000000000000000, 0.0000000000000000000, 0.0000000000000000000 ) ) ;
#92 = ORIENTED_EDGE ( 'NONE', *, *, #129, .F. ) ;
#93 = MANIFOLD_SOLID_BREP ( 'Fillet1', #282 ) ;
#94 =( CONVERSION_BASED_UNIT ( 'INCH', #111 ) LENGTH_UNIT ( ) NAMED_UNIT ( #178 ) );
#95 =( GEOMETRIC_REPRESENTATION_CONTEXT ( 3 ) GLOBAL_UNCERTAINTY_ASSIGNED_CONTEXT ( ( #85 ) ) GLOBAL_UNIT_ASSIGNED_CONTEXT ( ( #148, #258, #53 ) ) REPRESENTATION_CONTEXT ( 'NONE', 'WORKASPACE' ) );
#96 = DIRECTION ( 'NONE',  ( -0.0000000000000000000, -0.0000000000000000000, -1.000000000000000000 ) ) ;
#97 = ORIENTED_EDGE ( 'NONE', *, *, #226, .F. ) ;
#98 = FACE_OUTER_BOUND ( 'NONE', #270, .T. ) ;
#99 = ORIENTED_EDGE ( 'NONE', *, *, #241, .F. ) ;
#100 = DIRECTION ( 'NONE',  ( 1.000000000000000000, 0.0000000000000000000, 0.0000000000000000000 ) ) ;
#101 = FACE_OUTER_BOUND ( 'NONE', #266, .T. ) ;
#102 = AXIS2_PLACEMENT_3D ( 'NONE', #191, #146, #44 ) ;
#103 = VERTEX_POINT ( 'NONE', #246 ) ;
#104 = CARTESIAN_POINT ( 'NONE',  ( -0.06249999999999997918, 0.0000000000000000000, 0.3628148502811535114 ) ) ;
#105 = EDGE_CURVE ( 'NONE', #124, #192, #290, .T. ) ;
#106 = ORIENTED_EDGE ( 'NONE', *, *, #105, .T. ) ;
#107 = CONICAL_SURFACE ( 'NONE', #66, 0.04750000000000064587, 0.7853981633974466137 ) ;
#108 = EDGE_CURVE ( 'NONE', #1, #280, #316, .T. ) ;
#109 = FACE_OUTER_BOUND ( 'NONE', #76, .T. ) ;
#110 = VECTOR ( 'NONE', #69, 39.37007874015748143 ) ;
#111 = LENGTH_MEASURE_WITH_UNIT ( LENGTH_MEASURE( 0.02539999999999999897 ), #287 );
#112 = EDGE_CURVE ( 'NONE', #306, #201, #198, .T. ) ;
#113 = CARTESIAN_POINT ( 'NONE',  ( 3.058555380870515335E-18, 0.0000000000000000000, 0.02497500000000000067 ) ) ;
#114 = DIRECTION ( 'NONE',  ( -1.000000000000000000, 0.0000000000000000000, 1.709114110150314860E-16 ) ) ;
#115 = CIRCLE ( 'NONE', #29, 0.02497500000000000067 ) ;
#116 = ORIENTED_EDGE ( 'NONE', *, *, #181, .T. ) ;
#117 = CARTESIAN_POINT ( 'NONE',  ( 0.0000000000000000000, 0.0000000000000000000, 1.485000000000000764 ) ) ;
#118 = APPLICATION_CONTEXT ( 'automotive_design' ) ;
#119 = VERTEX_POINT ( 'NONE', #223 ) ;
#120 = CARTESIAN_POINT ( 'NONE',  ( 0.0000000000000000000, 0.0000000000000000000, 1.485000000000000764 ) ) ;
#121 = ORIENTED_EDGE ( 'NONE', *, *, #133, .T. ) ;
#122 = DIRECTION ( 'NONE',  ( 1.000000000000000000, 0.0000000000000000000, 0.0000000000000000000 ) ) ;
#123 = EDGE_CURVE ( 'NONE', #1, #306, #295, .T. ) ;
#124 = VERTEX_POINT ( 'NONE', #20 ) ;
#125 = CARTESIAN_POINT ( 'NONE',  ( 0.06250000000000002776, 7.654042494670959086E-18, 1.500000000000000222 ) ) ;
#126 = DIRECTION ( 'NONE',  ( -1.224646799147353454E-16, -0.0000000000000000000, -1.000000000000000000 ) ) ;
#127 = CARTESIAN_POINT ( 'NONE',  ( 1.836970198721029749E-17, 0.0000000000000000000, 0.1499999999999999944 ) ) ;
#128 = CIRCLE ( 'NONE', #212, 0.06250000000000002776 ) ;
#129 = EDGE_CURVE ( 'NONE', #259, #192, #115, .T. ) ;
#130 = VECTOR ( 'NONE', #217, 39.37007874015747433 ) ;
#131 = SPHERICAL_SURFACE ( 'NONE', #165, 0.02497500000000000067 ) ;
#132 = CARTESIAN_POINT ( 'NONE',  ( 3.058555380870515335E-18, 0.0000000000000000000, 0.02497500000000000067 ) ) ;
#133 = EDGE_CURVE ( 'NONE', #1, #192, #137, .T. ) ;
#134 = CIRCLE ( 'NONE', #315, 0.06250000000000002776 ) ;
#135 = ORIENTED_EDGE ( 'NONE', *, *, #299, .T. ) ;
#136 =( LENGTH_UNIT ( ) NAMED_UNIT ( * ) SI_UNIT ( $, .METRE. ) );
#137 = LINE ( 'NONE', #196, #90 ) ;
#138 = ADVANCED_FACE ( 'NONE', ( #164 ), #324, .T. ) ;
#139 = AXIS2_PLACEMENT_3D ( 'NONE', #127, #155, #262 ) ;
#140 = CARTESIAN_POINT ( 'NONE',  ( 0.0000000000000000000, 0.0000000000000000000, 0.0000000000000000000 ) ) ;
#141 = DIRECTION ( 'NONE',  ( 0.0000000000000000000, 0.0000000000000000000, -1.000000000000000000 ) ) ;
#142 = CARTESIAN_POINT ( 'NONE',  ( 0.0000000000000000000, 0.0000000000000000000, 1.500000000000000222 ) ) ;
#143 = ORIENTED_EDGE ( 'NONE', *, *, #199, .T. ) ;
#144 = DIRECTION ( 'NONE',  ( 0.0000000000000000000, 0.0000000000000000000, 1.000000000000000000 ) ) ;
#145 = AXIS2_PLACEMENT_3D ( 'NONE', #45, #297, #141 ) ;
#146 = DIRECTION ( 'NONE',  ( 0.0000000000000000000, 0.0000000000000000000, 1.000000000000000000 ) ) ;
#147 = ORIENTED_EDGE ( 'NONE', *, *, #133, .F. ) ;
#148 =( CONVERSION_BASED_UNIT ( 'INCH', #152 ) LENGTH_UNIT ( ) NAMED_UNIT ( #245 ) );
#149 = EDGE_CURVE ( 'NONE', #103, #119, #250, .T. ) ;
#150 = COLOUR_RGB ( '',0.7921568627450980005, 0.8196078431372548767, 0.9333333333333333481 ) ;
#151 = AXIS2_PLACEMENT_3D ( 'NONE', #22, #144, #122 ) ;
#152 = LENGTH_MEASURE_WITH_UNIT ( LENGTH_MEASURE( 0.02539999999999999897 ), #183 );
#153 = DIRECTION ( 'NONE',  ( 1.000000000000000000, 0.0000000000000000000, -0.0000000000000000000 ) ) ;
#154 = SURFACE_SIDE_STYLE ('',( #58 ) ) ;
#155 = DIRECTION ( 'NONE',  ( 1.224646799147353454E-16, 0.0000000000000000000, 1.000000000000000000 ) ) ;
#156 = CARTESIAN_POINT ( 'NONE',  ( 0.0000000000000000000, 0.0000000000000000000, 1.500000000000000222 ) ) ;
#157 = AXIS2_PLACEMENT_3D ( 'NONE', #218, #318, #193 ) ;
#158 = EDGE_LOOP ( 'NONE', ( #92, #143, #261 ) ) ;
#159 = ORIENTED_EDGE ( 'NONE', *, *, #265, .F. ) ;
#160 = AXIS2_PLACEMENT_3D ( 'NONE', #252, #274, #301 ) ;
#161 = SURFACE_STYLE_USAGE ( .BOTH. , #213 ) ;
#162 = ADVANCED_FACE ( 'NONE', ( #68 ), #322, .T. ) ;
#163 = ORIENTED_EDGE ( 'NONE', *, *, #7, .F. ) ;
#164 = FACE_OUTER_BOUND ( 'NONE', #48, .T. ) ;
#165 = AXIS2_PLACEMENT_3D ( 'NONE', #80, #204, #289 ) ;
#166 = DIRECTION ( 'NONE',  ( 1.224646799147353454E-16, 0.0000000000000000000, 1.000000000000000000 ) ) ;
#167 = FACE_OUTER_BOUND ( 'NONE', #197, .T. ) ;
#168 = ORIENTED_EDGE ( 'NONE', *, *, #123, .F. ) ;
#169 = CARTESIAN_POINT ( 'NONE',  ( 0.06250000000000006939, 7.654042494670963708E-18, 0.3628148502811535114 ) ) ;
#170 = CONICAL_SURFACE ( 'NONE', #65, 0.04750000000000064587, 0.7853981633974466137 ) ;
#171 = CIRCLE ( 'NONE', #37, 0.06250000000000002776 ) ;
#172 = CONICAL_SURFACE ( 'NONE', #139, 0.02497500000000000067, 0.1745329251994338360 ) ;
#173 = DIRECTION ( 'NONE',  ( 1.224646799147353207E-16, 1.000000000000000000, -0.0000000000000000000 ) ) ;
#174 = PRODUCT_DEFINITION ( 'UNKNOWN', '', #13, #89 ) ;
#175 = CARTESIAN_POINT ( 'NONE',  ( 0.04750000000000064587, 5.817072295950006528E-18, 1.500000000000000222 ) ) ;
#176 = DIRECTION ( 'NONE',  ( 1.000000000000000000, 0.0000000000000000000, 0.0000000000000000000 ) ) ;
#177 = CIRCLE ( 'NONE', #314, 0.04750000000000064587 ) ;
#178 = DIMENSIONAL_EXPONENTS ( 1.000000000000000000, 0.0000000000000000000, 0.0000000000000000000, 0.0000000000000000000, 0.0000000000000000000, 0.0000000000000000000, 0.0000000000000000000 ) ;
#179 = AXIS2_PLACEMENT_3D ( 'NONE', #2, #26, #228 ) ;
#180 = FACE_OUTER_BOUND ( 'NONE', #231, .T. ) ;
#181 = EDGE_CURVE ( 'NONE', #280, #1, #71, .T. ) ;
#182 = CYLINDRICAL_SURFACE ( 'NONE', #179, 0.02497500000000000067 ) ;
#183 =( LENGTH_UNIT ( ) NAMED_UNIT ( * ) SI_UNIT ( $, .METRE. ) );
#184 = ORIENTED_EDGE ( 'NONE', *, *, #112, .F. ) ;
#185 = VERTEX_POINT ( 'NONE', #88 ) ;
#186 = AXIS2_PLACEMENT_3D ( 'NONE', #286, #36, #75 ) ;
#187 = CARTESIAN_POINT ( 'NONE',  ( 0.0000000000000000000, 0.0000000000000000000, 1.500000000000000222 ) ) ;
#188 = EDGE_CURVE ( 'NONE', #280, #201, #319, .T. ) ;
#189 = CARTESIAN_POINT ( 'NONE',  ( 0.02497500000000001802, 0.0000000000000000000, 0.1499999999999999944 ) ) ;
#190 = PRODUCT_DEFINITION_SHAPE ( 'NONE', 'NONE',  #174 ) ;
#191 = CARTESIAN_POINT ( 'NONE',  ( 0.0000000000000000000, 0.0000000000000000000, 1.500000000000000222 ) ) ;
#192 = VERTEX_POINT ( 'NONE', #72 ) ;
#193 = DIRECTION ( 'NONE',  ( -1.000000000000000000, 0.0000000000000000000, 0.0000000000000000000 ) ) ;
#194 = ORIENTED_EDGE ( 'NONE', *, *, #299, .F. ) ;
#195 = APPLICATION_CONTEXT ( 'automotive_design' ) ;
#196 = CARTESIAN_POINT ( 'NONE',  ( -0.02497500000000000067, 0.0000000000000000000, 3.058555380870515335E-18 ) ) ;
#197 = EDGE_LOOP ( 'NONE', ( #163, #41, #97, #30 ) ) ;
#198 = CIRCLE ( 'NONE', #222, 0.06250000000000002776 ) ;
#199 = EDGE_CURVE ( 'NONE', #259, #124, #9, .T. ) ;
#200 = DIRECTION ( 'NONE',  ( 0.0000000000000000000, 0.0000000000000000000, -1.000000000000000000 ) ) ;
#201 = VERTEX_POINT ( 'NONE', #169 ) ;
#202 = CARTESIAN_POINT ( 'NONE',  ( 0.0000000000000000000, 0.0000000000000000000, 1.500000000000000222 ) ) ;
#203 = ORIENTED_EDGE ( 'NONE', *, *, #33, .T. ) ;
#204 = DIRECTION ( 'NONE',  ( 0.0000000000000000000, 1.000000000000000000, 0.0000000000000000000 ) ) ;
#205 = VECTOR ( 'NONE', #237, 39.37007874015748854 ) ;
#206 = CONICAL_SURFACE ( 'NONE', #50, 0.02497500000000000067, 0.1745329251994338360 ) ;
#207 = PLANE ( 'NONE',  #244 ) ;
#208 = CARTESIAN_POINT ( 'NONE',  ( 4.443200450799409520E-17, 0.0000000000000000000, 0.3628148502811535114 ) ) ;
#209 = CYLINDRICAL_SURFACE ( 'NONE', #186, 0.06250000000000002776 ) ;
#210 = ORIENTED_EDGE ( 'NONE', *, *, #276, .T. ) ;
#211 = ORIENTED_EDGE ( 'NONE', *, *, #129, .T. ) ;
#212 = AXIS2_PLACEMENT_3D ( 'NONE', #208, #267, #35 ) ;
#213 = SURFACE_SIDE_STYLE ('',( #84 ) ) ;
#214 = EDGE_CURVE ( 'NONE', #192, #124, #236, .T. ) ;
#215 = PRESENTATION_LAYER_ASSIGNMENT (  '', '', ( #277 ) ) ;
#216 = VERTEX_POINT ( 'NONE', #221 ) ;
#217 = DIRECTION ( 'NONE',  ( -0.1736481776669311639, 2.126576849575782392E-17, 0.9848077530122080203 ) ) ;
#218 = CARTESIAN_POINT ( 'NONE',  ( 1.836970198721029749E-17, 0.0000000000000000000, 0.1499999999999999944 ) ) ;
#219 = UNCERTAINTY_MEASURE_WITH_UNIT (LENGTH_MEASURE( 1.000000000000000082E-05 ), #46, 'distance_accuracy_value', 'NONE');
#220 = ADVANCED_FACE ( 'NONE', ( #167 ), #107, .T. ) ;
#221 = CARTESIAN_POINT ( 'NONE',  ( 0.06250000000000002776, 7.654042494670959086E-18, 1.485000000000000764 ) ) ;
#222 = AXIS2_PLACEMENT_3D ( 'NONE', #320, #243, #21 ) ;
#223 = CARTESIAN_POINT ( 'NONE',  ( 0.04750000000000064587, 6.735557395310483192E-18, 1.500000000000000222 ) ) ;
#224 = ORIENTED_EDGE ( 'NONE', *, *, #276, .F. ) ;
#225 = CARTESIAN_POINT ( 'NONE',  ( -0.02497499999999998332, 3.058555380870514950E-18, 0.1499999999999999944 ) ) ;
#226 = EDGE_CURVE ( 'NONE', #185, #216, #134, .T. ) ;
#227 = PRODUCT_CONTEXT ( 'NONE', #195, 'mechanical' ) ;
#228 = DIRECTION ( 'NONE',  ( -1.000000000000000000, 0.0000000000000000000, 1.224646799147353454E-16 ) ) ;
#229 = STYLED_ITEM ( 'NONE', ( #296 ), #269 ) ;
#230 = APPLICATION_PROTOCOL_DEFINITION ( 'draft international standard', 'automotive_design', 1998, #195 ) ;
#231 = EDGE_LOOP ( 'NONE', ( #194, #210, #291, #302 ) ) ;
#232 = APPLICATION_PROTOCOL_DEFINITION ( 'draft international standard', 'automotive_design', 1998, #118 ) ;
#233 = ORIENTED_EDGE ( 'NONE', *, *, #149, .F. ) ;
#234 = SHAPE_DEFINITION_REPRESENTATION ( #190, #269 ) ;
#235 = DIRECTION ( 'NONE',  ( -1.000000000000000000, 0.0000000000000000000, 0.0000000000000000000 ) ) ;
#236 = CIRCLE ( 'NONE', #268, 0.02497500000000000067 ) ;
#237 = DIRECTION ( 'NONE',  ( -0.7071067811865462405, 0.0000000000000000000, -0.7071067811865486830 ) ) ;
#238 = ADVANCED_FACE ( 'NONE', ( #79 ), #182, .T. ) ;
#239 = FACE_OUTER_BOUND ( 'NONE', #158, .T. ) ;
#240 = AXIS2_PLACEMENT_3D ( 'NONE', #187, #293, #235 ) ;
#241 = EDGE_CURVE ( 'NONE', #185, #306, #281, .T. ) ;
#242 = ORIENTED_EDGE ( 'NONE', *, *, #188, .T. ) ;
#243 = DIRECTION ( 'NONE',  ( -1.224646799147353454E-16, -0.0000000000000000000, -1.000000000000000000 ) ) ;
#244 = AXIS2_PLACEMENT_3D ( 'NONE', #202, #78, #153 ) ;
#245 = DIMENSIONAL_EXPONENTS ( 1.000000000000000000, 0.0000000000000000000, 0.0000000000000000000, 0.0000000000000000000, 0.0000000000000000000, 0.0000000000000000000, 0.0000000000000000000 ) ;
#246 = CARTESIAN_POINT ( 'NONE',  ( -0.04750000000000064587, 0.0000000000000000000, 1.500000000000000222 ) ) ;
#247 = CARTESIAN_POINT ( 'NONE',  ( 3.058555380870515335E-18, 0.0000000000000000000, 0.02497500000000000067 ) ) ;
#248 = DIRECTION ( 'NONE',  ( 0.0000000000000000000, 0.0000000000000000000, -1.000000000000000000 ) ) ;
#249 = PRODUCT ( 'Micro_BMR-050-2X', 'Micro_BMR-050-2X', '', ( #227 ) ) ;
#250 = CIRCLE ( 'NONE', #102, 0.04750000000000064587 ) ;
#251 = PRODUCT_RELATED_PRODUCT_CATEGORY ( 'part', '', ( #249 ) ) ;
#252 = CARTESIAN_POINT ( 'NONE',  ( 1.836970198721029749E-17, 0.0000000000000000000, 0.1499999999999999944 ) ) ;
#253 = ORIENTED_EDGE ( 'NONE', *, *, #70, .F. ) ;
#254 = EDGE_LOOP ( 'NONE', ( #253, #116, #121, #74 ) ) ;
#255 = DIRECTION ( 'NONE',  ( 0.7071067811865462405, 8.659560562354916834E-17, -0.7071067811865486830 ) ) ;
#256 = EDGE_LOOP ( 'NONE', ( #159, #233, #263, #224 ) ) ;
#257 =( GEOMETRIC_REPRESENTATION_CONTEXT ( 3 ) GLOBAL_UNCERTAINTY_ASSIGNED_CONTEXT ( ( #219 ) ) GLOBAL_UNIT_ASSIGNED_CONTEXT ( ( #46, #18, #64 ) ) REPRESENTATION_CONTEXT ( 'NONE', 'WORKASPACE' ) );
#258 =( NAMED_UNIT ( * ) PLANE_ANGLE_UNIT ( ) SI_UNIT ( $, .RADIAN. ) );
#259 = VERTEX_POINT ( 'NONE', #6 ) ;
#260 = DIRECTION ( 'NONE',  ( -1.000000000000000000, 0.0000000000000000000, 0.0000000000000000000 ) ) ;
#261 = ORIENTED_EDGE ( 'NONE', *, *, #214, .F. ) ;
#262 = DIRECTION ( 'NONE',  ( 1.000000000000000000, 0.0000000000000000000, 0.0000000000000000000 ) ) ;
#263 = ORIENTED_EDGE ( 'NONE', *, *, #27, .T. ) ;
#264 = VECTOR ( 'NONE', #126, 39.37007874015748143 ) ;
#265 = EDGE_CURVE ( 'NONE', #119, #216, #57, .T. ) ;
#266 = EDGE_LOOP ( 'NONE', ( #317, #28, #323, #63 ) ) ;
#267 = DIRECTION ( 'NONE',  ( -1.224646799147353454E-16, -0.0000000000000000000, -1.000000000000000000 ) ) ;
#268 = AXIS2_PLACEMENT_3D ( 'NONE', #247, #23, #114 ) ;
#269 = ADVANCED_BREP_SHAPE_REPRESENTATION ( 'Micro_BMR-050-2X', ( #93, #151 ), #95 ) ;
#270 = EDGE_LOOP ( 'NONE', ( #3, #73 ) ) ;
#271 = CARTESIAN_POINT ( 'NONE',  ( 3.058555380870515335E-18, 0.0000000000000000000, 0.02497500000000000067 ) ) ;
#272 = MECHANICAL_DESIGN_GEOMETRIC_PRESENTATION_REPRESENTATION (  '', ( #229 ), #257 ) ;
#273 = ADVANCED_FACE ( 'NONE', ( #98 ), #207, .T. ) ;
#274 = DIRECTION ( 'NONE',  ( -1.224646799147353454E-16, -0.0000000000000000000, -1.000000000000000000 ) ) ;
#275 = DIRECTION ( 'NONE',  ( -1.224646799147353454E-16, -0.0000000000000000000, -1.000000000000000000 ) ) ;
#276 = EDGE_CURVE ( 'NONE', #216, #185, #171, .T. ) ;
#277 = STYLED_ITEM ( 'NONE', ( #311 ), #93 ) ;
#278 = DIRECTION ( 'NONE',  ( -1.224646799147353454E-16, -0.0000000000000000000, -1.000000000000000000 ) ) ;
#279 = CARTESIAN_POINT ( 'NONE',  ( 0.02497500000000001802, 0.0000000000000000000, 0.1499999999999999944 ) ) ;
#280 = VERTEX_POINT ( 'NONE', #279 ) ;
#281 = LINE ( 'NONE', #325, #60 ) ;
#282 = CLOSED_SHELL ( 'NONE', ( #138, #238, #294, #220, #81, #288, #273, #51, #310, #162, #14 ) ) ;
#283 = ORIENTED_EDGE ( 'NONE', *, *, #226, .T. ) ;
#284 = FILL_AREA_STYLE_COLOUR ( '', #43 ) ;
#285 = FILL_AREA_STYLE ('',( #308 ) ) ;
#286 = CARTESIAN_POINT ( 'NONE',  ( 0.0000000000000000000, 0.0000000000000000000, 1.500000000000000222 ) ) ;
#287 =( LENGTH_UNIT ( ) NAMED_UNIT ( * ) SI_UNIT ( $, .METRE. ) );
#288 = ADVANCED_FACE ( 'NONE', ( #180 ), #209, .T. ) ;
#289 = DIRECTION ( 'NONE',  ( 1.000000000000000000, 0.0000000000000000000, 0.0000000000000000000 ) ) ;
#290 = CIRCLE ( 'NONE', #19, 0.02497500000000000067 ) ;
#291 = ORIENTED_EDGE ( 'NONE', *, *, #241, .T. ) ;
#292 = AXIS2_PLACEMENT_3D ( 'NONE', #271, #49, #91 ) ;
#293 = DIRECTION ( 'NONE',  ( -0.0000000000000000000, -0.0000000000000000000, -1.000000000000000000 ) ) ;
#294 = ADVANCED_FACE ( 'NONE', ( #101 ), #206, .T. ) ;
#295 = LINE ( 'NONE', #225, #130 ) ;
#296 = PRESENTATION_STYLE_ASSIGNMENT (( #161 ) ) ;
#297 = DIRECTION ( 'NONE',  ( 0.0000000000000000000, -1.000000000000000000, 0.0000000000000000000 ) ) ;
#298 = VECTOR ( 'NONE', #96, 39.37007874015748143 ) ;
#299 = EDGE_CURVE ( 'NONE', #216, #201, #307, .T. ) ;
#300 = ORIENTED_EDGE ( 'NONE', *, *, #70, .T. ) ;
#301 = DIRECTION ( 'NONE',  ( -1.000000000000000000, 0.0000000000000000000, 0.0000000000000000000 ) ) ;
#302 = ORIENTED_EDGE ( 'NONE', *, *, #33, .F. ) ;
#303 = DIRECTION ( 'NONE',  ( -1.000000000000000000, 0.0000000000000000000, 1.224646799147353454E-16 ) ) ;
#304 = MECHANICAL_DESIGN_GEOMETRIC_PRESENTATION_REPRESENTATION (  '', ( #277 ), #305 ) ;
#305 =( GEOMETRIC_REPRESENTATION_CONTEXT ( 3 ) GLOBAL_UNCERTAINTY_ASSIGNED_CONTEXT ( ( #16 ) ) GLOBAL_UNIT_ASSIGNED_CONTEXT ( ( #94, #67, #87 ) ) REPRESENTATION_CONTEXT ( 'NONE', 'WORKASPACE' ) );
#306 = VERTEX_POINT ( 'NONE', #104 ) ;
#307 = LINE ( 'NONE', #125, #298 ) ;
#308 = FILL_AREA_STYLE_COLOUR ( '', #150 ) ;
#309 = DIRECTION ( 'NONE',  ( 1.000000000000000000, 0.0000000000000000000, 0.0000000000000000000 ) ) ;
#310 = ADVANCED_FACE ( 'NONE', ( #55 ), #172, .T. ) ;
#311 = PRESENTATION_STYLE_ASSIGNMENT (( #8 ) ) ;
#312 = DIRECTION ( 'NONE',  ( 0.0000000000000000000, 0.0000000000000000000, 1.000000000000000000 ) ) ;
#313 = LINE ( 'NONE', #17, #205 ) ;
#314 = AXIS2_PLACEMENT_3D ( 'NONE', #156, #312, #100 ) ;
#315 = AXIS2_PLACEMENT_3D ( 'NONE', #120, #200, #176 ) ;
#316 = CIRCLE ( 'NONE', #160, 0.02497500000000000067 ) ;
#317 = ORIENTED_EDGE ( 'NONE', *, *, #108, .F. ) ;
#318 = DIRECTION ( 'NONE',  ( -1.224646799147353454E-16, -0.0000000000000000000, -1.000000000000000000 ) ) ;
#319 = LINE ( 'NONE', #189, #110 ) ;
#320 = CARTESIAN_POINT ( 'NONE',  ( 4.443200450799409520E-17, 0.0000000000000000000, 0.3628148502811535114 ) ) ;
#321 = AXIS2_PLACEMENT_3D ( 'NONE', #140, #275, #303 ) ;
#322 = CYLINDRICAL_SURFACE ( 'NONE', #321, 0.02497500000000000067 ) ;
#323 = ORIENTED_EDGE ( 'NONE', *, *, #112, .T. ) ;
#324 = SPHERICAL_SURFACE ( 'NONE', #292, 0.02497500000000000067 ) ;
#325 = CARTESIAN_POINT ( 'NONE',  ( -0.06250000000000002776, 0.0000000000000000000, 1.500000000000000222 ) ) ;
ENDSEC;
END-ISO-10303-21;
