ISO-10303-21;
HEADER;
FILE_DESCRIPTION (( 'STEP AP214' ),
    '1' );
FILE_NAME ('81371.STEP',
    '2023-06-23T00:52:50',
    ( '' ),
    ( '' ),
    'SwSTEP 2.0',
    'SolidWorks 2023',
    '' );
FILE_SCHEMA (( 'AUTOMOTIVE_DESIGN' ));
ENDSEC;

DATA;
#1 = EDGE_LOOP ( 'NONE', ( #95, #137, #242, #288 ) ) ;
#2 = DIRECTION ( 'NONE',  ( 0.000000000000000000, -1.000000000000000000, -0.000000000000000000 ) ) ;
#3 = ORIENTED_EDGE ( 'NONE', *, *, #297, .T. ) ;
#4 = LENGTH_MEASURE_WITH_UNIT ( LENGTH_MEASURE( 0.02539999999999999897 ), #146 );
#5 = PRODUCT_RELATED_PRODUCT_CATEGORY ( 'part', '', ( #106 ) ) ;
#6 = PRESENTATION_LAYER_ASSIGNMENT (  '', '', ( #140 ) ) ;
#7 = UNCERTAINTY_MEASURE_WITH_UNIT (LENGTH_MEASURE( 1.000000000000000082E-05 ), #159, 'distance_accuracy_value', 'NONE');
#8 = FACE_OUTER_BOUND ( 'NONE', #282, .T. ) ;
#9 = DIRECTION ( 'NONE',  ( -0.000000000000000000, -1.000000000000000000, -0.000000000000000000 ) ) ;
#10 = DIMENSIONAL_EXPONENTS ( 1.000000000000000000, 0.000000000000000000, 0.000000000000000000, 0.000000000000000000, 0.000000000000000000, 0.000000000000000000, 0.000000000000000000 ) ;
#11 = CYLINDRICAL_SURFACE ( 'NONE', #123, 0.1874999999999999167 ) ;
#12 = SURFACE_STYLE_USAGE ( .BOTH. , #262 ) ;
#13 = AXIS2_PLACEMENT_3D ( 'NONE', #72, #26, #75 ) ;
#14 = SURFACE_SIDE_STYLE ('',( #298 ) ) ;
#15 = CARTESIAN_POINT ( 'NONE',  ( 0.000000000000000000, 0.7500000000000001110, -0.1874999999999999722 ) ) ;
#16 = ORIENTED_EDGE ( 'NONE', *, *, #114, .F. ) ;
#17 = PLANE ( 'NONE',  #290 ) ;
#18 = VECTOR ( 'NONE', #154, 39.37007874015748143 ) ;
#19 = AXIS2_PLACEMENT_3D ( 'NONE', #223, #179, #305 ) ;
#20 = VERTEX_POINT ( 'NONE', #15 ) ;
#21 = UNCERTAINTY_MEASURE_WITH_UNIT (LENGTH_MEASURE( 1.000000000000000082E-05 ), #133, 'distance_accuracy_value', 'NONE');
#22 = AXIS2_PLACEMENT_3D ( 'NONE', #28, #78, #31 ) ;
#23 = ORIENTED_EDGE ( 'NONE', *, *, #67, .T. ) ;
#24 = FILL_AREA_STYLE ('',( #64 ) ) ;
#25 = EDGE_CURVE ( 'NONE', #202, #234, #33, .T. ) ;
#26 = DIRECTION ( 'NONE',  ( 1.049697256412016700E-16, 1.000000000000000000, -0.000000000000000000 ) ) ;
#27 = DIMENSIONAL_EXPONENTS ( 1.000000000000000000, 0.000000000000000000, 0.000000000000000000, 0.000000000000000000, 0.000000000000000000, 0.000000000000000000, 0.000000000000000000 ) ;
#28 = CARTESIAN_POINT ( 'NONE',  ( 3.032960542342103792E-32, 0.7499999999999998890, 0.000000000000000000 ) ) ;
#29 = STYLED_ITEM ( 'NONE', ( #54 ), #186 ) ;
#30 =( NAMED_UNIT ( * ) PLANE_ANGLE_UNIT ( ) SI_UNIT ( $, .RADIAN. ) );
#31 = DIRECTION ( 'NONE',  ( -1.000000000000000000, 0.000000000000000000, 0.000000000000000000 ) ) ;
#32 = AXIS2_PLACEMENT_3D ( 'NONE', #120, #2, #196 ) ;
#33 = LINE ( 'NONE', #307, #59 ) ;
#34 =( LENGTH_UNIT ( ) NAMED_UNIT ( * ) SI_UNIT ( $, .METRE. ) );
#35 = FACE_OUTER_BOUND ( 'NONE', #264, .T. ) ;
#36 = CARTESIAN_POINT ( 'NONE',  ( 0.000000000000000000, 0.000000000000000000, -0.1875000000000000278 ) ) ;
#37 = ORIENTED_EDGE ( 'NONE', *, *, #214, .T. ) ;
#38 = MECHANICAL_DESIGN_GEOMETRIC_PRESENTATION_REPRESENTATION (  '', ( #140 ), #299 ) ;
#39 = EDGE_LOOP ( 'NONE', ( #206, #212, #139, #121 ) ) ;
#40 = DIRECTION ( 'NONE',  ( -0.000000000000000000, -1.000000000000000000, -0.000000000000000000 ) ) ;
#41 = VERTEX_POINT ( 'NONE', #36 ) ;
#42 =( LENGTH_UNIT ( ) NAMED_UNIT ( * ) SI_UNIT ( $, .METRE. ) );
#43 = PRESENTATION_LAYER_ASSIGNMENT (  '', '', ( #47 ) ) ;
#44 = APPLICATION_PROTOCOL_DEFINITION ( 'draft international standard', 'automotive_design', 1998, #66 ) ;
#45 = CARTESIAN_POINT ( 'NONE',  ( 2.296212748401287109E-17, 0.000000000000000000, 0.1875000000000000278 ) ) ;
#46 = CARTESIAN_POINT ( 'NONE',  ( 0.000000000000000000, 0.7500000000000001110, 0.000000000000000000 ) ) ;
#47 = STYLED_ITEM ( 'NONE', ( #117 ), #280 ) ;
#48 = UNCERTAINTY_MEASURE_WITH_UNIT (LENGTH_MEASURE( 1.000000000000000082E-05 ), #178, 'distance_accuracy_value', 'NONE');
#49 = ADVANCED_FACE ( 'NONE', ( #119 ), #143, .T. ) ;
#50 = DIRECTION ( 'NONE',  ( 0.000000000000000000, 0.000000000000000000, -1.000000000000000000 ) ) ;
#51 = MECHANICAL_DESIGN_GEOMETRIC_PRESENTATION_REPRESENTATION (  '', ( #294 ), #96 ) ;
#52 = CARTESIAN_POINT ( 'NONE',  ( 0.000000000000000000, 0.000000000000000000, -0.1874999999999999722 ) ) ;
#53 = SURFACE_SIDE_STYLE ('',( #277 ) ) ;
#54 = PRESENTATION_STYLE_ASSIGNMENT (( #224 ) ) ;
#55 =( NAMED_UNIT ( * ) SI_UNIT ( $, .STERADIAN. ) SOLID_ANGLE_UNIT ( ) );
#56 = FILL_AREA_STYLE_COLOUR ( '', #275 ) ;
#57 = EDGE_CURVE ( 'NONE', #234, #217, #194, .T. ) ;
#58 = DIRECTION ( 'NONE',  ( 0.000000000000000000, 1.000000000000000000, 0.000000000000000000 ) ) ;
#59 = VECTOR ( 'NONE', #230, 39.37007874015748143 ) ;
#60 =( CONVERSION_BASED_UNIT ( 'INCH', #4 ) LENGTH_UNIT ( ) NAMED_UNIT ( #161 ) );
#61 = CARTESIAN_POINT ( 'NONE',  ( 3.032960542342103792E-32, 0.7499999999999998890, 0.000000000000000000 ) ) ;
#62 = FACE_OUTER_BOUND ( 'NONE', #39, .T. ) ;
#63 = SURFACE_SIDE_STYLE ('',( #189 ) ) ;
#64 = FILL_AREA_STYLE_COLOUR ( '', #284 ) ;
#65 = UNCERTAINTY_MEASURE_WITH_UNIT (LENGTH_MEASURE( 1.000000000000000082E-05 ), #213, 'distance_accuracy_value', 'NONE');
#66 = APPLICATION_CONTEXT ( 'automotive_design' ) ;
#67 = EDGE_CURVE ( 'NONE', #20, #41, #173, .T. ) ;
#68 = CARTESIAN_POINT ( 'NONE',  ( 0.1874999999999999722, 0.7499999999999998890, 2.296212748401286493E-17 ) ) ;
#69 =( LENGTH_UNIT ( ) NAMED_UNIT ( * ) SI_UNIT ( $, .METRE. ) );
#70 = COLOUR_RGB ( '',1.000000000000000000, 0.000000000000000000, 0.000000000000000000 ) ;
#71 = PRODUCT_DEFINITION ( 'UNKNOWN', '', #245, #249 ) ;
#72 = CARTESIAN_POINT ( 'NONE',  ( 1.032997809486482984E-33, 0.7500000000000001110, 0.000000000000000000 ) ) ;
#73 = MECHANICAL_DESIGN_GEOMETRIC_PRESENTATION_REPRESENTATION (  '', ( #207 ), #175 ) ;
#74 = MECHANICAL_DESIGN_GEOMETRIC_PRESENTATION_REPRESENTATION (  '', ( #29 ), #300 ) ;
#75 = DIRECTION ( 'NONE',  ( -1.000000000000000000, 1.049697256412016700E-16, 0.000000000000000000 ) ) ;
#76 = DIRECTION ( 'NONE',  ( -1.000000000000000000, 0.000000000000000000, 0.000000000000000000 ) ) ;
#77 =( LENGTH_UNIT ( ) NAMED_UNIT ( * ) SI_UNIT ( $, .METRE. ) );
#78 = DIRECTION ( 'NONE',  ( 1.049697256412016823E-16, 1.000000000000000000, -0.000000000000000000 ) ) ;
#79 =( LENGTH_UNIT ( ) NAMED_UNIT ( * ) SI_UNIT ( $, .METRE. ) );
#80 = DIMENSIONAL_EXPONENTS ( 1.000000000000000000, 0.000000000000000000, 0.000000000000000000, 0.000000000000000000, 0.000000000000000000, 0.000000000000000000, 0.000000000000000000 ) ;
#81 =( NAMED_UNIT ( * ) PLANE_ANGLE_UNIT ( ) SI_UNIT ( $, .RADIAN. ) );
#82 = CIRCLE ( 'NONE', #22, 0.1874999999999999722 ) ;
#83 = DIMENSIONAL_EXPONENTS ( 1.000000000000000000, 0.000000000000000000, 0.000000000000000000, 0.000000000000000000, 0.000000000000000000, 0.000000000000000000, 0.000000000000000000 ) ;
#84 =( NAMED_UNIT ( * ) PLANE_ANGLE_UNIT ( ) SI_UNIT ( $, .RADIAN. ) );
#85 = LENGTH_MEASURE_WITH_UNIT ( LENGTH_MEASURE( 0.02539999999999999897 ), #42 );
#86 = FILL_AREA_STYLE ('',( #304 ) ) ;
#87 = SURFACE_STYLE_FILL_AREA ( #193 ) ;
#88 = FILL_AREA_STYLE ('',( #169 ) ) ;
#89 =( NAMED_UNIT ( * ) SI_UNIT ( $, .STERADIAN. ) SOLID_ANGLE_UNIT ( ) );
#90 =( NAMED_UNIT ( * ) SI_UNIT ( $, .STERADIAN. ) SOLID_ANGLE_UNIT ( ) );
#91 = FACE_OUTER_BOUND ( 'NONE', #124, .T. ) ;
#92 = DIRECTION ( 'NONE',  ( 1.049697256412016823E-16, 1.000000000000000000, -0.000000000000000000 ) ) ;
#93 = PRESENTATION_LAYER_ASSIGNMENT (  '', '', ( #260 ) ) ;
#94 = CIRCLE ( 'NONE', #241, 0.1874999999999999722 ) ;
#95 = ORIENTED_EDGE ( 'NONE', *, *, #191, .T. ) ;
#96 =( GEOMETRIC_REPRESENTATION_CONTEXT ( 3 ) GLOBAL_UNCERTAINTY_ASSIGNED_CONTEXT ( ( #48 ) ) GLOBAL_UNIT_ASSIGNED_CONTEXT ( ( #178, #126, #130 ) ) REPRESENTATION_CONTEXT ( 'NONE', 'WORKASPACE' ) );
#97 = AXIS2_PLACEMENT_3D ( 'NONE', #238, #118, #286 ) ;
#98 = APPLICATION_CONTEXT ( 'automotive_design' ) ;
#99 = PRESENTATION_STYLE_ASSIGNMENT (( #12 ) ) ;
#100 = DIRECTION ( 'NONE',  ( -1.049697256412016700E-16, -1.000000000000000000, 0.000000000000000000 ) ) ;
#101 = APPLICATION_PROTOCOL_DEFINITION ( 'draft international standard', 'automotive_design', 1998, #98 ) ;
#102 = COLOUR_RGB ( '',0.7921568627450980005, 0.8196078431372548767, 0.9333333333333333481 ) ;
#103 =( CONVERSION_BASED_UNIT ( 'INCH', #295 ) LENGTH_UNIT ( ) NAMED_UNIT ( #279 ) );
#104 = DIRECTION ( 'NONE',  ( 0.000000000000000000, 0.000000000000000000, -1.000000000000000000 ) ) ;
#105 = DIMENSIONAL_EXPONENTS ( 1.000000000000000000, 0.000000000000000000, 0.000000000000000000, 0.000000000000000000, 0.000000000000000000, 0.000000000000000000, 0.000000000000000000 ) ;
#106 = PRODUCT ( '81371', '81371', '', ( #174 ) ) ;
#107 = SURFACE_STYLE_FILL_AREA ( #24 ) ;
#108 = EDGE_CURVE ( 'NONE', #267, #110, #255, .T. ) ;
#109 = LENGTH_MEASURE_WITH_UNIT ( LENGTH_MEASURE( 0.02539999999999999897 ), #79 );
#110 = VERTEX_POINT ( 'NONE', #45 ) ;
#111 = CARTESIAN_POINT ( 'NONE',  ( 0.000000000000000000, 0.000000000000000000, 0.000000000000000000 ) ) ;
#112 = EDGE_LOOP ( 'NONE', ( #172, #145 ) ) ;
#113 = CARTESIAN_POINT ( 'NONE',  ( 2.296212748401286801E-17, 0.7500000000000001110, 0.1874999999999999722 ) ) ;
#114 = EDGE_CURVE ( 'NONE', #267, #20, #198, .T. ) ;
#115 = CLOSED_SHELL ( 'NONE', ( #225, #129, #231, #199 ) ) ;
#116 = AXIS2_PLACEMENT_3D ( 'NONE', #127, #162, #153 ) ;
#117 = PRESENTATION_STYLE_ASSIGNMENT (( #190 ) ) ;
#118 = DIRECTION ( 'NONE',  ( -0.000000000000000000, -1.000000000000000000, -0.000000000000000000 ) ) ;
#119 = FACE_OUTER_BOUND ( 'NONE', #112, .T. ) ;
#120 = CARTESIAN_POINT ( 'NONE',  ( 0.000000000000000000, 0.000000000000000000, 0.000000000000000000 ) ) ;
#121 = ORIENTED_EDGE ( 'NONE', *, *, #67, .F. ) ;
#122 = CARTESIAN_POINT ( 'NONE',  ( 0.000000000000000000, 0.7500000000000001110, 0.000000000000000000 ) ) ;
#123 = AXIS2_PLACEMENT_3D ( 'NONE', #184, #276, #221 ) ;
#124 = EDGE_LOOP ( 'NONE', ( #301, #138, #23, #171 ) ) ;
#125 =( GEOMETRIC_REPRESENTATION_CONTEXT ( 3 ) GLOBAL_UNCERTAINTY_ASSIGNED_CONTEXT ( ( #158 ) ) GLOBAL_UNIT_ASSIGNED_CONTEXT ( ( #60, #81, #219 ) ) REPRESENTATION_CONTEXT ( 'NONE', 'WORKASPACE' ) );
#126 =( NAMED_UNIT ( * ) PLANE_ANGLE_UNIT ( ) SI_UNIT ( $, .RADIAN. ) );
#127 = CARTESIAN_POINT ( 'NONE',  ( 0.000000000000000000, 0.000000000000000000, 0.000000000000000000 ) ) ;
#128 = PLANE ( 'NONE',  #160 ) ;
#129 = ADVANCED_FACE ( 'NONE', ( #200 ), #293, .F. ) ;
#130 =( NAMED_UNIT ( * ) SI_UNIT ( $, .STERADIAN. ) SOLID_ANGLE_UNIT ( ) );
#131 = AXIS2_PLACEMENT_3D ( 'NONE', #287, #272, #150 ) ;
#132 = FACE_OUTER_BOUND ( 'NONE', #252, .T. ) ;
#133 =( CONVERSION_BASED_UNIT ( 'INCH', #85 ) LENGTH_UNIT ( ) NAMED_UNIT ( #10 ) );
#134 = CARTESIAN_POINT ( 'NONE',  ( 2.296212748401286801E-17, 0.000000000000000000, 0.1874999999999999722 ) ) ;
#135 = CARTESIAN_POINT ( 'NONE',  ( 0.000000000000000000, 0.000000000000000000, 0.000000000000000000 ) ) ;
#136 = SURFACE_STYLE_USAGE ( .BOTH. , #53 ) ;
#137 = ORIENTED_EDGE ( 'NONE', *, *, #263, .T. ) ;
#138 = ORIENTED_EDGE ( 'NONE', *, *, #114, .T. ) ;
#139 = ORIENTED_EDGE ( 'NONE', *, *, #271, .F. ) ;
#140 = STYLED_ITEM ( 'NONE', ( #254 ), #177 ) ;
#141 = VERTEX_POINT ( 'NONE', #68 ) ;
#142 = CARTESIAN_POINT ( 'NONE',  ( -0.1874999999999996392, 2.500000000000000000, 0.000000000000000000 ) ) ;
#143 = PLANE ( 'NONE',  #32 ) ;
#144 = SHAPE_DEFINITION_REPRESENTATION ( #302, #163 ) ;
#145 = ORIENTED_EDGE ( 'NONE', *, *, #220, .T. ) ;
#146 =( LENGTH_UNIT ( ) NAMED_UNIT ( * ) SI_UNIT ( $, .METRE. ) );
#147 = CLOSED_SHELL ( 'NONE', ( #186, #280, #177, #49 ) ) ;
#148 = DIRECTION ( 'NONE',  ( -0.000000000000000000, -1.000000000000000000, -0.000000000000000000 ) ) ;
#149 = MANIFOLD_SOLID_BREP ( 'Revolve - Cutting Edge', #147 ) ;
#150 = DIRECTION ( 'NONE',  ( -1.000000000000000000, 0.000000000000000000, 0.000000000000000000 ) ) ;
#151 = MANIFOLD_SOLID_BREP ( 'Revolve - Tool Body (Straight Shanked)', #115 ) ;
#152 = CARTESIAN_POINT ( 'NONE',  ( 0.1874999999999999722, 2.500000000000000000, 2.296212748401286493E-17 ) ) ;
#153 = DIRECTION ( 'NONE',  ( 1.000000000000000000, 0.000000000000000000, 0.000000000000000000 ) ) ;
#154 = DIRECTION ( 'NONE',  ( -0.000000000000000000, -1.000000000000000000, -0.000000000000000000 ) ) ;
#155 = ORIENTED_EDGE ( 'NONE', *, *, #297, .F. ) ;
#156 = PRESENTATION_STYLE_ASSIGNMENT (( #210 ) ) ;
#157 = CARTESIAN_POINT ( 'NONE',  ( -0.1874999999999999722, 0.7499999999999998890, 0.000000000000000000 ) ) ;
#158 = UNCERTAINTY_MEASURE_WITH_UNIT (LENGTH_MEASURE( 1.000000000000000082E-05 ), #60, 'distance_accuracy_value', 'NONE');
#159 =( CONVERSION_BASED_UNIT ( 'INCH', #109 ) LENGTH_UNIT ( ) NAMED_UNIT ( #105 ) );
#160 = AXIS2_PLACEMENT_3D ( 'NONE', #203, #100, #258 ) ;
#161 = DIMENSIONAL_EXPONENTS ( 1.000000000000000000, 0.000000000000000000, 0.000000000000000000, 0.000000000000000000, 0.000000000000000000, 0.000000000000000000, 0.000000000000000000 ) ;
#162 = DIRECTION ( 'NONE',  ( 0.000000000000000000, 0.000000000000000000, 1.000000000000000000 ) ) ;
#163 = ADVANCED_BREP_SHAPE_REPRESENTATION ( '81371', ( #149, #151, #116 ), #125 ) ;
#164 = SURFACE_STYLE_USAGE ( .BOTH. , #185 ) ;
#165 = PRESENTATION_LAYER_ASSIGNMENT (  '', '', ( #294 ) ) ;
#166 = CIRCLE ( 'NONE', #97, 0.1875000000000000278 ) ;
#167 = SURFACE_STYLE_FILL_AREA ( #306 ) ;
#168 = AXIS2_PLACEMENT_3D ( 'NONE', #111, #205, #50 ) ;
#169 = FILL_AREA_STYLE_COLOUR ( '', #70 ) ;
#170 = LENGTH_MEASURE_WITH_UNIT ( LENGTH_MEASURE( 0.02539999999999999897 ), #309 );
#171 = ORIENTED_EDGE ( 'NONE', *, *, #220, .F. ) ;
#172 = ORIENTED_EDGE ( 'NONE', *, *, #271, .T. ) ;
#173 = LINE ( 'NONE', #52, #18 ) ;
#174 = PRODUCT_CONTEXT ( 'NONE', #98, 'mechanical' ) ;
#175 =( GEOMETRIC_REPRESENTATION_CONTEXT ( 3 ) GLOBAL_UNCERTAINTY_ASSIGNED_CONTEXT ( ( #253 ) ) GLOBAL_UNIT_ASSIGNED_CONTEXT ( ( #229, #183, #236 ) ) REPRESENTATION_CONTEXT ( 'NONE', 'WORKASPACE' ) );
#176 = LENGTH_MEASURE_WITH_UNIT ( LENGTH_MEASURE( 0.02539999999999999897 ), #77 );
#177 = ADVANCED_FACE ( 'NONE', ( #91 ), #228, .T. ) ;
#178 =( CONVERSION_BASED_UNIT ( 'INCH', #176 ) LENGTH_UNIT ( ) NAMED_UNIT ( #27 ) );
#179 = DIRECTION ( 'NONE',  ( 1.049697256412016823E-16, 1.000000000000000000, -0.000000000000000000 ) ) ;
#180 = PRESENTATION_LAYER_ASSIGNMENT (  '', '', ( #29 ) ) ;
#181 =( NAMED_UNIT ( * ) SI_UNIT ( $, .STERADIAN. ) SOLID_ANGLE_UNIT ( ) );
#182 = SURFACE_SIDE_STYLE ('',( #107 ) ) ;
#183 =( NAMED_UNIT ( * ) PLANE_ANGLE_UNIT ( ) SI_UNIT ( $, .RADIAN. ) );
#184 = CARTESIAN_POINT ( 'NONE',  ( 1.836970198721029688E-16, 2.500000000000000000, 0.000000000000000000 ) ) ;
#185 = SURFACE_SIDE_STYLE ('',( #87 ) ) ;
#186 = ADVANCED_FACE ( 'NONE', ( #62 ), #239, .T. ) ;
#187 = AXIS2_PLACEMENT_3D ( 'NONE', #46, #148, #246 ) ;
#188 = AXIS2_PLACEMENT_3D ( 'NONE', #61, #92, #218 ) ;
#189 = SURFACE_STYLE_FILL_AREA ( #88 ) ;
#190 = SURFACE_STYLE_USAGE ( .BOTH. , #63 ) ;
#191 = EDGE_CURVE ( 'NONE', #202, #141, #82, .T. ) ;
#192 = CARTESIAN_POINT ( 'NONE',  ( 0.000000000000000000, 0.7500000000000001110, 0.000000000000000000 ) ) ;
#193 = FILL_AREA_STYLE ('',( #56 ) ) ;
#194 = CIRCLE ( 'NONE', #131, 0.1874999999999998057 ) ;
#195 = VECTOR ( 'NONE', #237, 39.37007874015748143 ) ;
#196 = DIRECTION ( 'NONE',  ( 0.000000000000000000, 0.000000000000000000, -1.000000000000000000 ) ) ;
#197 = EDGE_LOOP ( 'NONE', ( #204, #155 ) ) ;
#198 = CIRCLE ( 'NONE', #187, 0.1874999999999999722 ) ;
#199 = ADVANCED_FACE ( 'NONE', ( #132 ), #128, .F. ) ;
#200 = FACE_OUTER_BOUND ( 'NONE', #197, .T. ) ;
#201 = CYLINDRICAL_SURFACE ( 'NONE', #19, 0.1874999999999999167 ) ;
#202 = VERTEX_POINT ( 'NONE', #157 ) ;
#203 = CARTESIAN_POINT ( 'NONE',  ( 0.1874999999999999722, 2.500000000000000000, 0.000000000000000000 ) ) ;
#204 = ORIENTED_EDGE ( 'NONE', *, *, #191, .F. ) ;
#205 = DIRECTION ( 'NONE',  ( -0.000000000000000000, -1.000000000000000000, -0.000000000000000000 ) ) ;
#206 = ORIENTED_EDGE ( 'NONE', *, *, #291, .T. ) ;
#207 = STYLED_ITEM ( 'NONE', ( #156 ), #149 ) ;
#208 = DIRECTION ( 'NONE',  ( 0.000000000000000000, 0.000000000000000000, -1.000000000000000000 ) ) ;
#209 = CARTESIAN_POINT ( 'NONE',  ( 0.1875000000000000833, 2.500000000000000000, 2.296212748401286185E-17 ) ) ;
#210 = SURFACE_STYLE_USAGE ( .BOTH. , #14 ) ;
#211 =( GEOMETRIC_REPRESENTATION_CONTEXT ( 3 ) GLOBAL_UNCERTAINTY_ASSIGNED_CONTEXT ( ( #65 ) ) GLOBAL_UNIT_ASSIGNED_CONTEXT ( ( #213, #215, #90 ) ) REPRESENTATION_CONTEXT ( 'NONE', 'WORKASPACE' ) );
#212 = ORIENTED_EDGE ( 'NONE', *, *, #108, .T. ) ;
#213 =( CONVERSION_BASED_UNIT ( 'INCH', #170 ) LENGTH_UNIT ( ) NAMED_UNIT ( #83 ) );
#214 = EDGE_CURVE ( 'NONE', #217, #234, #296, .T. ) ;
#215 =( NAMED_UNIT ( * ) PLANE_ANGLE_UNIT ( ) SI_UNIT ( $, .RADIAN. ) );
#216 = PRESENTATION_LAYER_ASSIGNMENT (  '', '', ( #207 ) ) ;
#217 = VERTEX_POINT ( 'NONE', #152 ) ;
#218 = DIRECTION ( 'NONE',  ( -1.000000000000000000, 0.000000000000000000, 0.000000000000000000 ) ) ;
#219 =( NAMED_UNIT ( * ) SI_UNIT ( $, .STERADIAN. ) SOLID_ANGLE_UNIT ( ) );
#220 = EDGE_CURVE ( 'NONE', #110, #41, #235, .T. ) ;
#221 = DIRECTION ( 'NONE',  ( -1.000000000000000000, 0.000000000000000000, 0.000000000000000000 ) ) ;
#222 = DIRECTION ( 'NONE',  ( -0.000000000000000000, -1.000000000000000000, -0.000000000000000000 ) ) ;
#223 = CARTESIAN_POINT ( 'NONE',  ( 1.836970198721029688E-16, 2.500000000000000000, 0.000000000000000000 ) ) ;
#224 = SURFACE_STYLE_USAGE ( .BOTH. , #182 ) ;
#225 = ADVANCED_FACE ( 'NONE', ( #303 ), #11, .T. ) ;
#226 = CIRCLE ( 'NONE', #188, 0.1874999999999999722 ) ;
#227 = DIRECTION ( 'NONE',  ( 1.049697256412016823E-16, 1.000000000000000000, -0.000000000000000000 ) ) ;
#228 = CYLINDRICAL_SURFACE ( 'NONE', #168, 0.1874999999999999722 ) ;
#229 =( CONVERSION_BASED_UNIT ( 'INCH', #285 ) LENGTH_UNIT ( ) NAMED_UNIT ( #80 ) );
#230 = DIRECTION ( 'NONE',  ( 1.049697256412016700E-16, 1.000000000000000000, -0.000000000000000000 ) ) ;
#231 = ADVANCED_FACE ( 'NONE', ( #8 ), #201, .T. ) ;
#232 = ORIENTED_EDGE ( 'NONE', *, *, #291, .F. ) ;
#233 = PRESENTATION_STYLE_ASSIGNMENT (( #136 ) ) ;
#234 = VERTEX_POINT ( 'NONE', #142 ) ;
#235 = CIRCLE ( 'NONE', #266, 0.1875000000000000278 ) ;
#236 =( NAMED_UNIT ( * ) SI_UNIT ( $, .STERADIAN. ) SOLID_ANGLE_UNIT ( ) );
#237 = DIRECTION ( 'NONE',  ( 1.049697256412016700E-16, 1.000000000000000000, -0.000000000000000000 ) ) ;
#238 = CARTESIAN_POINT ( 'NONE',  ( 0.000000000000000000, 0.000000000000000000, 0.000000000000000000 ) ) ;
#239 = CYLINDRICAL_SURFACE ( 'NONE', #261, 0.1874999999999999722 ) ;
#240 =( GEOMETRIC_REPRESENTATION_CONTEXT ( 3 ) GLOBAL_UNCERTAINTY_ASSIGNED_CONTEXT ( ( #21 ) ) GLOBAL_UNIT_ASSIGNED_CONTEXT ( ( #133, #292, #89 ) ) REPRESENTATION_CONTEXT ( 'NONE', 'WORKASPACE' ) );
#241 = AXIS2_PLACEMENT_3D ( 'NONE', #122, #40, #268 ) ;
#242 = ORIENTED_EDGE ( 'NONE', *, *, #57, .F. ) ;
#243 = FILL_AREA_STYLE_COLOUR ( '', #102 ) ;
#244 = MECHANICAL_DESIGN_GEOMETRIC_PRESENTATION_REPRESENTATION (  '', ( #260 ), #240 ) ;
#245 = PRODUCT_DEFINITION_FORMATION_WITH_SPECIFIED_SOURCE ( 'ANY', '', #106, .NOT_KNOWN. ) ;
#246 = DIRECTION ( 'NONE',  ( 0.000000000000000000, 0.000000000000000000, -1.000000000000000000 ) ) ;
#247 = ORIENTED_EDGE ( 'NONE', *, *, #263, .F. ) ;
#248 = CARTESIAN_POINT ( 'NONE',  ( 1.836970198721029688E-16, 2.500000000000000000, 0.000000000000000000 ) ) ;
#249 = PRODUCT_DEFINITION_CONTEXT ( 'detailed design', #66, 'design' ) ;
#250 = CARTESIAN_POINT ( 'NONE',  ( 0.000000000000000000, 0.000000000000000000, 0.000000000000000000 ) ) ;
#251 = AXIS2_PLACEMENT_3D ( 'NONE', #248, #227, #76 ) ;
#252 = EDGE_LOOP ( 'NONE', ( #308, #37 ) ) ;
#253 = UNCERTAINTY_MEASURE_WITH_UNIT (LENGTH_MEASURE( 1.000000000000000082E-05 ), #229, 'distance_accuracy_value', 'NONE');
#254 = PRESENTATION_STYLE_ASSIGNMENT (( #164 ) ) ;
#255 = LINE ( 'NONE', #134, #269 ) ;
#256 = ORIENTED_EDGE ( 'NONE', *, *, #214, .F. ) ;
#257 = DIRECTION ( 'NONE',  ( -0.000000000000000000, -1.000000000000000000, -0.000000000000000000 ) ) ;
#258 = DIRECTION ( 'NONE',  ( 1.000000000000000000, -1.049697256412016700E-16, 0.000000000000000000 ) ) ;
#259 = ORIENTED_EDGE ( 'NONE', *, *, #25, .T. ) ;
#260 = STYLED_ITEM ( 'NONE', ( #233 ), #49 ) ;
#261 = AXIS2_PLACEMENT_3D ( 'NONE', #250, #257, #104 ) ;
#262 = SURFACE_SIDE_STYLE ('',( #167 ) ) ;
#263 = EDGE_CURVE ( 'NONE', #141, #217, #281, .T. ) ;
#264 = EDGE_LOOP ( 'NONE', ( #232, #16 ) ) ;
#265 = COLOUR_RGB ( '',1.000000000000000000, 0.000000000000000000, 0.000000000000000000 ) ;
#266 = AXIS2_PLACEMENT_3D ( 'NONE', #135, #9, #208 ) ;
#267 = VERTEX_POINT ( 'NONE', #113 ) ;
#268 = DIRECTION ( 'NONE',  ( 0.000000000000000000, 0.000000000000000000, -1.000000000000000000 ) ) ;
#269 = VECTOR ( 'NONE', #222, 39.37007874015748143 ) ;
#270 = MECHANICAL_DESIGN_GEOMETRIC_PRESENTATION_REPRESENTATION (  '', ( #47 ), #211 ) ;
#271 = EDGE_CURVE ( 'NONE', #41, #110, #166, .T. ) ;
#272 = DIRECTION ( 'NONE',  ( 1.049697256412016823E-16, 1.000000000000000000, -0.000000000000000000 ) ) ;
#273 = FILL_AREA_STYLE ('',( #243 ) ) ;
#274 = UNCERTAINTY_MEASURE_WITH_UNIT (LENGTH_MEASURE( 1.000000000000000082E-05 ), #103, 'distance_accuracy_value', 'NONE');
#275 = COLOUR_RGB ( '',1.000000000000000000, 0.000000000000000000, 0.000000000000000000 ) ;
#276 = DIRECTION ( 'NONE',  ( 1.049697256412016823E-16, 1.000000000000000000, -0.000000000000000000 ) ) ;
#277 = SURFACE_STYLE_FILL_AREA ( #86 ) ;
#278 = FILL_AREA_STYLE_COLOUR ( '', #289 ) ;
#279 = DIMENSIONAL_EXPONENTS ( 1.000000000000000000, 0.000000000000000000, 0.000000000000000000, 0.000000000000000000, 0.000000000000000000, 0.000000000000000000, 0.000000000000000000 ) ;
#280 = ADVANCED_FACE ( 'NONE', ( #35 ), #17, .T. ) ;
#281 = LINE ( 'NONE', #209, #195 ) ;
#282 = EDGE_LOOP ( 'NONE', ( #247, #3, #259, #256 ) ) ;
#283 = DIRECTION ( 'NONE',  ( 0.000000000000000000, -0.000000000000000000, 1.000000000000000000 ) ) ;
#284 = COLOUR_RGB ( '',1.000000000000000000, 0.000000000000000000, 0.000000000000000000 ) ;
#285 = LENGTH_MEASURE_WITH_UNIT ( LENGTH_MEASURE( 0.02539999999999999897 ), #34 );
#286 = DIRECTION ( 'NONE',  ( 0.000000000000000000, 0.000000000000000000, -1.000000000000000000 ) ) ;
#287 = CARTESIAN_POINT ( 'NONE',  ( 1.836970198721029688E-16, 2.500000000000000000, 0.000000000000000000 ) ) ;
#288 = ORIENTED_EDGE ( 'NONE', *, *, #25, .F. ) ;
#289 = COLOUR_RGB ( '',0.7921568627450980005, 0.8196078431372548767, 0.9333333333333333481 ) ;
#290 = AXIS2_PLACEMENT_3D ( 'NONE', #192, #58, #283 ) ;
#291 = EDGE_CURVE ( 'NONE', #20, #267, #94, .T. ) ;
#292 =( NAMED_UNIT ( * ) PLANE_ANGLE_UNIT ( ) SI_UNIT ( $, .RADIAN. ) );
#293 = PLANE ( 'NONE',  #13 ) ;
#294 = STYLED_ITEM ( 'NONE', ( #99 ), #151 ) ;
#295 = LENGTH_MEASURE_WITH_UNIT ( LENGTH_MEASURE( 0.02539999999999999897 ), #69 );
#296 = CIRCLE ( 'NONE', #251, 0.1874999999999998057 ) ;
#297 = EDGE_CURVE ( 'NONE', #141, #202, #226, .T. ) ;
#298 = SURFACE_STYLE_FILL_AREA ( #273 ) ;
#299 =( GEOMETRIC_REPRESENTATION_CONTEXT ( 3 ) GLOBAL_UNCERTAINTY_ASSIGNED_CONTEXT ( ( #7 ) ) GLOBAL_UNIT_ASSIGNED_CONTEXT ( ( #159, #84, #55 ) ) REPRESENTATION_CONTEXT ( 'NONE', 'WORKASPACE' ) );
#300 =( GEOMETRIC_REPRESENTATION_CONTEXT ( 3 ) GLOBAL_UNCERTAINTY_ASSIGNED_CONTEXT ( ( #274 ) ) GLOBAL_UNIT_ASSIGNED_CONTEXT ( ( #103, #30, #181 ) ) REPRESENTATION_CONTEXT ( 'NONE', 'WORKASPACE' ) );
#301 = ORIENTED_EDGE ( 'NONE', *, *, #108, .F. ) ;
#302 = PRODUCT_DEFINITION_SHAPE ( 'NONE', 'NONE',  #71 ) ;
#303 = FACE_OUTER_BOUND ( 'NONE', #1, .T. ) ;
#304 = FILL_AREA_STYLE_COLOUR ( '', #265 ) ;
#305 = DIRECTION ( 'NONE',  ( -1.000000000000000000, 0.000000000000000000, 0.000000000000000000 ) ) ;
#306 = FILL_AREA_STYLE ('',( #278 ) ) ;
#307 = CARTESIAN_POINT ( 'NONE',  ( -0.1874999999999997502, 2.500000000000000000, 0.000000000000000000 ) ) ;
#308 = ORIENTED_EDGE ( 'NONE', *, *, #57, .T. ) ;
#309 =( LENGTH_UNIT ( ) NAMED_UNIT ( * ) SI_UNIT ( $, .METRE. ) );
ENDSEC;
END-ISO-10303-21;
