ISO-10303-21;
HEADER;
FILE_DESCRIPTION (( 'STEP AP214' ),
    '1' );
FILE_NAME ('Micro_GEC-125-4-020.STEP',
    '2021-09-03T17:08:52',
    ( '' ),
    ( '' ),
    'SwSTEP 2.0',
    'SolidWorks 2020',
    '' );
FILE_SCHEMA (( 'AUTOMOTIVE_DESIGN' ));
ENDSEC;

DATA;
#1 = EDGE_LOOP ( 'NONE', ( #142, #36 ) ) ;
#2 = DIRECTION ( 'NONE',  ( 0.0000000000000000000, 0.0000000000000000000, -1.000000000000000000 ) ) ;
#3 = EDGE_CURVE ( 'NONE', #140, #91, #143, .T. ) ;
#4 = ADVANCED_FACE ( 'NONE', ( #92 ), #201, .T. ) ;
#5 = AXIS2_PLACEMENT_3D ( 'NONE', #45, #127, #130 ) ;
#6 = ORIENTED_EDGE ( 'NONE', *, *, #129, .T. ) ;
#7 = AXIS2_PLACEMENT_3D ( 'NONE', #25, #59, #303 ) ;
#8 = ORIENTED_EDGE ( 'NONE', *, *, #203, .T. ) ;
#9 = ORIENTED_EDGE ( 'NONE', *, *, #64, .F. ) ;
#10 = VERTEX_POINT ( 'NONE', #115 ) ;
#11 = ORIENTED_EDGE ( 'NONE', *, *, #80, .F. ) ;
#12 = CARTESIAN_POINT ( 'NONE',  ( 0.0000000000000000000, 0.0000000000000000000, 1.485000000000000764 ) ) ;
#13 = PRODUCT_CONTEXT ( 'NONE', #74, 'mechanical' ) ;
#14 = CYLINDRICAL_SURFACE ( 'NONE', #255, 0.06243750000000001382 ) ;
#15 = CARTESIAN_POINT ( 'NONE',  ( 6.123233995736768501E-17, 0.0000000000000000000, 0.5000000000000000000 ) ) ;
#16 =( GEOMETRIC_REPRESENTATION_CONTEXT ( 3 ) GLOBAL_UNCERTAINTY_ASSIGNED_CONTEXT ( ( #44 ) ) GLOBAL_UNIT_ASSIGNED_CONTEXT ( ( #187, #157, #213 ) ) REPRESENTATION_CONTEXT ( 'NONE', 'WORKASPACE' ) );
#17 = DIRECTION ( 'NONE',  ( 1.000000000000000000, 0.0000000000000000000, 0.0000000000000000000 ) ) ;
#18 = DIRECTION ( 'NONE',  ( 1.000000000000000000, 0.0000000000000000000, 0.0000000000000000000 ) ) ;
#19 = CARTESIAN_POINT ( 'NONE',  ( 0.0000000000000000000, 0.0000000000000000000, 0.0000000000000000000 ) ) ;
#20 = CIRCLE ( 'NONE', #66, 0.04750000000000064587 ) ;
#21 = PRODUCT_DEFINITION_FORMATION_WITH_SPECIFIED_SOURCE ( 'ANY', '', #162, .NOT_KNOWN. ) ;
#22 = CARTESIAN_POINT ( 'NONE',  ( -0.04243750000000000994, 5.197094853881581761E-18, 0.02000000000000000042 ) ) ;
#23 = DIRECTION ( 'NONE',  ( -1.000000000000000000, 0.0000000000000000000, 0.0000000000000000000 ) ) ;
#24 = APPLICATION_CONTEXT ( 'automotive_design' ) ;
#25 = CARTESIAN_POINT ( 'NONE',  ( 2.449293598294707539E-18, 0.0000000000000000000, 0.0000000000000000000 ) ) ;
#26 = CIRCLE ( 'NONE', #195, 0.02000000000000000042 ) ;
#27 = DIRECTION ( 'NONE',  ( 0.0000000000000000000, 0.0000000000000000000, -1.000000000000000000 ) ) ;
#28 = EDGE_LOOP ( 'NONE', ( #174, #172, #8, #33 ) ) ;
#29 = FACE_OUTER_BOUND ( 'NONE', #1, .T. ) ;
#30 = VERTEX_POINT ( 'NONE', #332 ) ;
#31 = VERTEX_POINT ( 'NONE', #197 ) ;
#32 = TOROIDAL_SURFACE ( 'NONE', #55, 0.04243750000000000994, 0.02000000000000000042 ) ;
#33 = ORIENTED_EDGE ( 'NONE', *, *, #193, .F. ) ;
#34 = ORIENTED_EDGE ( 'NONE', *, *, #336, .T. ) ;
#35 = VECTOR ( 'NONE', #278, 39.37007874015748854 ) ;
#36 = ORIENTED_EDGE ( 'NONE', *, *, #209, .T. ) ;
#37 = EDGE_CURVE ( 'NONE', #312, #119, #60, .T. ) ;
#38 = DIRECTION ( 'NONE',  ( 0.0000000000000000000, 0.0000000000000000000, -1.000000000000000000 ) ) ;
#39 = FILL_AREA_STYLE ('',( #287 ) ) ;
#40 = DIRECTION ( 'NONE',  ( 1.224646799147353700E-16, 0.0000000000000000000, 1.000000000000000000 ) ) ;
#41 = LINE ( 'NONE', #120, #154 ) ;
#42 = EDGE_CURVE ( 'NONE', #10, #147, #141, .T. ) ;
#43 = FACE_OUTER_BOUND ( 'NONE', #234, .T. ) ;
#44 = UNCERTAINTY_MEASURE_WITH_UNIT (LENGTH_MEASURE( 1.000000000000000082E-05 ), #187, 'distance_accuracy_value', 'NONE');
#45 = CARTESIAN_POINT ( 'NONE',  ( 0.0000000000000000000, 0.0000000000000000000, 1.500000000000000222 ) ) ;
#46 = EDGE_CURVE ( 'NONE', #10, #140, #212, .T. ) ;
#47 = VECTOR ( 'NONE', #106, 39.37007874015748143 ) ;
#48 = PRODUCT_DEFINITION_SHAPE ( 'NONE', 'NONE',  #333 ) ;
#49 = DIRECTION ( 'NONE',  ( 0.0000000000000000000, 0.0000000000000000000, 1.000000000000000000 ) ) ;
#50 = CLOSED_SHELL ( 'NONE', ( #54, #4, #121, #248, #348, #188, #88, #341, #82, #69, #331, #277 ) ) ;
#51 =( NAMED_UNIT ( * ) PLANE_ANGLE_UNIT ( ) SI_UNIT ( $, .RADIAN. ) );
#52 = EDGE_LOOP ( 'NONE', ( #270, #34, #11, #164 ) ) ;
#53 = CARTESIAN_POINT ( 'NONE',  ( -0.06250000000000002776, 0.0000000000000000000, 1.500000000000000222 ) ) ;
#54 = ADVANCED_FACE ( 'NONE', ( #238 ), #32, .T. ) ;
#55 = AXIS2_PLACEMENT_3D ( 'NONE', #342, #207, #345 ) ;
#56 = ORIENTED_EDGE ( 'NONE', *, *, #336, .F. ) ;
#57 = AXIS2_PLACEMENT_3D ( 'NONE', #110, #49, #190 ) ;
#58 =( CONVERSION_BASED_UNIT ( 'INCH', #84 ) LENGTH_UNIT ( ) NAMED_UNIT ( #317 ) );
#59 = DIRECTION ( 'NONE',  ( -0.0000000000000000000, -0.0000000000000000000, -1.000000000000000000 ) ) ;
#60 = LINE ( 'NONE', #169, #35 ) ;
#61 = EDGE_CURVE ( 'NONE', #339, #119, #285, .T. ) ;
#62 = ORIENTED_EDGE ( 'NONE', *, *, #129, .F. ) ;
#63 = EDGE_LOOP ( 'NONE', ( #334, #275, #101, #328 ) ) ;
#64 = EDGE_CURVE ( 'NONE', #10, #30, #41, .T. ) ;
#65 = CARTESIAN_POINT ( 'NONE',  ( -0.06249999999999996531, 0.0000000000000000000, 0.5003544551137261154 ) ) ;
#66 = AXIS2_PLACEMENT_3D ( 'NONE', #294, #264, #322 ) ;
#67 = FACE_OUTER_BOUND ( 'NONE', #300, .T. ) ;
#68 = DIRECTION ( 'NONE',  ( 0.0000000000000000000, 0.0000000000000000000, 1.000000000000000000 ) ) ;
#69 = ADVANCED_FACE ( 'NONE', ( #67 ), #14, .T. ) ;
#70 = DIRECTION ( 'NONE',  ( -1.224646799147353700E-16, -0.0000000000000000000, -1.000000000000000000 ) ) ;
#71 = DIRECTION ( 'NONE',  ( -0.7071067811865462405, 0.0000000000000000000, -0.7071067811865486830 ) ) ;
#72 =( LENGTH_UNIT ( ) NAMED_UNIT ( * ) SI_UNIT ( $, .METRE. ) );
#73 = DIRECTION ( 'NONE',  ( -0.0000000000000000000, -0.0000000000000000000, -1.000000000000000000 ) ) ;
#74 = APPLICATION_CONTEXT ( 'automotive_design' ) ;
#75 = APPLICATION_PROTOCOL_DEFINITION ( 'draft international standard', 'automotive_design', 1998, #74 ) ;
#76 = CIRCLE ( 'NONE', #116, 0.02000000000000000042 ) ;
#77 = STYLED_ITEM ( 'NONE', ( #259 ), #199 ) ;
#78 = DIRECTION ( 'NONE',  ( -1.224646799147353700E-16, -0.0000000000000000000, -1.000000000000000000 ) ) ;
#79 = CARTESIAN_POINT ( 'NONE',  ( 0.0000000000000000000, 0.0000000000000000000, 1.500000000000000222 ) ) ;
#80 = EDGE_CURVE ( 'NONE', #91, #147, #170, .T. ) ;
#81 = DIRECTION ( 'NONE',  ( -0.0000000000000000000, -0.0000000000000000000, -1.000000000000000000 ) ) ;
#82 = ADVANCED_FACE ( 'NONE', ( #258 ), #132, .T. ) ;
#83 = COLOUR_RGB ( '',0.7921568627450980005, 0.8196078431372548767, 0.9333333333333333481 ) ;
#84 = LENGTH_MEASURE_WITH_UNIT ( LENGTH_MEASURE( 0.02539999999999999897 ), #246 );
#85 = CIRCLE ( 'NONE', #241, 0.06250000000000002776 ) ;
#86 = ORIENTED_EDGE ( 'NONE', *, *, #42, .F. ) ;
#87 = DIRECTION ( 'NONE',  ( -1.000000000000000000, 0.0000000000000000000, 0.0000000000000000000 ) ) ;
#88 = ADVANCED_FACE ( 'NONE', ( #260 ), #205, .T. ) ;
#89 = ORIENTED_EDGE ( 'NONE', *, *, #296, .T. ) ;
#90 = ORIENTED_EDGE ( 'NONE', *, *, #160, .F. ) ;
#91 = VERTEX_POINT ( 'NONE', #65 ) ;
#92 = FACE_OUTER_BOUND ( 'NONE', #28, .T. ) ;
#93 = ORIENTED_EDGE ( 'NONE', *, *, #37, .F. ) ;
#94 = SHAPE_DEFINITION_REPRESENTATION ( #48, #199 ) ;
#95 = DIRECTION ( 'NONE',  ( 1.000000000000000000, 0.0000000000000000000, 0.0000000000000000000 ) ) ;
#96 = VECTOR ( 'NONE', #78, 39.37007874015748143 ) ;
#97 = DIRECTION ( 'NONE',  ( 1.000000000000000000, 0.0000000000000000000, 0.0000000000000000000 ) ) ;
#98 = DIRECTION ( 'NONE',  ( -1.000000000000000000, 0.0000000000000000000, 1.224646799147353700E-16 ) ) ;
#99 = MANIFOLD_SOLID_BREP ( 'Fillet1', #50 ) ;
#100 = DIRECTION ( 'NONE',  ( -1.224646799147353700E-16, -0.0000000000000000000, -1.000000000000000000 ) ) ;
#101 = ORIENTED_EDGE ( 'NONE', *, *, #42, .T. ) ;
#102 = DIRECTION ( 'NONE',  ( 0.0000000000000000000, -1.000000000000000000, 0.0000000000000000000 ) ) ;
#103 = DIRECTION ( 'NONE',  ( 0.0000000000000000000, 0.0000000000000000000, -1.000000000000000000 ) ) ;
#104 = AXIS2_PLACEMENT_3D ( 'NONE', #191, #134, #23 ) ;
#105 = EDGE_CURVE ( 'NONE', #147, #91, #231, .T. ) ;
#106 = DIRECTION ( 'NONE',  ( -0.0000000000000000000, -0.0000000000000000000, -1.000000000000000000 ) ) ;
#107 = COLOUR_RGB ( '',0.7921568627450980005, 0.8196078431372548767, 0.9333333333333333481 ) ;
#108 = CYLINDRICAL_SURFACE ( 'NONE', #133, 0.06250000000000002776 ) ;
#109 =( NAMED_UNIT ( * ) SI_UNIT ( $, .STERADIAN. ) SOLID_ANGLE_UNIT ( ) );
#110 = CARTESIAN_POINT ( 'NONE',  ( 2.449293598294707539E-18, 0.0000000000000000000, 0.02000000000000000042 ) ) ;
#111 = AXIS2_PLACEMENT_3D ( 'NONE', #12, #38, #17 ) ;
#112 = ORIENTED_EDGE ( 'NONE', *, *, #80, .T. ) ;
#113 = ORIENTED_EDGE ( 'NONE', *, *, #37, .T. ) ;
#114 = DIRECTION ( 'NONE',  ( 0.1736481776669312749, 0.0000000000000000000, 0.9848077530122077983 ) ) ;
#115 = CARTESIAN_POINT ( 'NONE',  ( 0.06243750000000006933, 0.0000000000000000000, 0.5000000000000000000 ) ) ;
#116 = AXIS2_PLACEMENT_3D ( 'NONE', #122, #102, #103 ) ;
#117 = VERTEX_POINT ( 'NONE', #128 ) ;
#118 = DIMENSIONAL_EXPONENTS ( 1.000000000000000000, 0.0000000000000000000, 0.0000000000000000000, 0.0000000000000000000, 0.0000000000000000000, 0.0000000000000000000, 0.0000000000000000000 ) ;
#119 = VERTEX_POINT ( 'NONE', #242 ) ;
#120 = CARTESIAN_POINT ( 'NONE',  ( 0.06243750000000001382, 7.646388452176288915E-18, -7.646388452176291997E-18 ) ) ;
#121 = ADVANCED_FACE ( 'NONE', ( #349 ), #223, .T. ) ;
#122 = CARTESIAN_POINT ( 'NONE',  ( 0.04243750000000000994, 0.0000000000000000000, 0.02000000000000000042 ) ) ;
#123 = DIRECTION ( 'NONE',  ( -1.000000000000000000, 0.0000000000000000000, 0.0000000000000000000 ) ) ;
#124 = CIRCLE ( 'NONE', #159, 0.06243750000000001382 ) ;
#125 = UNCERTAINTY_MEASURE_WITH_UNIT (LENGTH_MEASURE( 1.000000000000000082E-05 ), #262, 'distance_accuracy_value', 'NONE');
#126 = DIRECTION ( 'NONE',  ( -1.224646799147353700E-16, -0.0000000000000000000, -1.000000000000000000 ) ) ;
#127 = DIRECTION ( 'NONE',  ( -0.0000000000000000000, -0.0000000000000000000, -1.000000000000000000 ) ) ;
#128 = CARTESIAN_POINT ( 'NONE',  ( -0.06243749999999999994, 0.0000000000000000000, 0.02000000000000000042 ) ) ;
#129 = EDGE_CURVE ( 'NONE', #31, #30, #76, .T. ) ;
#130 = DIRECTION ( 'NONE',  ( -1.000000000000000000, 0.0000000000000000000, 0.0000000000000000000 ) ) ;
#131 = EDGE_CURVE ( 'NONE', #173, #312, #240, .T. ) ;
#132 = CONICAL_SURFACE ( 'NONE', #314, 0.06243750000000001382, 0.1745329251994337805 ) ;
#133 = AXIS2_PLACEMENT_3D ( 'NONE', #247, #326, #87 ) ;
#134 = DIRECTION ( 'NONE',  ( 0.0000000000000000000, 0.0000000000000000000, -1.000000000000000000 ) ) ;
#135 = ORIENTED_EDGE ( 'NONE', *, *, #166, .F. ) ;
#136 = DIRECTION ( 'NONE',  ( 1.000000000000000000, 0.0000000000000000000, 0.0000000000000000000 ) ) ;
#137 = ORIENTED_EDGE ( 'NONE', *, *, #209, .F. ) ;
#138 = ORIENTED_EDGE ( 'NONE', *, *, #148, .F. ) ;
#139 = CIRCLE ( 'NONE', #171, 0.04243750000000000994 ) ;
#140 = VERTEX_POINT ( 'NONE', #156 ) ;
#141 = LINE ( 'NONE', #252, #194 ) ;
#142 = ORIENTED_EDGE ( 'NONE', *, *, #217, .T. ) ;
#143 = LINE ( 'NONE', #254, #282 ) ;
#144 = AXIS2_PLACEMENT_3D ( 'NONE', #181, #40, #97 ) ;
#145 = VECTOR ( 'NONE', #81, 39.37007874015748143 ) ;
#146 = DIMENSIONAL_EXPONENTS ( 1.000000000000000000, 0.0000000000000000000, 0.0000000000000000000, 0.0000000000000000000, 0.0000000000000000000, 0.0000000000000000000, 0.0000000000000000000 ) ;
#147 = VERTEX_POINT ( 'NONE', #346 ) ;
#148 = EDGE_CURVE ( 'NONE', #173, #339, #210, .T. ) ;
#149 = DIRECTION ( 'NONE',  ( 1.224646799147353700E-16, 0.0000000000000000000, 1.000000000000000000 ) ) ;
#150 = SURFACE_STYLE_USAGE ( .BOTH. , #289 ) ;
#151 = DIRECTION ( 'NONE',  ( -1.224646799147353700E-16, -0.0000000000000000000, -1.000000000000000000 ) ) ;
#152 = DIRECTION ( 'NONE',  ( 1.000000000000000000, 0.0000000000000000000, 0.0000000000000000000 ) ) ;
#153 = DIRECTION ( 'NONE',  ( -1.224646799147353700E-16, -0.0000000000000000000, -1.000000000000000000 ) ) ;
#154 = VECTOR ( 'NONE', #70, 39.37007874015748143 ) ;
#155 = AXIS2_PLACEMENT_3D ( 'NONE', #222, #196, #163 ) ;
#156 = CARTESIAN_POINT ( 'NONE',  ( -0.06243749999999995137, 7.650215473423624771E-18, 0.5000000000000000000 ) ) ;
#157 =( NAMED_UNIT ( * ) PLANE_ANGLE_UNIT ( ) SI_UNIT ( $, .RADIAN. ) );
#158 = CARTESIAN_POINT ( 'NONE',  ( 2.449293598294707539E-18, 0.0000000000000000000, 0.02000000000000000042 ) ) ;
#159 = AXIS2_PLACEMENT_3D ( 'NONE', #15, #100, #320 ) ;
#160 = EDGE_CURVE ( 'NONE', #312, #173, #20, .T. ) ;
#161 = LINE ( 'NONE', #53, #47 ) ;
#162 = PRODUCT ( 'Micro_GEC-125-4-020', 'Micro_GEC-125-4-020', '', ( #13 ) ) ;
#163 = DIRECTION ( 'NONE',  ( 1.000000000000000000, 0.0000000000000000000, -0.0000000000000000000 ) ) ;
#164 = ORIENTED_EDGE ( 'NONE', *, *, #323, .F. ) ;
#165 =( NAMED_UNIT ( * ) SI_UNIT ( $, .STERADIAN. ) SOLID_ANGLE_UNIT ( ) );
#166 = EDGE_CURVE ( 'NONE', #140, #10, #124, .T. ) ;
#167 = EDGE_LOOP ( 'NONE', ( #93, #230, #281, #313 ) ) ;
#168 = ORIENTED_EDGE ( 'NONE', *, *, #217, .F. ) ;
#169 = CARTESIAN_POINT ( 'NONE',  ( 0.04750000000000064587, 5.817072295950006528E-18, 1.500000000000000222 ) ) ;
#170 = CIRCLE ( 'NONE', #321, 0.06250000000000002776 ) ;
#171 = AXIS2_PLACEMENT_3D ( 'NONE', #266, #73, #261 ) ;
#172 = ORIENTED_EDGE ( 'NONE', *, *, #64, .T. ) ;
#173 = VERTEX_POINT ( 'NONE', #316 ) ;
#174 = ORIENTED_EDGE ( 'NONE', *, *, #166, .T. ) ;
#175 = AXIS2_PLACEMENT_3D ( 'NONE', #235, #318, #180 ) ;
#176 = CARTESIAN_POINT ( 'NONE',  ( 0.0000000000000000000, 0.0000000000000000000, 0.0000000000000000000 ) ) ;
#177 = SURFACE_STYLE_FILL_AREA ( #344 ) ;
#178 = CARTESIAN_POINT ( 'NONE',  ( 6.127574818941429733E-17, 0.0000000000000000000, 0.5003544551137261154 ) ) ;
#179 = SURFACE_STYLE_USAGE ( .BOTH. , #214 ) ;
#180 = DIRECTION ( 'NONE',  ( 1.000000000000000000, 0.0000000000000000000, -0.0000000000000000000 ) ) ;
#181 = CARTESIAN_POINT ( 'NONE',  ( 6.123233995736768501E-17, 0.0000000000000000000, 0.5000000000000000000 ) ) ;
#182 = LENGTH_MEASURE_WITH_UNIT ( LENGTH_MEASURE( 0.02539999999999999897 ), #72 );
#183 = DIRECTION ( 'NONE',  ( 0.0000000000000000000, 0.0000000000000000000, 1.000000000000000000 ) ) ;
#184 = FILL_AREA_STYLE_COLOUR ( '', #83 ) ;
#185 = DIRECTION ( 'NONE',  ( -1.224646799147353700E-16, -0.0000000000000000000, -1.000000000000000000 ) ) ;
#186 = ORIENTED_EDGE ( 'NONE', *, *, #46, .T. ) ;
#187 =( CONVERSION_BASED_UNIT ( 'INCH', #347 ) LENGTH_UNIT ( ) NAMED_UNIT ( #118 ) );
#188 = ADVANCED_FACE ( 'NONE', ( #43 ), #239, .T. ) ;
#189 = DIRECTION ( 'NONE',  ( 1.224646799147353207E-16, 1.000000000000000000, -0.0000000000000000000 ) ) ;
#190 = DIRECTION ( 'NONE',  ( 1.000000000000000000, 0.0000000000000000000, 0.0000000000000000000 ) ) ;
#191 = CARTESIAN_POINT ( 'NONE',  ( 0.0000000000000000000, 0.0000000000000000000, 1.500000000000000222 ) ) ;
#192 = CARTESIAN_POINT ( 'NONE',  ( 0.0000000000000000000, 0.0000000000000000000, 1.500000000000000222 ) ) ;
#193 = EDGE_CURVE ( 'NONE', #140, #117, #236, .T. ) ;
#194 = VECTOR ( 'NONE', #114, 39.37007874015748143 ) ;
#195 = AXIS2_PLACEMENT_3D ( 'NONE', #22, #189, #272 ) ;
#196 = DIRECTION ( 'NONE',  ( 0.0000000000000000000, 0.0000000000000000000, 1.000000000000000000 ) ) ;
#197 = CARTESIAN_POINT ( 'NONE',  ( 0.04243750000000000994, 0.0000000000000000000, 0.0000000000000000000 ) ) ;
#198 = EDGE_LOOP ( 'NONE', ( #137, #283, #202, #62 ) ) ;
#199 = ADVANCED_BREP_SHAPE_REPRESENTATION ( 'Micro_GEC-125-4-020', ( #99, #220 ), #299 ) ;
#200 = DIRECTION ( 'NONE',  ( -0.1736481776669310528, 2.126576849575781776E-17, 0.9848077530122080203 ) ) ;
#201 = CYLINDRICAL_SURFACE ( 'NONE', #304, 0.06243750000000001382 ) ;
#202 = ORIENTED_EDGE ( 'NONE', *, *, #203, .F. ) ;
#203 = EDGE_CURVE ( 'NONE', #30, #117, #298, .T. ) ;
#204 = CONICAL_SURFACE ( 'NONE', #104, 0.04750000000000064587, 0.7853981633974466137 ) ;
#205 = PLANE ( 'NONE',  #175 ) ;
#206 = CARTESIAN_POINT ( 'NONE',  ( -0.06243750000000001382, 0.0000000000000000000, 7.646388452176291997E-18 ) ) ;
#207 = DIRECTION ( 'NONE',  ( 0.0000000000000000000, 0.0000000000000000000, 1.000000000000000000 ) ) ;
#208 = CARTESIAN_POINT ( 'NONE',  ( 2.449293598294707539E-18, 0.0000000000000000000, 0.02000000000000000042 ) ) ;
#209 = EDGE_CURVE ( 'NONE', #311, #31, #139, .T. ) ;
#210 = LINE ( 'NONE', #295, #279 ) ;
#211 = DIRECTION ( 'NONE',  ( 1.000000000000000000, 0.0000000000000000000, 0.0000000000000000000 ) ) ;
#212 = CIRCLE ( 'NONE', #292, 0.06243750000000001382 ) ;
#213 =( NAMED_UNIT ( * ) SI_UNIT ( $, .STERADIAN. ) SOLID_ANGLE_UNIT ( ) );
#214 = SURFACE_SIDE_STYLE ('',( #288 ) ) ;
#215 = EDGE_CURVE ( 'NONE', #117, #30, #293, .T. ) ;
#216 = CARTESIAN_POINT ( 'NONE',  ( -0.04243750000000000994, 6.421741653028935338E-18, 0.0000000000000000000 ) ) ;
#217 = EDGE_CURVE ( 'NONE', #31, #311, #309, .T. ) ;
#218 = PLANE ( 'NONE',  #155 ) ;
#219 = AXIS2_PLACEMENT_3D ( 'NONE', #178, #185, #18 ) ;
#220 = AXIS2_PLACEMENT_3D ( 'NONE', #19, #324, #211 ) ;
#221 = CARTESIAN_POINT ( 'NONE',  ( 0.04750000000000064587, 6.735557395310483192E-18, 1.500000000000000222 ) ) ;
#222 = CARTESIAN_POINT ( 'NONE',  ( 0.0000000000000000000, 0.0000000000000000000, 0.0000000000000000000 ) ) ;
#223 = CONICAL_SURFACE ( 'NONE', #144, 0.06243750000000001382, 0.1745329251994337805 ) ;
#224 = TOROIDAL_SURFACE ( 'NONE', #57, 0.04243750000000000994, 0.02000000000000000042 ) ;
#225 = ORIENTED_EDGE ( 'NONE', *, *, #215, .T. ) ;
#226 = DIRECTION ( 'NONE',  ( -1.224646799147353700E-16, -0.0000000000000000000, -1.000000000000000000 ) ) ;
#227 = EDGE_CURVE ( 'NONE', #311, #117, #26, .T. ) ;
#228 = ORIENTED_EDGE ( 'NONE', *, *, #215, .F. ) ;
#229 = CARTESIAN_POINT ( 'NONE',  ( 6.123233995736768501E-17, 0.0000000000000000000, 0.5000000000000000000 ) ) ;
#230 = ORIENTED_EDGE ( 'NONE', *, *, #131, .F. ) ;
#231 = CIRCLE ( 'NONE', #219, 0.06250000000000002776 ) ;
#232 = MECHANICAL_DESIGN_GEOMETRIC_PRESENTATION_REPRESENTATION (  '', ( #77 ), #280 ) ;
#233 = EDGE_LOOP ( 'NONE', ( #335, #276 ) ) ;
#234 = EDGE_LOOP ( 'NONE', ( #56, #89, #340, #284 ) ) ;
#235 = CARTESIAN_POINT ( 'NONE',  ( 0.0000000000000000000, 0.0000000000000000000, 1.500000000000000222 ) ) ;
#236 = LINE ( 'NONE', #206, #96 ) ;
#237 = AXIS2_PLACEMENT_3D ( 'NONE', #192, #27, #268 ) ;
#238 = FACE_OUTER_BOUND ( 'NONE', #198, .T. ) ;
#239 = CYLINDRICAL_SURFACE ( 'NONE', #5, 0.06250000000000002776 ) ;
#240 = CIRCLE ( 'NONE', #329, 0.04750000000000064587 ) ;
#241 = AXIS2_PLACEMENT_3D ( 'NONE', #274, #2, #245 ) ;
#242 = CARTESIAN_POINT ( 'NONE',  ( 0.06250000000000002776, 7.654042494670959086E-18, 1.485000000000000764 ) ) ;
#243 = PRODUCT_DEFINITION_CONTEXT ( 'detailed design', #24, 'design' ) ;
#244 = FACE_OUTER_BOUND ( 'NONE', #249, .T. ) ;
#245 = DIRECTION ( 'NONE',  ( 1.000000000000000000, 0.0000000000000000000, 0.0000000000000000000 ) ) ;
#246 =( LENGTH_UNIT ( ) NAMED_UNIT ( * ) SI_UNIT ( $, .METRE. ) );
#247 = CARTESIAN_POINT ( 'NONE',  ( 0.0000000000000000000, 0.0000000000000000000, 1.500000000000000222 ) ) ;
#248 = ADVANCED_FACE ( 'NONE', ( #301 ), #256, .T. ) ;
#249 = EDGE_LOOP ( 'NONE', ( #307, #168, #6, #228 ) ) ;
#250 = MECHANICAL_DESIGN_GEOMETRIC_PRESENTATION_REPRESENTATION (  '', ( #338 ), #16 ) ;
#251 = EDGE_LOOP ( 'NONE', ( #135, #273, #112, #86 ) ) ;
#252 = CARTESIAN_POINT ( 'NONE',  ( 0.06243750000000006933, 0.0000000000000000000, 0.5000000000000000000 ) ) ;
#253 = DIRECTION ( 'NONE',  ( -1.000000000000000000, 0.0000000000000000000, 1.224646799147353700E-16 ) ) ;
#254 = CARTESIAN_POINT ( 'NONE',  ( -0.06243749999999995137, 7.646388452176288915E-18, 0.5000000000000000000 ) ) ;
#255 = AXIS2_PLACEMENT_3D ( 'NONE', #176, #126, #98 ) ;
#256 = CONICAL_SURFACE ( 'NONE', #237, 0.04750000000000064587, 0.7853981633974466137 ) ;
#257 = CARTESIAN_POINT ( 'NONE',  ( 0.0000000000000000000, 0.0000000000000000000, 0.0000000000000000000 ) ) ;
#258 = FACE_OUTER_BOUND ( 'NONE', #63, .T. ) ;
#259 = PRESENTATION_STYLE_ASSIGNMENT (( #150 ) ) ;
#260 = FACE_OUTER_BOUND ( 'NONE', #233, .T. ) ;
#261 = DIRECTION ( 'NONE',  ( 1.000000000000000000, 0.0000000000000000000, 0.0000000000000000000 ) ) ;
#262 =( CONVERSION_BASED_UNIT ( 'INCH', #182 ) LENGTH_UNIT ( ) NAMED_UNIT ( #146 ) );
#263 = AXIS2_PLACEMENT_3D ( 'NONE', #158, #68, #152 ) ;
#264 = DIRECTION ( 'NONE',  ( 0.0000000000000000000, 0.0000000000000000000, 1.000000000000000000 ) ) ;
#265 = APPLICATION_PROTOCOL_DEFINITION ( 'draft international standard', 'automotive_design', 1998, #24 ) ;
#266 = CARTESIAN_POINT ( 'NONE',  ( 2.449293598294707539E-18, 0.0000000000000000000, 0.0000000000000000000 ) ) ;
#267 = AXIS2_PLACEMENT_3D ( 'NONE', #208, #351, #136 ) ;
#268 = DIRECTION ( 'NONE',  ( -1.000000000000000000, 0.0000000000000000000, 0.0000000000000000000 ) ) ;
#269 = CARTESIAN_POINT ( 'NONE',  ( -0.06250000000000002776, 0.0000000000000000000, 1.485000000000000764 ) ) ;
#270 = ORIENTED_EDGE ( 'NONE', *, *, #61, .T. ) ;
#271 = LINE ( 'NONE', #325, #145 ) ;
#272 = DIRECTION ( 'NONE',  ( -1.000000000000000000, 1.224646799147353454E-16, 0.0000000000000000000 ) ) ;
#273 = ORIENTED_EDGE ( 'NONE', *, *, #3, .T. ) ;
#274 = CARTESIAN_POINT ( 'NONE',  ( 0.0000000000000000000, 0.0000000000000000000, 1.485000000000000764 ) ) ;
#275 = ORIENTED_EDGE ( 'NONE', *, *, #46, .F. ) ;
#276 = ORIENTED_EDGE ( 'NONE', *, *, #160, .T. ) ;
#277 = ADVANCED_FACE ( 'NONE', ( #244 ), #224, .T. ) ;
#278 = DIRECTION ( 'NONE',  ( 0.7071067811865462405, 8.659560562354916834E-17, -0.7071067811865486830 ) ) ;
#279 = VECTOR ( 'NONE', #71, 39.37007874015748854 ) ;
#280 =( GEOMETRIC_REPRESENTATION_CONTEXT ( 3 ) GLOBAL_UNCERTAINTY_ASSIGNED_CONTEXT ( ( #125 ) ) GLOBAL_UNIT_ASSIGNED_CONTEXT ( ( #262, #51, #109 ) ) REPRESENTATION_CONTEXT ( 'NONE', 'WORKASPACE' ) );
#281 = ORIENTED_EDGE ( 'NONE', *, *, #148, .T. ) ;
#282 = VECTOR ( 'NONE', #200, 39.37007874015748854 ) ;
#283 = ORIENTED_EDGE ( 'NONE', *, *, #227, .T. ) ;
#284 = ORIENTED_EDGE ( 'NONE', *, *, #105, .F. ) ;
#285 = CIRCLE ( 'NONE', #111, 0.06250000000000002776 ) ;
#286 = DIRECTION ( 'NONE',  ( 1.000000000000000000, 0.0000000000000000000, 0.0000000000000000000 ) ) ;
#287 = FILL_AREA_STYLE_COLOUR ( '', #107 ) ;
#288 = SURFACE_STYLE_FILL_AREA ( #39 ) ;
#289 = SURFACE_SIDE_STYLE ('',( #177 ) ) ;
#290 = CARTESIAN_POINT ( 'NONE',  ( 6.127574818941429733E-17, 0.0000000000000000000, 0.5003544551137261154 ) ) ;
#291 = PRESENTATION_STYLE_ASSIGNMENT (( #179 ) ) ;
#292 = AXIS2_PLACEMENT_3D ( 'NONE', #229, #153, #123 ) ;
#293 = CIRCLE ( 'NONE', #267, 0.06243750000000001382 ) ;
#294 = CARTESIAN_POINT ( 'NONE',  ( 0.0000000000000000000, 0.0000000000000000000, 1.500000000000000222 ) ) ;
#295 = CARTESIAN_POINT ( 'NONE',  ( -0.04750000000000064587, 0.0000000000000000000, 1.500000000000000222 ) ) ;
#296 = EDGE_CURVE ( 'NONE', #119, #339, #85, .T. ) ;
#297 = PRODUCT_RELATED_PRODUCT_CATEGORY ( 'part', '', ( #162 ) ) ;
#298 = CIRCLE ( 'NONE', #263, 0.06243750000000001382 ) ;
#299 =( GEOMETRIC_REPRESENTATION_CONTEXT ( 3 ) GLOBAL_UNCERTAINTY_ASSIGNED_CONTEXT ( ( #302 ) ) GLOBAL_UNIT_ASSIGNED_CONTEXT ( ( #58, #305, #165 ) ) REPRESENTATION_CONTEXT ( 'NONE', 'WORKASPACE' ) );
#300 = EDGE_LOOP ( 'NONE', ( #9, #186, #337, #225 ) ) ;
#301 = FACE_OUTER_BOUND ( 'NONE', #306, .T. ) ;
#302 = UNCERTAINTY_MEASURE_WITH_UNIT (LENGTH_MEASURE( 1.000000000000000082E-05 ), #58, 'distance_accuracy_value', 'NONE');
#303 = DIRECTION ( 'NONE',  ( 1.000000000000000000, 0.0000000000000000000, 0.0000000000000000000 ) ) ;
#304 = AXIS2_PLACEMENT_3D ( 'NONE', #257, #226, #253 ) ;
#305 =( NAMED_UNIT ( * ) PLANE_ANGLE_UNIT ( ) SI_UNIT ( $, .RADIAN. ) );
#306 = EDGE_LOOP ( 'NONE', ( #90, #113, #310, #138 ) ) ;
#307 = ORIENTED_EDGE ( 'NONE', *, *, #227, .F. ) ;
#308 = PRESENTATION_LAYER_ASSIGNMENT (  '', '', ( #338 ) ) ;
#309 = CIRCLE ( 'NONE', #7, 0.04243750000000000994 ) ;
#310 = ORIENTED_EDGE ( 'NONE', *, *, #61, .F. ) ;
#311 = VERTEX_POINT ( 'NONE', #216 ) ;
#312 = VERTEX_POINT ( 'NONE', #221 ) ;
#313 = ORIENTED_EDGE ( 'NONE', *, *, #296, .F. ) ;
#314 = AXIS2_PLACEMENT_3D ( 'NONE', #315, #149, #286 ) ;
#315 = CARTESIAN_POINT ( 'NONE',  ( 6.123233995736768501E-17, 0.0000000000000000000, 0.5000000000000000000 ) ) ;
#316 = CARTESIAN_POINT ( 'NONE',  ( -0.04750000000000064587, 0.0000000000000000000, 1.500000000000000222 ) ) ;
#317 = DIMENSIONAL_EXPONENTS ( 1.000000000000000000, 0.0000000000000000000, 0.0000000000000000000, 0.0000000000000000000, 0.0000000000000000000, 0.0000000000000000000, 0.0000000000000000000 ) ;
#318 = DIRECTION ( 'NONE',  ( 0.0000000000000000000, 0.0000000000000000000, 1.000000000000000000 ) ) ;
#319 = DIRECTION ( 'NONE',  ( 1.000000000000000000, 0.0000000000000000000, 0.0000000000000000000 ) ) ;
#320 = DIRECTION ( 'NONE',  ( -1.000000000000000000, 0.0000000000000000000, 0.0000000000000000000 ) ) ;
#321 = AXIS2_PLACEMENT_3D ( 'NONE', #290, #151, #95 ) ;
#322 = DIRECTION ( 'NONE',  ( 1.000000000000000000, 0.0000000000000000000, 0.0000000000000000000 ) ) ;
#323 = EDGE_CURVE ( 'NONE', #339, #91, #161, .T. ) ;
#324 = DIRECTION ( 'NONE',  ( 0.0000000000000000000, 0.0000000000000000000, 1.000000000000000000 ) ) ;
#325 = CARTESIAN_POINT ( 'NONE',  ( 0.06250000000000002776, 7.654042494670959086E-18, 1.500000000000000222 ) ) ;
#326 = DIRECTION ( 'NONE',  ( -0.0000000000000000000, -0.0000000000000000000, -1.000000000000000000 ) ) ;
#327 = FACE_OUTER_BOUND ( 'NONE', #52, .T. ) ;
#328 = ORIENTED_EDGE ( 'NONE', *, *, #105, .T. ) ;
#329 = AXIS2_PLACEMENT_3D ( 'NONE', #79, #183, #319 ) ;
#330 = FACE_OUTER_BOUND ( 'NONE', #167, .T. ) ;
#331 = ADVANCED_FACE ( 'NONE', ( #29 ), #218, .F. ) ;
#332 = CARTESIAN_POINT ( 'NONE',  ( 0.06243750000000001382, 7.646388452176288915E-18, 0.02000000000000000042 ) ) ;
#333 = PRODUCT_DEFINITION ( 'UNKNOWN', '', #21, #243 ) ;
#334 = ORIENTED_EDGE ( 'NONE', *, *, #3, .F. ) ;
#335 = ORIENTED_EDGE ( 'NONE', *, *, #131, .T. ) ;
#336 = EDGE_CURVE ( 'NONE', #119, #147, #271, .T. ) ;
#337 = ORIENTED_EDGE ( 'NONE', *, *, #193, .T. ) ;
#338 = STYLED_ITEM ( 'NONE', ( #291 ), #99 ) ;
#339 = VERTEX_POINT ( 'NONE', #269 ) ;
#340 = ORIENTED_EDGE ( 'NONE', *, *, #323, .T. ) ;
#341 = ADVANCED_FACE ( 'NONE', ( #330 ), #204, .T. ) ;
#342 = CARTESIAN_POINT ( 'NONE',  ( 2.449293598294707539E-18, 0.0000000000000000000, 0.02000000000000000042 ) ) ;
#343 =( LENGTH_UNIT ( ) NAMED_UNIT ( * ) SI_UNIT ( $, .METRE. ) );
#344 = FILL_AREA_STYLE ('',( #184 ) ) ;
#345 = DIRECTION ( 'NONE',  ( 1.000000000000000000, 0.0000000000000000000, 0.0000000000000000000 ) ) ;
#346 = CARTESIAN_POINT ( 'NONE',  ( 0.06250000000000008327, 7.654042494670966789E-18, 0.5003544551137261154 ) ) ;
#347 = LENGTH_MEASURE_WITH_UNIT ( LENGTH_MEASURE( 0.02539999999999999897 ), #343 );
#348 = ADVANCED_FACE ( 'NONE', ( #327 ), #108, .T. ) ;
#349 = FACE_OUTER_BOUND ( 'NONE', #251, .T. ) ;
#350 = PRESENTATION_LAYER_ASSIGNMENT (  '', '', ( #77 ) ) ;
#351 = DIRECTION ( 'NONE',  ( 0.0000000000000000000, 0.0000000000000000000, 1.000000000000000000 ) ) ;
ENDSEC;
END-ISO-10303-21;
