ISO-10303-21;
HEADER;
FILE_DESCRIPTION (( 'STEP AP214' ),
    '1' );
FILE_NAME ('83317.STEP',
    '2023-06-23T09:32:39',
    ( '' ),
    ( '' ),
    'SwSTEP 2.0',
    'SolidWorks 2023',
    '' );
FILE_SCHEMA (( 'AUTOMOTIVE_DESIGN' ));
ENDSEC;

DATA;
#1 = AXIS2_PLACEMENT_3D ( 'NONE', #194, #35, #74 ) ;
#2 = CARTESIAN_POINT ( 'NONE',  ( 0.000000000000000000, 3.250000000000000000, -0.3750000000000000555 ) ) ;
#3 = DIRECTION ( 'NONE',  ( 1.000000000000000000, 1.335978326342567180E-16, 0.000000000000000000 ) ) ;
#4 = DIRECTION ( 'NONE',  ( 0.000000000000000000, 1.000000000000000000, 0.000000000000000000 ) ) ;
#5 = PRESENTATION_LAYER_ASSIGNMENT (  '', '', ( #98 ) ) ;
#6 = PLANE ( 'NONE',  #223 ) ;
#7 = VERTEX_POINT ( 'NONE', #13 ) ;
#8 =( LENGTH_UNIT ( ) NAMED_UNIT ( * ) SI_UNIT ( $, .METRE. ) );
#9 = COLOUR_RGB ( '',0.7921568627450980005, 0.8196078431372548767, 0.9333333333333333481 ) ;
#10 = EDGE_LOOP ( 'NONE', ( #80, #42 ) ) ;
#11 = CYLINDRICAL_SURFACE ( 'NONE', #119, 0.3750000000000000555 ) ;
#12 = UNCERTAINTY_MEASURE_WITH_UNIT (LENGTH_MEASURE( 1.000000000000000082E-05 ), #67, 'distance_accuracy_value', 'NONE');
#13 = CARTESIAN_POINT ( 'NONE',  ( -0.3750000000000007216, 6.000000000000000888, 0.000000000000000000 ) ) ;
#14 = CARTESIAN_POINT ( 'NONE',  ( 4.592425496802575451E-17, 0.000000000000000000, 0.3750000000000000555 ) ) ;
#15 = ADVANCED_FACE ( 'NONE', ( #202 ), #180, .T. ) ;
#16 = DIRECTION ( 'NONE',  ( 0.000000000000000000, 0.000000000000000000, -1.000000000000000000 ) ) ;
#17 = CARTESIAN_POINT ( 'NONE',  ( 0.000000000000000000, 0.000000000000000000, 0.000000000000000000 ) ) ;
#18 = LINE ( 'NONE', #141, #295 ) ;
#19 = COLOUR_RGB ( '',1.000000000000000000, 0.000000000000000000, 0.000000000000000000 ) ;
#20 = LENGTH_MEASURE_WITH_UNIT ( LENGTH_MEASURE( 0.02539999999999999897 ), #30 );
#21 = SURFACE_STYLE_FILL_AREA ( #49 ) ;
#22 = DIRECTION ( 'NONE',  ( -0.000000000000000000, -1.000000000000000000, -0.000000000000000000 ) ) ;
#23 = ADVANCED_BREP_SHAPE_REPRESENTATION ( '83317', ( #249, #57, #283 ), #269 ) ;
#24 = EDGE_CURVE ( 'NONE', #37, #7, #18, .T. ) ;
#25 = UNCERTAINTY_MEASURE_WITH_UNIT (LENGTH_MEASURE( 1.000000000000000082E-05 ), #27, 'distance_accuracy_value', 'NONE');
#26 = PRESENTATION_LAYER_ASSIGNMENT (  '', '', ( #292 ) ) ;
#27 =( CONVERSION_BASED_UNIT ( 'INCH', #255 ) LENGTH_UNIT ( ) NAMED_UNIT ( #111 ) );
#28 = PRESENTATION_LAYER_ASSIGNMENT (  '', '', ( #154 ) ) ;
#29 = FACE_OUTER_BOUND ( 'NONE', #84, .T. ) ;
#30 =( LENGTH_UNIT ( ) NAMED_UNIT ( * ) SI_UNIT ( $, .METRE. ) );
#31 = LENGTH_MEASURE_WITH_UNIT ( LENGTH_MEASURE( 0.02539999999999999897 ), #231 );
#32 = DIMENSIONAL_EXPONENTS ( 1.000000000000000000, 0.000000000000000000, 0.000000000000000000, 0.000000000000000000, 0.000000000000000000, 0.000000000000000000, 0.000000000000000000 ) ;
#33 = AXIS2_PLACEMENT_3D ( 'NONE', #271, #63, #85 ) ;
#34 = DIRECTION ( 'NONE',  ( -1.335978326342567180E-16, 1.000000000000000000, -0.000000000000000000 ) ) ;
#35 = DIRECTION ( 'NONE',  ( -1.335978326342567180E-16, 1.000000000000000000, -0.000000000000000000 ) ) ;
#36 = DIRECTION ( 'NONE',  ( -1.000000000000000000, 0.000000000000000000, 0.000000000000000000 ) ) ;
#37 = VERTEX_POINT ( 'NONE', #278 ) ;
#38 =( NAMED_UNIT ( * ) SI_UNIT ( $, .STERADIAN. ) SOLID_ANGLE_UNIT ( ) );
#39 = ORIENTED_EDGE ( 'NONE', *, *, #177, .F. ) ;
#40 = ADVANCED_FACE ( 'NONE', ( #29 ), #267, .T. ) ;
#41 =( NAMED_UNIT ( * ) PLANE_ANGLE_UNIT ( ) SI_UNIT ( $, .RADIAN. ) );
#42 = ORIENTED_EDGE ( 'NONE', *, *, #55, .F. ) ;
#43 = PRODUCT_DEFINITION_FORMATION_WITH_SPECIFIED_SOURCE ( 'ANY', '', #183, .NOT_KNOWN. ) ;
#44 = CARTESIAN_POINT ( 'NONE',  ( 0.000000000000000000, 3.250000000000000000, 0.000000000000000000 ) ) ;
#45 = ADVANCED_FACE ( 'NONE', ( #47 ), #277, .T. ) ;
#46 = ORIENTED_EDGE ( 'NONE', *, *, #68, .T. ) ;
#47 = FACE_OUTER_BOUND ( 'NONE', #242, .T. ) ;
#48 = AXIS2_PLACEMENT_3D ( 'NONE', #171, #291, #263 ) ;
#49 = FILL_AREA_STYLE ('',( #88 ) ) ;
#50 = CARTESIAN_POINT ( 'NONE',  ( 0.000000000000000000, 0.000000000000000000, -0.3750000000000000555 ) ) ;
#51 = CARTESIAN_POINT ( 'NONE',  ( 0.000000000000000000, 0.000000000000000000, 0.000000000000000000 ) ) ;
#52 = STYLED_ITEM ( 'NONE', ( #264 ), #71 ) ;
#53 = DIMENSIONAL_EXPONENTS ( 1.000000000000000000, 0.000000000000000000, 0.000000000000000000, 0.000000000000000000, 0.000000000000000000, 0.000000000000000000, 0.000000000000000000 ) ;
#54 = SHAPE_DEFINITION_REPRESENTATION ( #134, #23 ) ;
#55 = EDGE_CURVE ( 'NONE', #58, #37, #232, .T. ) ;
#56 = SURFACE_STYLE_USAGE ( .BOTH. , #193 ) ;
#57 = MANIFOLD_SOLID_BREP ( 'Revolve - Tool Body (Straight Shanked)', #165 ) ;
#58 = VERTEX_POINT ( 'NONE', #204 ) ;
#59 = DIRECTION ( 'NONE',  ( -1.000000000000000000, -1.335978326342567180E-16, 0.000000000000000000 ) ) ;
#60 = AXIS2_PLACEMENT_3D ( 'NONE', #115, #4, #233 ) ;
#61 = CIRCLE ( 'NONE', #132, 0.3750000000000000555 ) ;
#62 = PRODUCT_DEFINITION_CONTEXT ( 'detailed design', #236, 'design' ) ;
#63 = DIRECTION ( 'NONE',  ( -0.000000000000000000, -1.000000000000000000, -0.000000000000000000 ) ) ;
#64 = FACE_OUTER_BOUND ( 'NONE', #10, .T. ) ;
#65 =( GEOMETRIC_REPRESENTATION_CONTEXT ( 3 ) GLOBAL_UNCERTAINTY_ASSIGNED_CONTEXT ( ( #89 ) ) GLOBAL_UNIT_ASSIGNED_CONTEXT ( ( #146, #235, #118 ) ) REPRESENTATION_CONTEXT ( 'NONE', 'WORKASPACE' ) );
#66 = ORIENTED_EDGE ( 'NONE', *, *, #135, .T. ) ;
#67 =( CONVERSION_BASED_UNIT ( 'INCH', #275 ) LENGTH_UNIT ( ) NAMED_UNIT ( #137 ) );
#68 = EDGE_CURVE ( 'NONE', #298, #200, #307, .T. ) ;
#69 = COLOUR_RGB ( '',1.000000000000000000, 0.000000000000000000, 0.000000000000000000 ) ;
#70 = CARTESIAN_POINT ( 'NONE',  ( 0.000000000000000000, 0.000000000000000000, 0.000000000000000000 ) ) ;
#71 = ADVANCED_FACE ( 'NONE', ( #162 ), #133, .T. ) ;
#72 = APPLICATION_PROTOCOL_DEFINITION ( 'draft international standard', 'automotive_design', 1998, #87 ) ;
#73 = DIRECTION ( 'NONE',  ( -1.000000000000000000, 0.000000000000000000, 0.000000000000000000 ) ) ;
#74 = DIRECTION ( 'NONE',  ( -1.000000000000000000, 0.000000000000000000, 0.000000000000000000 ) ) ;
#75 =( GEOMETRIC_REPRESENTATION_CONTEXT ( 3 ) GLOBAL_UNCERTAINTY_ASSIGNED_CONTEXT ( ( #284 ) ) GLOBAL_UNIT_ASSIGNED_CONTEXT ( ( #251, #81, #130 ) ) REPRESENTATION_CONTEXT ( 'NONE', 'WORKASPACE' ) );
#76 = FILL_AREA_STYLE ('',( #138 ) ) ;
#77 =( CONVERSION_BASED_UNIT ( 'INCH', #197 ) LENGTH_UNIT ( ) NAMED_UNIT ( #53 ) );
#78 = SURFACE_STYLE_USAGE ( .BOTH. , #294 ) ;
#79 = SURFACE_STYLE_USAGE ( .BOTH. , #216 ) ;
#80 = ORIENTED_EDGE ( 'NONE', *, *, #304, .F. ) ;
#81 =( NAMED_UNIT ( * ) PLANE_ANGLE_UNIT ( ) SI_UNIT ( $, .RADIAN. ) );
#82 = ORIENTED_EDGE ( 'NONE', *, *, #304, .T. ) ;
#83 = DIRECTION ( 'NONE',  ( -0.000000000000000000, -1.000000000000000000, -0.000000000000000000 ) ) ;
#84 = EDGE_LOOP ( 'NONE', ( #82, #100, #129, #120 ) ) ;
#85 = DIRECTION ( 'NONE',  ( 0.000000000000000000, 0.000000000000000000, -1.000000000000000000 ) ) ;
#86 = CIRCLE ( 'NONE', #33, 0.3750000000000000555 ) ;
#87 = APPLICATION_CONTEXT ( 'automotive_design' ) ;
#88 = FILL_AREA_STYLE_COLOUR ( '', #148 ) ;
#89 = UNCERTAINTY_MEASURE_WITH_UNIT (LENGTH_MEASURE( 1.000000000000000082E-05 ), #146, 'distance_accuracy_value', 'NONE');
#90 = CIRCLE ( 'NONE', #296, 0.3750000000000003886 ) ;
#91 = DIRECTION ( 'NONE',  ( -1.335978326342567180E-16, 1.000000000000000000, -0.000000000000000000 ) ) ;
#92 = DIRECTION ( 'NONE',  ( -0.000000000000000000, -1.000000000000000000, -0.000000000000000000 ) ) ;
#93 =( NAMED_UNIT ( * ) PLANE_ANGLE_UNIT ( ) SI_UNIT ( $, .RADIAN. ) );
#94 = PRESENTATION_STYLE_ASSIGNMENT (( #128 ) ) ;
#95 = MECHANICAL_DESIGN_GEOMETRIC_PRESENTATION_REPRESENTATION (  '', ( #98 ), #160 ) ;
#96 = DIRECTION ( 'NONE',  ( -1.335978326342567180E-16, 1.000000000000000000, -0.000000000000000000 ) ) ;
#97 = DIRECTION ( 'NONE',  ( 1.335978326342567180E-16, -1.000000000000000000, 0.000000000000000000 ) ) ;
#98 = STYLED_ITEM ( 'NONE', ( #94 ), #45 ) ;
#99 = EDGE_LOOP ( 'NONE', ( #217, #46, #219, #102 ) ) ;
#100 = ORIENTED_EDGE ( 'NONE', *, *, #224, .T. ) ;
#101 =( NAMED_UNIT ( * ) SI_UNIT ( $, .STERADIAN. ) SOLID_ANGLE_UNIT ( ) );
#102 = ORIENTED_EDGE ( 'NONE', *, *, #261, .F. ) ;
#103 = CARTESIAN_POINT ( 'NONE',  ( 0.000000000000000000, 0.000000000000000000, 0.000000000000000000 ) ) ;
#104 = FILL_AREA_STYLE ('',( #182 ) ) ;
#105 = VERTEX_POINT ( 'NONE', #191 ) ;
#106 = DIRECTION ( 'NONE',  ( -0.000000000000000000, -1.000000000000000000, -0.000000000000000000 ) ) ;
#107 = VERTEX_POINT ( 'NONE', #210 ) ;
#108 = SURFACE_STYLE_FILL_AREA ( #152 ) ;
#109 = DIRECTION ( 'NONE',  ( -1.335978326342567180E-16, 1.000000000000000000, -0.000000000000000000 ) ) ;
#110 = COLOUR_RGB ( '',1.000000000000000000, 0.000000000000000000, 0.000000000000000000 ) ;
#111 = DIMENSIONAL_EXPONENTS ( 1.000000000000000000, 0.000000000000000000, 0.000000000000000000, 0.000000000000000000, 0.000000000000000000, 0.000000000000000000, 0.000000000000000000 ) ;
#112 =( CONVERSION_BASED_UNIT ( 'INCH', #20 ) LENGTH_UNIT ( ) NAMED_UNIT ( #228 ) );
#113 = SURFACE_STYLE_USAGE ( .BOTH. , #285 ) ;
#114 = CYLINDRICAL_SURFACE ( 'NONE', #117, 0.3750000000000002220 ) ;
#115 = CARTESIAN_POINT ( 'NONE',  ( 0.000000000000000000, 3.250000000000000000, 0.000000000000000000 ) ) ;
#116 = AXIS2_PLACEMENT_3D ( 'NONE', #51, #22, #16 ) ;
#117 = AXIS2_PLACEMENT_3D ( 'NONE', #287, #34, #73 ) ;
#118 =( NAMED_UNIT ( * ) SI_UNIT ( $, .STERADIAN. ) SOLID_ANGLE_UNIT ( ) );
#119 = AXIS2_PLACEMENT_3D ( 'NONE', #103, #106, #299 ) ;
#120 = ORIENTED_EDGE ( 'NONE', *, *, #24, .F. ) ;
#121 = SURFACE_STYLE_FILL_AREA ( #123 ) ;
#122 = ORIENTED_EDGE ( 'NONE', *, *, #290, .T. ) ;
#123 = FILL_AREA_STYLE ('',( #201 ) ) ;
#124 = ADVANCED_FACE ( 'NONE', ( #168 ), #6, .F. ) ;
#125 =( GEOMETRIC_REPRESENTATION_CONTEXT ( 3 ) GLOBAL_UNCERTAINTY_ASSIGNED_CONTEXT ( ( #12 ) ) GLOBAL_UNIT_ASSIGNED_CONTEXT ( ( #67, #41, #101 ) ) REPRESENTATION_CONTEXT ( 'NONE', 'WORKASPACE' ) );
#126 = ORIENTED_EDGE ( 'NONE', *, *, #224, .F. ) ;
#127 = FACE_OUTER_BOUND ( 'NONE', #149, .T. ) ;
#128 = SURFACE_STYLE_USAGE ( .BOTH. , #309 ) ;
#129 = ORIENTED_EDGE ( 'NONE', *, *, #192, .F. ) ;
#130 =( NAMED_UNIT ( * ) SI_UNIT ( $, .STERADIAN. ) SOLID_ANGLE_UNIT ( ) );
#131 = AXIS2_PLACEMENT_3D ( 'NONE', #173, #300, #59 ) ;
#132 = AXIS2_PLACEMENT_3D ( 'NONE', #142, #209, #186 ) ;
#133 = PLANE ( 'NONE',  #60 ) ;
#134 = PRODUCT_DEFINITION_SHAPE ( 'NONE', 'NONE',  #229 ) ;
#135 = EDGE_CURVE ( 'NONE', #105, #7, #239, .T. ) ;
#136 =( NAMED_UNIT ( * ) PLANE_ANGLE_UNIT ( ) SI_UNIT ( $, .RADIAN. ) );
#137 = DIMENSIONAL_EXPONENTS ( 1.000000000000000000, 0.000000000000000000, 0.000000000000000000, 0.000000000000000000, 0.000000000000000000, 0.000000000000000000, 0.000000000000000000 ) ;
#138 = FILL_AREA_STYLE_COLOUR ( '', #69 ) ;
#139 = PRESENTATION_LAYER_ASSIGNMENT (  '', '', ( #208 ) ) ;
#140 = FACE_OUTER_BOUND ( 'NONE', #250, .T. ) ;
#141 = CARTESIAN_POINT ( 'NONE',  ( -0.3750000000000005551, 6.000000000000000888, 0.000000000000000000 ) ) ;
#142 = CARTESIAN_POINT ( 'NONE',  ( 0.000000000000000000, 3.250000000000000000, 0.000000000000000000 ) ) ;
#143 = AXIS2_PLACEMENT_3D ( 'NONE', #256, #91, #36 ) ;
#144 = CIRCLE ( 'NONE', #48, 0.3750000000000000555 ) ;
#145 = CARTESIAN_POINT ( 'NONE',  ( -3.673940397442060361E-16, 6.000000000000000888, 0.000000000000000000 ) ) ;
#146 =( CONVERSION_BASED_UNIT ( 'INCH', #31 ) LENGTH_UNIT ( ) NAMED_UNIT ( #187 ) );
#147 = CARTESIAN_POINT ( 'NONE',  ( 0.3749999999999998890, 6.000000000000000888, 4.592425496802577300E-17 ) ) ;
#148 = COLOUR_RGB ( '',0.7921568627450980005, 0.8196078431372548767, 0.9333333333333333481 ) ;
#149 = EDGE_LOOP ( 'NONE', ( #270, #221, #198, #195 ) ) ;
#150 = ORIENTED_EDGE ( 'NONE', *, *, #258, .T. ) ;
#151 = ORIENTED_EDGE ( 'NONE', *, *, #213, .F. ) ;
#152 = FILL_AREA_STYLE ('',( #156 ) ) ;
#153 = MECHANICAL_DESIGN_GEOMETRIC_PRESENTATION_REPRESENTATION (  '', ( #292 ), #214 ) ;
#154 = STYLED_ITEM ( 'NONE', ( #282 ), #57 ) ;
#155 = VERTEX_POINT ( 'NONE', #2 ) ;
#156 = FILL_AREA_STYLE_COLOUR ( '', #9 ) ;
#157 = PRODUCT_CONTEXT ( 'NONE', #87, 'mechanical' ) ;
#158 = DIRECTION ( 'NONE',  ( 0.000000000000000000, -1.000000000000000000, -0.000000000000000000 ) ) ;
#159 =( CONVERSION_BASED_UNIT ( 'INCH', #257 ) LENGTH_UNIT ( ) NAMED_UNIT ( #32 ) );
#160 =( GEOMETRIC_REPRESENTATION_CONTEXT ( 3 ) GLOBAL_UNCERTAINTY_ASSIGNED_CONTEXT ( ( #245 ) ) GLOBAL_UNIT_ASSIGNED_CONTEXT ( ( #77, #169, #38 ) ) REPRESENTATION_CONTEXT ( 'NONE', 'WORKASPACE' ) );
#161 = DIMENSIONAL_EXPONENTS ( 1.000000000000000000, 0.000000000000000000, 0.000000000000000000, 0.000000000000000000, 0.000000000000000000, 0.000000000000000000, 0.000000000000000000 ) ;
#162 = FACE_OUTER_BOUND ( 'NONE', #246, .T. ) ;
#163 =( NAMED_UNIT ( * ) SI_UNIT ( $, .STERADIAN. ) SOLID_ANGLE_UNIT ( ) );
#164 = DIRECTION ( 'NONE',  ( 0.000000000000000000, 0.000000000000000000, 1.000000000000000000 ) ) ;
#165 = CLOSED_SHELL ( 'NONE', ( #40, #244, #274, #124 ) ) ;
#166 = MECHANICAL_DESIGN_GEOMETRIC_PRESENTATION_REPRESENTATION (  '', ( #52 ), #65 ) ;
#167 = APPLICATION_PROTOCOL_DEFINITION ( 'draft international standard', 'automotive_design', 1998, #236 ) ;
#168 = FACE_OUTER_BOUND ( 'NONE', #272, .T. ) ;
#169 =( NAMED_UNIT ( * ) PLANE_ANGLE_UNIT ( ) SI_UNIT ( $, .RADIAN. ) );
#170 = VECTOR ( 'NONE', #109, 39.37007874015748143 ) ;
#171 = CARTESIAN_POINT ( 'NONE',  ( 0.000000000000000000, 3.250000000000000000, 0.000000000000000000 ) ) ;
#172 = ORIENTED_EDGE ( 'NONE', *, *, #55, .T. ) ;
#173 = CARTESIAN_POINT ( 'NONE',  ( 3.346571415857037971E-33, 3.250000000000000000, 0.000000000000000000 ) ) ;
#174 = UNCERTAINTY_MEASURE_WITH_UNIT (LENGTH_MEASURE( 1.000000000000000082E-05 ), #112, 'distance_accuracy_value', 'NONE');
#175 = SURFACE_SIDE_STYLE ('',( #121 ) ) ;
#176 = AXIS2_PLACEMENT_3D ( 'NONE', #44, #83, #179 ) ;
#177 = EDGE_CURVE ( 'NONE', #155, #298, #144, .T. ) ;
#178 = ORIENTED_EDGE ( 'NONE', *, *, #24, .T. ) ;
#179 = DIRECTION ( 'NONE',  ( 0.000000000000000000, 0.000000000000000000, -1.000000000000000000 ) ) ;
#180 = CYLINDRICAL_SURFACE ( 'NONE', #116, 0.3750000000000000555 ) ;
#181 = MECHANICAL_DESIGN_GEOMETRIC_PRESENTATION_REPRESENTATION (  '', ( #208 ), #75 ) ;
#182 = FILL_AREA_STYLE_COLOUR ( '', #281 ) ;
#183 = PRODUCT ( '83317', '83317', '', ( #157 ) ) ;
#184 = DIRECTION ( 'NONE',  ( -1.000000000000000000, 0.000000000000000000, 0.000000000000000000 ) ) ;
#185 = VECTOR ( 'NONE', #280, 39.37007874015748143 ) ;
#186 = DIRECTION ( 'NONE',  ( -1.000000000000000000, 0.000000000000000000, 0.000000000000000000 ) ) ;
#187 = DIMENSIONAL_EXPONENTS ( 1.000000000000000000, 0.000000000000000000, 0.000000000000000000, 0.000000000000000000, 0.000000000000000000, 0.000000000000000000, 0.000000000000000000 ) ;
#188 = DIRECTION ( 'NONE',  ( 0.000000000000000000, 0.000000000000000000, -1.000000000000000000 ) ) ;
#189 = DIRECTION ( 'NONE',  ( 1.000000000000000000, 0.000000000000000000, 0.000000000000000000 ) ) ;
#190 = AXIS2_PLACEMENT_3D ( 'NONE', #17, #158, #188 ) ;
#191 = CARTESIAN_POINT ( 'NONE',  ( 0.3750000000000000555, 6.000000000000000888, 4.592425496802578533E-17 ) ) ;
#192 = EDGE_CURVE ( 'NONE', #7, #105, #90, .T. ) ;
#193 = SURFACE_SIDE_STYLE ('',( #196 ) ) ;
#194 = CARTESIAN_POINT ( 'NONE',  ( -3.673940397442060361E-16, 6.000000000000000888, 0.000000000000000000 ) ) ;
#195 = ORIENTED_EDGE ( 'NONE', *, *, #290, .F. ) ;
#196 = SURFACE_STYLE_FILL_AREA ( #76 ) ;
#197 = LENGTH_MEASURE_WITH_UNIT ( LENGTH_MEASURE( 0.02539999999999999897 ), #237 );
#198 = ORIENTED_EDGE ( 'NONE', *, *, #261, .T. ) ;
#199 = LENGTH_MEASURE_WITH_UNIT ( LENGTH_MEASURE( 0.02539999999999999897 ), #8 );
#200 = VERTEX_POINT ( 'NONE', #14 ) ;
#201 = FILL_AREA_STYLE_COLOUR ( '', #110 ) ;
#202 = FACE_OUTER_BOUND ( 'NONE', #99, .T. ) ;
#203 = CIRCLE ( 'NONE', #211, 0.3750000000000000555 ) ;
#204 = CARTESIAN_POINT ( 'NONE',  ( 0.3750000000000000555, 3.250000000000000000, 4.592425496802578533E-17 ) ) ;
#205 = PRESENTATION_STYLE_ASSIGNMENT (( #78 ) ) ;
#206 = PRODUCT_RELATED_PRODUCT_CATEGORY ( 'part', '', ( #183 ) ) ;
#207 = ADVANCED_FACE ( 'NONE', ( #127 ), #11, .T. ) ;
#208 = STYLED_ITEM ( 'NONE', ( #240 ), #249 ) ;
#209 = DIRECTION ( 'NONE',  ( -1.335978326342567180E-16, 1.000000000000000000, -0.000000000000000000 ) ) ;
#210 = CARTESIAN_POINT ( 'NONE',  ( 0.000000000000000000, 0.000000000000000000, -0.3750000000000000555 ) ) ;
#211 = AXIS2_PLACEMENT_3D ( 'NONE', #260, #286, #227 ) ;
#212 = CARTESIAN_POINT ( 'NONE',  ( 0.3750000000000000555, 6.000000000000000888, 0.000000000000000000 ) ) ;
#213 = EDGE_CURVE ( 'NONE', #298, #155, #306, .T. ) ;
#214 =( GEOMETRIC_REPRESENTATION_CONTEXT ( 3 ) GLOBAL_UNCERTAINTY_ASSIGNED_CONTEXT ( ( #254 ) ) GLOBAL_UNIT_ASSIGNED_CONTEXT ( ( #159, #93, #163 ) ) REPRESENTATION_CONTEXT ( 'NONE', 'WORKASPACE' ) );
#215 = ORIENTED_EDGE ( 'NONE', *, *, #135, .F. ) ;
#216 = SURFACE_SIDE_STYLE ('',( #108 ) ) ;
#217 = ORIENTED_EDGE ( 'NONE', *, *, #177, .T. ) ;
#218 = DIRECTION ( 'NONE',  ( -1.335978326342567180E-16, 1.000000000000000000, -0.000000000000000000 ) ) ;
#219 = ORIENTED_EDGE ( 'NONE', *, *, #258, .F. ) ;
#220 = PLANE ( 'NONE',  #131 ) ;
#221 = ORIENTED_EDGE ( 'NONE', *, *, #213, .T. ) ;
#222 = DIRECTION ( 'NONE',  ( -1.335978326342567180E-16, 1.000000000000000000, -0.000000000000000000 ) ) ;
#223 = AXIS2_PLACEMENT_3D ( 'NONE', #212, #97, #3 ) ;
#224 = EDGE_CURVE ( 'NONE', #58, #105, #241, .T. ) ;
#225 =( LENGTH_UNIT ( ) NAMED_UNIT ( * ) SI_UNIT ( $, .METRE. ) );
#226 = CARTESIAN_POINT ( 'NONE',  ( 0.000000000000000000, 3.250000000000000000, 0.000000000000000000 ) ) ;
#227 = DIRECTION ( 'NONE',  ( 0.000000000000000000, 0.000000000000000000, -1.000000000000000000 ) ) ;
#228 = DIMENSIONAL_EXPONENTS ( 1.000000000000000000, 0.000000000000000000, 0.000000000000000000, 0.000000000000000000, 0.000000000000000000, 0.000000000000000000, 0.000000000000000000 ) ;
#229 = PRODUCT_DEFINITION ( 'UNKNOWN', '', #43, #62 ) ;
#230 = LINE ( 'NONE', #50, #301 ) ;
#231 =( LENGTH_UNIT ( ) NAMED_UNIT ( * ) SI_UNIT ( $, .METRE. ) );
#232 = CIRCLE ( 'NONE', #248, 0.3750000000000000555 ) ;
#233 = DIRECTION ( 'NONE',  ( 0.000000000000000000, -0.000000000000000000, 1.000000000000000000 ) ) ;
#234 = DIRECTION ( 'NONE',  ( -1.000000000000000000, 0.000000000000000000, 0.000000000000000000 ) ) ;
#235 =( NAMED_UNIT ( * ) PLANE_ANGLE_UNIT ( ) SI_UNIT ( $, .RADIAN. ) );
#236 = APPLICATION_CONTEXT ( 'automotive_design' ) ;
#237 =( LENGTH_UNIT ( ) NAMED_UNIT ( * ) SI_UNIT ( $, .METRE. ) );
#238 = FILL_AREA_STYLE ('',( #273 ) ) ;
#239 = CIRCLE ( 'NONE', #1, 0.3750000000000003886 ) ;
#240 = PRESENTATION_STYLE_ASSIGNMENT (( #79 ) ) ;
#241 = LINE ( 'NONE', #147, #170 ) ;
#242 = EDGE_LOOP ( 'NONE', ( #150, #122 ) ) ;
#243 =( LENGTH_UNIT ( ) NAMED_UNIT ( * ) SI_UNIT ( $, .METRE. ) );
#244 = ADVANCED_FACE ( 'NONE', ( #64 ), #220, .F. ) ;
#245 = UNCERTAINTY_MEASURE_WITH_UNIT (LENGTH_MEASURE( 1.000000000000000082E-05 ), #77, 'distance_accuracy_value', 'NONE');
#246 = EDGE_LOOP ( 'NONE', ( #39, #151 ) ) ;
#247 = CLOSED_SHELL ( 'NONE', ( #15, #71, #207, #45 ) ) ;
#248 = AXIS2_PLACEMENT_3D ( 'NONE', #226, #222, #184 ) ;
#249 = MANIFOLD_SOLID_BREP ( 'Revolve - Cutting Edge', #247 ) ;
#250 = EDGE_LOOP ( 'NONE', ( #126, #172, #178, #215 ) ) ;
#251 =( CONVERSION_BASED_UNIT ( 'INCH', #199 ) LENGTH_UNIT ( ) NAMED_UNIT ( #161 ) );
#252 = CARTESIAN_POINT ( 'NONE',  ( 4.592425496802575451E-17, 3.250000000000000000, 0.3750000000000000555 ) ) ;
#253 =( GEOMETRIC_REPRESENTATION_CONTEXT ( 3 ) GLOBAL_UNCERTAINTY_ASSIGNED_CONTEXT ( ( #25 ) ) GLOBAL_UNIT_ASSIGNED_CONTEXT ( ( #27, #136, #305 ) ) REPRESENTATION_CONTEXT ( 'NONE', 'WORKASPACE' ) );
#254 = UNCERTAINTY_MEASURE_WITH_UNIT (LENGTH_MEASURE( 1.000000000000000082E-05 ), #159, 'distance_accuracy_value', 'NONE');
#255 = LENGTH_MEASURE_WITH_UNIT ( LENGTH_MEASURE( 0.02539999999999999897 ), #225 );
#256 = CARTESIAN_POINT ( 'NONE',  ( -3.673940397442060361E-16, 6.000000000000000888, 0.000000000000000000 ) ) ;
#257 = LENGTH_MEASURE_WITH_UNIT ( LENGTH_MEASURE( 0.02539999999999999897 ), #279 );
#258 = EDGE_CURVE ( 'NONE', #107, #200, #86, .T. ) ;
#259 = MECHANICAL_DESIGN_GEOMETRIC_PRESENTATION_REPRESENTATION (  '', ( #154 ), #253 ) ;
#260 = CARTESIAN_POINT ( 'NONE',  ( 0.000000000000000000, 0.000000000000000000, 0.000000000000000000 ) ) ;
#261 = EDGE_CURVE ( 'NONE', #155, #107, #230, .T. ) ;
#262 = PRESENTATION_LAYER_ASSIGNMENT (  '', '', ( #276 ) ) ;
#263 = DIRECTION ( 'NONE',  ( 0.000000000000000000, 0.000000000000000000, -1.000000000000000000 ) ) ;
#264 = PRESENTATION_STYLE_ASSIGNMENT (( #56 ) ) ;
#265 = SURFACE_STYLE_FILL_AREA ( #238 ) ;
#266 = SURFACE_STYLE_USAGE ( .BOTH. , #175 ) ;
#267 = CYLINDRICAL_SURFACE ( 'NONE', #143, 0.3750000000000002220 ) ;
#268 = PRESENTATION_STYLE_ASSIGNMENT (( #266 ) ) ;
#269 =( GEOMETRIC_REPRESENTATION_CONTEXT ( 3 ) GLOBAL_UNCERTAINTY_ASSIGNED_CONTEXT ( ( #174 ) ) GLOBAL_UNIT_ASSIGNED_CONTEXT ( ( #112, #308, #289 ) ) REPRESENTATION_CONTEXT ( 'NONE', 'WORKASPACE' ) );
#270 = ORIENTED_EDGE ( 'NONE', *, *, #68, .F. ) ;
#271 = CARTESIAN_POINT ( 'NONE',  ( 0.000000000000000000, 0.000000000000000000, 0.000000000000000000 ) ) ;
#272 = EDGE_LOOP ( 'NONE', ( #297, #66 ) ) ;
#273 = FILL_AREA_STYLE_COLOUR ( '', #19 ) ;
#274 = ADVANCED_FACE ( 'NONE', ( #140 ), #114, .T. ) ;
#275 = LENGTH_MEASURE_WITH_UNIT ( LENGTH_MEASURE( 0.02539999999999999897 ), #243 );
#276 = STYLED_ITEM ( 'NONE', ( #268 ), #207 ) ;
#277 = PLANE ( 'NONE',  #190 ) ;
#278 = CARTESIAN_POINT ( 'NONE',  ( -0.3750000000000000555, 3.250000000000000000, 0.000000000000000000 ) ) ;
#279 =( LENGTH_UNIT ( ) NAMED_UNIT ( * ) SI_UNIT ( $, .METRE. ) );
#280 = DIRECTION ( 'NONE',  ( -0.000000000000000000, -1.000000000000000000, -0.000000000000000000 ) ) ;
#281 = COLOUR_RGB ( '',1.000000000000000000, 0.000000000000000000, 0.000000000000000000 ) ;
#282 = PRESENTATION_STYLE_ASSIGNMENT (( #113 ) ) ;
#283 = AXIS2_PLACEMENT_3D ( 'NONE', #70, #164, #189 ) ;
#284 = UNCERTAINTY_MEASURE_WITH_UNIT (LENGTH_MEASURE( 1.000000000000000082E-05 ), #251, 'distance_accuracy_value', 'NONE');
#285 = SURFACE_SIDE_STYLE ('',( #21 ) ) ;
#286 = DIRECTION ( 'NONE',  ( -0.000000000000000000, -1.000000000000000000, -0.000000000000000000 ) ) ;
#287 = CARTESIAN_POINT ( 'NONE',  ( -3.673940397442060361E-16, 6.000000000000000888, 0.000000000000000000 ) ) ;
#288 = MECHANICAL_DESIGN_GEOMETRIC_PRESENTATION_REPRESENTATION (  '', ( #276 ), #125 ) ;
#289 =( NAMED_UNIT ( * ) SI_UNIT ( $, .STERADIAN. ) SOLID_ANGLE_UNIT ( ) );
#290 = EDGE_CURVE ( 'NONE', #200, #107, #203, .T. ) ;
#291 = DIRECTION ( 'NONE',  ( -0.000000000000000000, -1.000000000000000000, -0.000000000000000000 ) ) ;
#292 = STYLED_ITEM ( 'NONE', ( #205 ), #15 ) ;
#293 = PRESENTATION_LAYER_ASSIGNMENT (  '', '', ( #52 ) ) ;
#294 = SURFACE_SIDE_STYLE ('',( #265 ) ) ;
#295 = VECTOR ( 'NONE', #218, 39.37007874015748143 ) ;
#296 = AXIS2_PLACEMENT_3D ( 'NONE', #145, #96, #234 ) ;
#297 = ORIENTED_EDGE ( 'NONE', *, *, #192, .T. ) ;
#298 = VERTEX_POINT ( 'NONE', #252 ) ;
#299 = DIRECTION ( 'NONE',  ( 0.000000000000000000, 0.000000000000000000, -1.000000000000000000 ) ) ;
#300 = DIRECTION ( 'NONE',  ( -1.335978326342567180E-16, 1.000000000000000000, 0.000000000000000000 ) ) ;
#301 = VECTOR ( 'NONE', #92, 39.37007874015748143 ) ;
#302 = CARTESIAN_POINT ( 'NONE',  ( 4.592425496802575451E-17, 0.000000000000000000, 0.3750000000000000555 ) ) ;
#303 = SURFACE_STYLE_FILL_AREA ( #104 ) ;
#304 = EDGE_CURVE ( 'NONE', #37, #58, #61, .T. ) ;
#305 =( NAMED_UNIT ( * ) SI_UNIT ( $, .STERADIAN. ) SOLID_ANGLE_UNIT ( ) );
#306 = CIRCLE ( 'NONE', #176, 0.3750000000000000555 ) ;
#307 = LINE ( 'NONE', #302, #185 ) ;
#308 =( NAMED_UNIT ( * ) PLANE_ANGLE_UNIT ( ) SI_UNIT ( $, .RADIAN. ) );
#309 = SURFACE_SIDE_STYLE ('',( #303 ) ) ;
ENDSEC;
END-ISO-10303-21;
