ISO-10303-21;
HEADER;
FILE_DESCRIPTION (( 'STEP AP214' ),
    '1' );
FILE_NAME ('Micro_RTCM-030-2.STEP',
    '2021-09-03T18:19:04',
    ( '' ),
    ( '' ),
    'SwSTEP 2.0',
    'SolidWorks 2020',
    '' );
FILE_SCHEMA (( 'AUTOMOTIVE_DESIGN' ));
ENDSEC;

DATA;
#1 = ORIENTED_EDGE ( 'NONE', *, *, #213, .T. ) ;
#2 = DIRECTION ( 'NONE',  ( 0.0000000000000000000, 0.0000000000000000000, -1.000000000000000000 ) ) ;
#3 = CLOSED_SHELL ( 'NONE', ( #136, #59, #234, #82, #215, #49, #53, #74 ) ) ;
#4 =( LENGTH_UNIT ( ) NAMED_UNIT ( * ) SI_UNIT ( $, .METRE. ) );
#5 =( NAMED_UNIT ( * ) PLANE_ANGLE_UNIT ( ) SI_UNIT ( $, .RADIAN. ) );
#6 = FACE_OUTER_BOUND ( 'NONE', #48, .T. ) ;
#7 = PRODUCT ( 'Micro_RTCM-030-2', 'Micro_RTCM-030-2', '', ( #80 ) ) ;
#8 =( GEOMETRIC_REPRESENTATION_CONTEXT ( 3 ) GLOBAL_UNCERTAINTY_ASSIGNED_CONTEXT ( ( #110 ) ) GLOBAL_UNIT_ASSIGNED_CONTEXT ( ( #161, #209, #58 ) ) REPRESENTATION_CONTEXT ( 'NONE', 'WORKASPACE' ) );
#9 = AXIS2_PLACEMENT_3D ( 'NONE', #160, #164, #248 ) ;
#10 = SURFACE_STYLE_FILL_AREA ( #56 ) ;
#11 = DIRECTION ( 'NONE',  ( -0.2588190451025216832, 3.169619151431776035E-17, 0.9659258262890679791 ) ) ;
#12 = CIRCLE ( 'NONE', #148, 0.003936999999999995191 ) ;
#13 = CARTESIAN_POINT ( 'NONE',  ( 0.0000000000000000000, 0.0000000000000000000, 0.0000000000000000000 ) ) ;
#14 = CIRCLE ( 'NONE', #180, 0.003936999999999995191 ) ;
#15 = VERTEX_POINT ( 'NONE', #94 ) ;
#16 = DIRECTION ( 'NONE',  ( -0.0000000000000000000, -0.0000000000000000000, -1.000000000000000000 ) ) ;
#17 = CARTESIAN_POINT ( 'NONE',  ( 0.0000000000000000000, 0.0000000000000000000, 0.0000000000000000000 ) ) ;
#18 = DIRECTION ( 'NONE',  ( -1.000000000000000000, 0.0000000000000000000, 0.0000000000000000000 ) ) ;
#19 = ORIENTED_EDGE ( 'NONE', *, *, #122, .F. ) ;
#20 = DIRECTION ( 'NONE',  ( -1.000000000000000000, 0.0000000000000000000, 0.0000000000000000000 ) ) ;
#21 = CIRCLE ( 'NONE', #28, 0.05905500000000001720 ) ;
#22 = ORIENTED_EDGE ( 'NONE', *, *, #204, .F. ) ;
#23 = DIRECTION ( 'NONE',  ( 1.000000000000000000, 0.0000000000000000000, 0.0000000000000000000 ) ) ;
#24 = ORIENTED_EDGE ( 'NONE', *, *, #117, .F. ) ;
#25 = FACE_OUTER_BOUND ( 'NONE', #83, .T. ) ;
#26 = CARTESIAN_POINT ( 'NONE',  ( -0.05905500000000001720, 0.0000000000000000000, 0.2057031764115806738 ) ) ;
#27 = DIRECTION ( 'NONE',  ( -0.0000000000000000000, -0.0000000000000000000, -1.000000000000000000 ) ) ;
#28 = AXIS2_PLACEMENT_3D ( 'NONE', #86, #222, #146 ) ;
#29 = CARTESIAN_POINT ( 'NONE',  ( -0.003936999999999995191, -3.857147558594504174E-18, 1.496062999999999921 ) ) ;
#30 =( NAMED_UNIT ( * ) SI_UNIT ( $, .STERADIAN. ) SOLID_ANGLE_UNIT ( ) );
#31 = EDGE_CURVE ( 'NONE', #235, #132, #108, .T. ) ;
#32 = PRESENTATION_LAYER_ASSIGNMENT (  '', '', ( #247 ) ) ;
#33 = SURFACE_STYLE_USAGE ( .BOTH. , #203 ) ;
#34 =( GEOMETRIC_REPRESENTATION_CONTEXT ( 3 ) GLOBAL_UNCERTAINTY_ASSIGNED_CONTEXT ( ( #165 ) ) GLOBAL_UNIT_ASSIGNED_CONTEXT ( ( #182, #145, #232 ) ) REPRESENTATION_CONTEXT ( 'NONE', 'WORKASPACE' ) );
#35 = LENGTH_MEASURE_WITH_UNIT ( LENGTH_MEASURE( 0.02539999999999999897 ), #181 );
#36 = FACE_OUTER_BOUND ( 'NONE', #78, .T. ) ;
#37 = PRESENTATION_STYLE_ASSIGNMENT (( #33 ) ) ;
#38 = VECTOR ( 'NONE', #159, 39.37007874015748143 ) ;
#39 = COLOUR_RGB ( '',0.7921568627450980005, 0.8196078431372548767, 0.9333333333333333481 ) ;
#40 = VERTEX_POINT ( 'NONE', #217 ) ;
#41 = APPLICATION_PROTOCOL_DEFINITION ( 'draft international standard', 'automotive_design', 1998, #141 ) ;
#42 = ORIENTED_EDGE ( 'NONE', *, *, #124, .T. ) ;
#43 = CARTESIAN_POINT ( 'NONE',  ( 0.0000000000000000000, 0.0000000000000000000, 1.496062999999999921 ) ) ;
#44 = CONICAL_SURFACE ( 'NONE', #205, 0.003936999999999995191, 0.2617993877991502960 ) ;
#45 = MECHANICAL_DESIGN_GEOMETRIC_PRESENTATION_REPRESENTATION (  '', ( #144 ), #34 ) ;
#46 = APPLICATION_CONTEXT ( 'automotive_design' ) ;
#47 = PLANE ( 'NONE',  #63 ) ;
#48 = EDGE_LOOP ( 'NONE', ( #134, #112, #22, #24 ) ) ;
#49 = ADVANCED_FACE ( 'NONE', ( #170 ), #47, .F. ) ;
#50 = DIRECTION ( 'NONE',  ( 0.2588190451025216832, 0.0000000000000000000, -0.9659258262890679791 ) ) ;
#51 = PRODUCT_DEFINITION_SHAPE ( 'NONE', 'NONE',  #240 ) ;
#52 = DIRECTION ( 'NONE',  ( -1.000000000000000000, 0.0000000000000000000, 0.0000000000000000000 ) ) ;
#53 = ADVANCED_FACE ( 'NONE', ( #115 ), #223, .T. ) ;
#54 =( CONVERSION_BASED_UNIT ( 'INCH', #125 ) LENGTH_UNIT ( ) NAMED_UNIT ( #113 ) );
#55 = VECTOR ( 'NONE', #89, 39.37007874015748143 ) ;
#56 = FILL_AREA_STYLE ('',( #195 ) ) ;
#57 = DIRECTION ( 'NONE',  ( 0.0000000000000000000, 0.0000000000000000000, 1.000000000000000000 ) ) ;
#58 =( NAMED_UNIT ( * ) SI_UNIT ( $, .STERADIAN. ) SOLID_ANGLE_UNIT ( ) );
#59 = ADVANCED_FACE ( 'NONE', ( #190 ), #44, .T. ) ;
#60 =( LENGTH_UNIT ( ) NAMED_UNIT ( * ) SI_UNIT ( $, .METRE. ) );
#61 = EDGE_CURVE ( 'NONE', #15, #132, #99, .T. ) ;
#62 = APPLICATION_PROTOCOL_DEFINITION ( 'draft international standard', 'automotive_design', 1998, #46 ) ;
#63 = AXIS2_PLACEMENT_3D ( 'NONE', #193, #147, #169 ) ;
#64 = ORIENTED_EDGE ( 'NONE', *, *, #174, .T. ) ;
#65 = EDGE_LOOP ( 'NONE', ( #249, #212, #42, #166 ) ) ;
#66 = ORIENTED_EDGE ( 'NONE', *, *, #174, .F. ) ;
#67 = ORIENTED_EDGE ( 'NONE', *, *, #130, .F. ) ;
#68 = AXIS2_PLACEMENT_3D ( 'NONE', #178, #90, #208 ) ;
#69 = EDGE_LOOP ( 'NONE', ( #67, #233, #129, #66 ) ) ;
#70 = PRODUCT_RELATED_PRODUCT_CATEGORY ( 'part', '', ( #7 ) ) ;
#71 = DIRECTION ( 'NONE',  ( -0.2588190451025216832, -3.169619151431776035E-17, -0.9659258262890679791 ) ) ;
#72 = LINE ( 'NONE', #107, #188 ) ;
#73 = DIRECTION ( 'NONE',  ( -1.000000000000000000, 0.0000000000000000000, 0.0000000000000000000 ) ) ;
#74 = ADVANCED_FACE ( 'NONE', ( #25 ), #139, .T. ) ;
#75 = CARTESIAN_POINT ( 'NONE',  ( 0.003936999999999995191, 0.0000000000000000000, 0.0000000000000000000 ) ) ;
#76 = DIRECTION ( 'NONE',  ( 1.000000000000000000, 0.0000000000000000000, 0.0000000000000000000 ) ) ;
#77 = VERTEX_POINT ( 'NONE', #29 ) ;
#78 = EDGE_LOOP ( 'NONE', ( #116, #171, #135, #236 ) ) ;
#79 = PRESENTATION_LAYER_ASSIGNMENT (  '', '', ( #144 ) ) ;
#80 = PRODUCT_CONTEXT ( 'NONE', #46, 'mechanical' ) ;
#81 = ORIENTED_EDGE ( 'NONE', *, *, #31, .F. ) ;
#82 = ADVANCED_FACE ( 'NONE', ( #101 ), #241, .T. ) ;
#83 = EDGE_LOOP ( 'NONE', ( #19, #131 ) ) ;
#84 = CARTESIAN_POINT ( 'NONE',  ( 0.0000000000000000000, 0.0000000000000000000, 0.0000000000000000000 ) ) ;
#85 = DIRECTION ( 'NONE',  ( -0.0000000000000000000, -0.0000000000000000000, -1.000000000000000000 ) ) ;
#86 = CARTESIAN_POINT ( 'NONE',  ( 0.0000000000000000000, 0.0000000000000000000, 1.290359823588419275 ) ) ;
#87 = CARTESIAN_POINT ( 'NONE',  ( 0.0000000000000000000, 0.0000000000000000000, 0.2057031764115806738 ) ) ;
#88 = MANIFOLD_SOLID_BREP ( 'Mirror1', #3 ) ;
#89 = DIRECTION ( 'NONE',  ( 0.2588190451025216832, 0.0000000000000000000, 0.9659258262890679791 ) ) ;
#90 = DIRECTION ( 'NONE',  ( 0.0000000000000000000, 0.0000000000000000000, -1.000000000000000000 ) ) ;
#91 = AXIS2_PLACEMENT_3D ( 'NONE', #183, #162, #18 ) ;
#92 = LINE ( 'NONE', #75, #55 ) ;
#93 = EDGE_CURVE ( 'NONE', #40, #235, #123, .T. ) ;
#94 = CARTESIAN_POINT ( 'NONE',  ( -0.05905500000000001720, 0.0000000000000000000, 1.290359823588419275 ) ) ;
#95 = VECTOR ( 'NONE', #11, 39.37007874015748143 ) ;
#96 = EDGE_LOOP ( 'NONE', ( #211, #185, #151, #81 ) ) ;
#97 = EDGE_LOOP ( 'NONE', ( #64, #192, #238, #230 ) ) ;
#98 = ORIENTED_EDGE ( 'NONE', *, *, #128, .T. ) ;
#99 = LINE ( 'NONE', #172, #38 ) ;
#100 = COLOUR_RGB ( '',0.7921568627450980005, 0.8196078431372548767, 0.9333333333333333481 ) ;
#101 = FACE_OUTER_BOUND ( 'NONE', #96, .T. ) ;
#102 = DIRECTION ( 'NONE',  ( 0.0000000000000000000, 0.0000000000000000000, -1.000000000000000000 ) ) ;
#103 = AXIS2_PLACEMENT_3D ( 'NONE', #87, #85, #73 ) ;
#104 = CONICAL_SURFACE ( 'NONE', #163, 0.003936999999999995191, 0.2617993877991502960 ) ;
#105 = EDGE_CURVE ( 'NONE', #186, #132, #177, .T. ) ;
#106 = DIRECTION ( 'NONE',  ( -0.0000000000000000000, -0.0000000000000000000, -1.000000000000000000 ) ) ;
#107 = CARTESIAN_POINT ( 'NONE',  ( 0.003936999999999995191, 0.0000000000000000000, 1.496062999999999921 ) ) ;
#108 = CIRCLE ( 'NONE', #198, 0.05905500000000001720 ) ;
#109 = CYLINDRICAL_SURFACE ( 'NONE', #9, 0.05905500000000001720 ) ;
#110 = UNCERTAINTY_MEASURE_WITH_UNIT (LENGTH_MEASURE( 1.000000000000000082E-05 ), #161, 'distance_accuracy_value', 'NONE');
#111 = CARTESIAN_POINT ( 'NONE',  ( 0.0000000000000000000, 0.0000000000000000000, 0.2057031764115806738 ) ) ;
#112 = ORIENTED_EDGE ( 'NONE', *, *, #130, .T. ) ;
#113 = DIMENSIONAL_EXPONENTS ( 1.000000000000000000, 0.0000000000000000000, 0.0000000000000000000, 0.0000000000000000000, 0.0000000000000000000, 0.0000000000000000000, 0.0000000000000000000 ) ;
#114 = DIRECTION ( 'NONE',  ( 0.0000000000000000000, 0.0000000000000000000, 1.000000000000000000 ) ) ;
#115 = FACE_OUTER_BOUND ( 'NONE', #69, .T. ) ;
#116 = ORIENTED_EDGE ( 'NONE', *, *, #105, .F. ) ;
#117 = EDGE_CURVE ( 'NONE', #218, #40, #72, .T. ) ;
#118 = AXIS2_PLACEMENT_3D ( 'NONE', #244, #27, #52 ) ;
#119 = CONICAL_SURFACE ( 'NONE', #189, 0.003936999999999995191, 0.2617993877991502960 ) ;
#120 = DIRECTION ( 'NONE',  ( 1.000000000000000000, 0.0000000000000000000, -0.0000000000000000000 ) ) ;
#121 = DIRECTION ( 'NONE',  ( -1.000000000000000000, 0.0000000000000000000, 0.0000000000000000000 ) ) ;
#122 = EDGE_CURVE ( 'NONE', #218, #77, #231, .T. ) ;
#123 = LINE ( 'NONE', #201, #245 ) ;
#124 = EDGE_CURVE ( 'NONE', #132, #235, #216, .T. ) ;
#125 = LENGTH_MEASURE_WITH_UNIT ( LENGTH_MEASURE( 0.02539999999999999897 ), #4 );
#126 = FILL_AREA_STYLE_COLOUR ( '', #39 ) ;
#127 = PRODUCT_DEFINITION_FORMATION_WITH_SPECIFIED_SOURCE ( 'ANY', '', #7, .NOT_KNOWN. ) ;
#128 = EDGE_CURVE ( 'NONE', #150, #186, #12, .T. ) ;
#129 = ORIENTED_EDGE ( 'NONE', *, *, #117, .T. ) ;
#130 = EDGE_CURVE ( 'NONE', #77, #15, #137, .T. ) ;
#131 = ORIENTED_EDGE ( 'NONE', *, *, #210, .F. ) ;
#132 = VERTEX_POINT ( 'NONE', #26 ) ;
#133 = AXIS2_PLACEMENT_3D ( 'NONE', #173, #220, #120 ) ;
#134 = ORIENTED_EDGE ( 'NONE', *, *, #122, .T. ) ;
#135 = ORIENTED_EDGE ( 'NONE', *, *, #207, .T. ) ;
#136 = ADVANCED_FACE ( 'NONE', ( #6 ), #119, .T. ) ;
#137 = LINE ( 'NONE', #196, #179 ) ;
#138 = DIRECTION ( 'NONE',  ( -1.000000000000000000, 0.0000000000000000000, 0.0000000000000000000 ) ) ;
#139 = PLANE ( 'NONE',  #133 ) ;
#140 = CARTESIAN_POINT ( 'NONE',  ( 0.0000000000000000000, 0.0000000000000000000, 0.0000000000000000000 ) ) ;
#141 = APPLICATION_CONTEXT ( 'automotive_design' ) ;
#142 = AXIS2_PLACEMENT_3D ( 'NONE', #43, #2, #23 ) ;
#143 = CARTESIAN_POINT ( 'NONE',  ( 0.05905500000000001720, 7.232151672364695422E-18, 0.2057031764115806738 ) ) ;
#144 = STYLED_ITEM ( 'NONE', ( #37 ), #221 ) ;
#145 =( NAMED_UNIT ( * ) PLANE_ANGLE_UNIT ( ) SI_UNIT ( $, .RADIAN. ) );
#146 = DIRECTION ( 'NONE',  ( -1.000000000000000000, 0.0000000000000000000, 0.0000000000000000000 ) ) ;
#147 = DIRECTION ( 'NONE',  ( 0.0000000000000000000, 0.0000000000000000000, 1.000000000000000000 ) ) ;
#148 = AXIS2_PLACEMENT_3D ( 'NONE', #140, #176, #121 ) ;
#149 = DIRECTION ( 'NONE',  ( 0.0000000000000000000, 0.0000000000000000000, 1.000000000000000000 ) ) ;
#150 = VERTEX_POINT ( 'NONE', #197 ) ;
#151 = ORIENTED_EDGE ( 'NONE', *, *, #61, .T. ) ;
#152 = EDGE_LOOP ( 'NONE', ( #98, #1 ) ) ;
#153 = DIRECTION ( 'NONE',  ( 1.000000000000000000, 0.0000000000000000000, 0.0000000000000000000 ) ) ;
#154 = DIRECTION ( 'NONE',  ( 0.0000000000000000000, 0.0000000000000000000, -1.000000000000000000 ) ) ;
#155 = CARTESIAN_POINT ( 'NONE',  ( 0.0000000000000000000, 0.0000000000000000000, 1.496062999999999921 ) ) ;
#156 = CARTESIAN_POINT ( 'NONE',  ( -0.003936999999999995191, 4.821434448243123477E-19, 0.0000000000000000000 ) ) ;
#157 =( GEOMETRIC_REPRESENTATION_CONTEXT ( 3 ) GLOBAL_UNCERTAINTY_ASSIGNED_CONTEXT ( ( #167 ) ) GLOBAL_UNIT_ASSIGNED_CONTEXT ( ( #54, #5, #30 ) ) REPRESENTATION_CONTEXT ( 'NONE', 'WORKASPACE' ) );
#158 = SURFACE_SIDE_STYLE ('',( #10 ) ) ;
#159 = DIRECTION ( 'NONE',  ( -0.0000000000000000000, -0.0000000000000000000, -1.000000000000000000 ) ) ;
#160 = CARTESIAN_POINT ( 'NONE',  ( 0.0000000000000000000, 0.0000000000000000000, 1.496062999999999921 ) ) ;
#161 =( CONVERSION_BASED_UNIT ( 'INCH', #226 ) LENGTH_UNIT ( ) NAMED_UNIT ( #191 ) );
#162 = DIRECTION ( 'NONE',  ( 0.0000000000000000000, 0.0000000000000000000, -1.000000000000000000 ) ) ;
#163 = AXIS2_PLACEMENT_3D ( 'NONE', #13, #57, #229 ) ;
#164 = DIRECTION ( 'NONE',  ( -0.0000000000000000000, -0.0000000000000000000, -1.000000000000000000 ) ) ;
#165 = UNCERTAINTY_MEASURE_WITH_UNIT (LENGTH_MEASURE( 1.000000000000000082E-05 ), #182, 'distance_accuracy_value', 'NONE');
#166 = ORIENTED_EDGE ( 'NONE', *, *, #207, .F. ) ;
#167 = UNCERTAINTY_MEASURE_WITH_UNIT (LENGTH_MEASURE( 1.000000000000000082E-05 ), #54, 'distance_accuracy_value', 'NONE');
#168 = CARTESIAN_POINT ( 'NONE',  ( 0.0000000000000000000, 0.0000000000000000000, 0.0000000000000000000 ) ) ;
#169 = DIRECTION ( 'NONE',  ( 1.000000000000000000, 0.0000000000000000000, -0.0000000000000000000 ) ) ;
#170 = FACE_OUTER_BOUND ( 'NONE', #152, .T. ) ;
#171 = ORIENTED_EDGE ( 'NONE', *, *, #128, .F. ) ;
#172 = CARTESIAN_POINT ( 'NONE',  ( -0.05905500000000001720, 0.0000000000000000000, 1.496062999999999921 ) ) ;
#173 = CARTESIAN_POINT ( 'NONE',  ( 0.0000000000000000000, 0.0000000000000000000, 1.496062999999999921 ) ) ;
#174 = EDGE_CURVE ( 'NONE', #15, #40, #21, .T. ) ;
#175 = SURFACE_STYLE_USAGE ( .BOTH. , #158 ) ;
#176 = DIRECTION ( 'NONE',  ( -0.0000000000000000000, -0.0000000000000000000, -1.000000000000000000 ) ) ;
#177 = LINE ( 'NONE', #156, #95 ) ;
#178 = CARTESIAN_POINT ( 'NONE',  ( 0.0000000000000000000, 0.0000000000000000000, 1.496062999999999921 ) ) ;
#179 = VECTOR ( 'NONE', #71, 39.37007874015748143 ) ;
#180 = AXIS2_PLACEMENT_3D ( 'NONE', #17, #16, #206 ) ;
#181 =( LENGTH_UNIT ( ) NAMED_UNIT ( * ) SI_UNIT ( $, .METRE. ) );
#182 =( CONVERSION_BASED_UNIT ( 'INCH', #35 ) LENGTH_UNIT ( ) NAMED_UNIT ( #219 ) );
#183 = CARTESIAN_POINT ( 'NONE',  ( 0.0000000000000000000, 0.0000000000000000000, 1.290359823588419275 ) ) ;
#184 = SHAPE_DEFINITION_REPRESENTATION ( #51, #221 ) ;
#185 = ORIENTED_EDGE ( 'NONE', *, *, #204, .T. ) ;
#186 = VERTEX_POINT ( 'NONE', #228 ) ;
#187 = PRODUCT_DEFINITION_CONTEXT ( 'detailed design', #141, 'design' ) ;
#188 = VECTOR ( 'NONE', #50, 39.37007874015748143 ) ;
#189 = AXIS2_PLACEMENT_3D ( 'NONE', #243, #154, #239 ) ;
#190 = FACE_OUTER_BOUND ( 'NONE', #65, .T. ) ;
#191 = DIMENSIONAL_EXPONENTS ( 1.000000000000000000, 0.0000000000000000000, 0.0000000000000000000, 0.0000000000000000000, 0.0000000000000000000, 0.0000000000000000000, 0.0000000000000000000 ) ;
#192 = ORIENTED_EDGE ( 'NONE', *, *, #93, .T. ) ;
#193 = CARTESIAN_POINT ( 'NONE',  ( 0.0000000000000000000, 0.0000000000000000000, 0.0000000000000000000 ) ) ;
#194 = AXIS2_PLACEMENT_3D ( 'NONE', #168, #149, #76 ) ;
#195 = FILL_AREA_STYLE_COLOUR ( '', #100 ) ;
#196 = CARTESIAN_POINT ( 'NONE',  ( -0.003936999999999995191, -4.821434448243123477E-19, 1.496062999999999921 ) ) ;
#197 = CARTESIAN_POINT ( 'NONE',  ( 0.003936999999999995191, 0.0000000000000000000, 0.0000000000000000000 ) ) ;
#198 = AXIS2_PLACEMENT_3D ( 'NONE', #111, #214, #20 ) ;
#199 = PRESENTATION_STYLE_ASSIGNMENT (( #175 ) ) ;
#200 = CIRCLE ( 'NONE', #68, 0.003936999999999995191 ) ;
#201 = CARTESIAN_POINT ( 'NONE',  ( 0.05905500000000001720, 7.232151672364695422E-18, 1.496062999999999921 ) ) ;
#202 = FILL_AREA_STYLE ('',( #126 ) ) ;
#203 = SURFACE_SIDE_STYLE ('',( #227 ) ) ;
#204 = EDGE_CURVE ( 'NONE', #40, #15, #224, .T. ) ;
#205 = AXIS2_PLACEMENT_3D ( 'NONE', #84, #114, #153 ) ;
#206 = DIRECTION ( 'NONE',  ( -1.000000000000000000, 0.0000000000000000000, 0.0000000000000000000 ) ) ;
#207 = EDGE_CURVE ( 'NONE', #150, #235, #92, .T. ) ;
#208 = DIRECTION ( 'NONE',  ( -1.000000000000000000, 0.0000000000000000000, 0.0000000000000000000 ) ) ;
#209 =( NAMED_UNIT ( * ) PLANE_ANGLE_UNIT ( ) SI_UNIT ( $, .RADIAN. ) );
#210 = EDGE_CURVE ( 'NONE', #77, #218, #200, .T. ) ;
#211 = ORIENTED_EDGE ( 'NONE', *, *, #93, .F. ) ;
#212 = ORIENTED_EDGE ( 'NONE', *, *, #105, .T. ) ;
#213 = EDGE_CURVE ( 'NONE', #186, #150, #14, .T. ) ;
#214 = DIRECTION ( 'NONE',  ( -0.0000000000000000000, -0.0000000000000000000, -1.000000000000000000 ) ) ;
#215 = ADVANCED_FACE ( 'NONE', ( #36 ), #104, .T. ) ;
#216 = CIRCLE ( 'NONE', #103, 0.05905500000000001720 ) ;
#217 = CARTESIAN_POINT ( 'NONE',  ( 0.05905500000000001720, 7.232151672364695422E-18, 1.290359823588419275 ) ) ;
#218 = VERTEX_POINT ( 'NONE', #246 ) ;
#219 = DIMENSIONAL_EXPONENTS ( 1.000000000000000000, 0.0000000000000000000, 0.0000000000000000000, 0.0000000000000000000, 0.0000000000000000000, 0.0000000000000000000, 0.0000000000000000000 ) ;
#220 = DIRECTION ( 'NONE',  ( 0.0000000000000000000, 0.0000000000000000000, 1.000000000000000000 ) ) ;
#221 = ADVANCED_BREP_SHAPE_REPRESENTATION ( 'Micro_RTCM-030-2', ( #88, #194 ), #8 ) ;
#222 = DIRECTION ( 'NONE',  ( 0.0000000000000000000, 0.0000000000000000000, -1.000000000000000000 ) ) ;
#223 = CONICAL_SURFACE ( 'NONE', #142, 0.003936999999999995191, 0.2617993877991502960 ) ;
#224 = CIRCLE ( 'NONE', #91, 0.05905500000000001720 ) ;
#225 = FACE_OUTER_BOUND ( 'NONE', #97, .T. ) ;
#226 = LENGTH_MEASURE_WITH_UNIT ( LENGTH_MEASURE( 0.02539999999999999897 ), #60 );
#227 = SURFACE_STYLE_FILL_AREA ( #202 ) ;
#228 = CARTESIAN_POINT ( 'NONE',  ( -0.003936999999999995191, 3.857147558594504174E-18, 0.0000000000000000000 ) ) ;
#229 = DIRECTION ( 'NONE',  ( 1.000000000000000000, 0.0000000000000000000, 0.0000000000000000000 ) ) ;
#230 = ORIENTED_EDGE ( 'NONE', *, *, #61, .F. ) ;
#231 = CIRCLE ( 'NONE', #242, 0.003936999999999995191 ) ;
#232 =( NAMED_UNIT ( * ) SI_UNIT ( $, .STERADIAN. ) SOLID_ANGLE_UNIT ( ) );
#233 = ORIENTED_EDGE ( 'NONE', *, *, #210, .T. ) ;
#234 = ADVANCED_FACE ( 'NONE', ( #225 ), #109, .T. ) ;
#235 = VERTEX_POINT ( 'NONE', #143 ) ;
#236 = ORIENTED_EDGE ( 'NONE', *, *, #31, .T. ) ;
#237 = MECHANICAL_DESIGN_GEOMETRIC_PRESENTATION_REPRESENTATION (  '', ( #247 ), #157 ) ;
#238 = ORIENTED_EDGE ( 'NONE', *, *, #124, .F. ) ;
#239 = DIRECTION ( 'NONE',  ( 1.000000000000000000, 0.0000000000000000000, 0.0000000000000000000 ) ) ;
#240 = PRODUCT_DEFINITION ( 'UNKNOWN', '', #127, #187 ) ;
#241 = CYLINDRICAL_SURFACE ( 'NONE', #118, 0.05905500000000001720 ) ;
#242 = AXIS2_PLACEMENT_3D ( 'NONE', #155, #102, #138 ) ;
#243 = CARTESIAN_POINT ( 'NONE',  ( 0.0000000000000000000, 0.0000000000000000000, 1.496062999999999921 ) ) ;
#244 = CARTESIAN_POINT ( 'NONE',  ( 0.0000000000000000000, 0.0000000000000000000, 1.496062999999999921 ) ) ;
#245 = VECTOR ( 'NONE', #106, 39.37007874015748143 ) ;
#246 = CARTESIAN_POINT ( 'NONE',  ( 0.003936999999999995191, 0.0000000000000000000, 1.496062999999999921 ) ) ;
#247 = STYLED_ITEM ( 'NONE', ( #199 ), #88 ) ;
#248 = DIRECTION ( 'NONE',  ( -1.000000000000000000, 0.0000000000000000000, 0.0000000000000000000 ) ) ;
#249 = ORIENTED_EDGE ( 'NONE', *, *, #213, .F. ) ;
ENDSEC;
END-ISO-10303-21;
