ISO-10303-21;
HEADER;
FILE_DESCRIPTION (( 'STEP AP214' ),
    '1' );
FILE_NAME ('06288.STEP',
    '2023-07-05T16:01:40',
    ( '' ),
    ( '' ),
    'SwSTEP 2.0',
    'SolidWorks 2023',
    '' );
FILE_SCHEMA (( 'AUTOMOTIVE_DESIGN' ));
ENDSEC;

DATA;
#1 = EDGE_LOOP ( 'NONE', ( #181, #219, #142 ) ) ;
#2 = VECTOR ( 'NONE', #86, 39.37007874015748143 ) ;
#3 =( NAMED_UNIT ( * ) SI_UNIT ( $, .STERADIAN. ) SOLID_ANGLE_UNIT ( ) );
#4 = ORIENTED_EDGE ( 'NONE', *, *, #32, .F. ) ;
#5 = DIRECTION ( 'NONE',  ( -1.000000000000000000, 0.000000000000000000, 0.000000000000000000 ) ) ;
#6 = DIRECTION ( 'NONE',  ( -1.252875704100928464E-16, 1.000000000000000000, 0.000000000000000000 ) ) ;
#7 =( NAMED_UNIT ( * ) PLANE_ANGLE_UNIT ( ) SI_UNIT ( $, .RADIAN. ) );
#8 = AXIS2_PLACEMENT_3D ( 'NONE', #260, #38, #119 ) ;
#9 = AXIS2_PLACEMENT_3D ( 'NONE', #180, #150, #130 ) ;
#10 = PRESENTATION_LAYER_ASSIGNMENT (  '', '', ( #254 ) ) ;
#11 = DIRECTION ( 'NONE',  ( -1.000000000000000000, 0.000000000000000000, 0.000000000000000000 ) ) ;
#12 = PRODUCT_DEFINITION_SHAPE ( 'NONE', 'NONE',  #92 ) ;
#13 =( LENGTH_UNIT ( ) NAMED_UNIT ( * ) SI_UNIT ( $, .METRE. ) );
#14 = SURFACE_STYLE_FILL_AREA ( #197 ) ;
#15 = CIRCLE ( 'NONE', #29, 0.2499999999999997224 ) ;
#16 = APPLICATION_PROTOCOL_DEFINITION ( 'draft international standard', 'automotive_design', 1998, #84 ) ;
#17 = SURFACE_STYLE_USAGE ( .BOTH. , #46 ) ;
#18 = FACE_OUTER_BOUND ( 'NONE', #1, .T. ) ;
#19 = FACE_OUTER_BOUND ( 'NONE', #110, .T. ) ;
#20 = ORIENTED_EDGE ( 'NONE', *, *, #97, .F. ) ;
#21 = DIRECTION ( 'NONE',  ( 1.000000000000000000, 0.000000000000000000, 0.000000000000000000 ) ) ;
#22 =( GEOMETRIC_REPRESENTATION_CONTEXT ( 3 ) GLOBAL_UNCERTAINTY_ASSIGNED_CONTEXT ( ( #194 ) ) GLOBAL_UNIT_ASSIGNED_CONTEXT ( ( #151, #120, #37 ) ) REPRESENTATION_CONTEXT ( 'NONE', 'WORKASPACE' ) );
#23 = CYLINDRICAL_SURFACE ( 'NONE', #109, 0.2499999999999998612 ) ;
#24 = SURFACE_STYLE_USAGE ( .BOTH. , #43 ) ;
#25 = APPLICATION_PROTOCOL_DEFINITION ( 'draft international standard', 'automotive_design', 1998, #47 ) ;
#26 = CARTESIAN_POINT ( 'NONE',  ( 2.603792618961250418E-16, 0.4330127018922179105, 0.000000000000000000 ) ) ;
#27 = COLOUR_RGB ( '',1.000000000000000000, 0.000000000000000000, 0.000000000000000000 ) ;
#28 =( NAMED_UNIT ( * ) PLANE_ANGLE_UNIT ( ) SI_UNIT ( $, .RADIAN. ) );
#29 = AXIS2_PLACEMENT_3D ( 'NONE', #26, #114, #167 ) ;
#30 = PRESENTATION_LAYER_ASSIGNMENT (  '', '', ( #237 ) ) ;
#31 = DIRECTION ( 'NONE',  ( 6.123233995736778362E-17, 0.8660254037844380415, -0.5000000000000009992 ) ) ;
#32 = EDGE_CURVE ( 'NONE', #163, #121, #35, .T. ) ;
#33 = UNCERTAINTY_MEASURE_WITH_UNIT (LENGTH_MEASURE( 1.000000000000000082E-05 ), #223, 'distance_accuracy_value', 'NONE');
#34 = FILL_AREA_STYLE_COLOUR ( '', #115 ) ;
#35 = CIRCLE ( 'NONE', #199, 0.2499999999999999722 ) ;
#36 =( GEOMETRIC_REPRESENTATION_CONTEXT ( 3 ) GLOBAL_UNCERTAINTY_ASSIGNED_CONTEXT ( ( #33 ) ) GLOBAL_UNIT_ASSIGNED_CONTEXT ( ( #223, #28, #135 ) ) REPRESENTATION_CONTEXT ( 'NONE', 'WORKASPACE' ) );
#37 =( NAMED_UNIT ( * ) SI_UNIT ( $, .STERADIAN. ) SOLID_ANGLE_UNIT ( ) );
#38 = DIRECTION ( 'NONE',  ( -1.252875704100928464E-16, 1.000000000000000000, -0.000000000000000000 ) ) ;
#39 = VERTEX_POINT ( 'NONE', #81 ) ;
#40 = STYLED_ITEM ( 'NONE', ( #72 ), #160 ) ;
#41 =( CONVERSION_BASED_UNIT ( 'INCH', #129 ) LENGTH_UNIT ( ) NAMED_UNIT ( #209 ) );
#42 = VERTEX_POINT ( 'NONE', #158 ) ;
#43 = SURFACE_SIDE_STYLE ('',( #78 ) ) ;
#44 = ORIENTED_EDGE ( 'NONE', *, *, #116, .F. ) ;
#45 = VERTEX_POINT ( 'NONE', #124 ) ;
#46 = SURFACE_SIDE_STYLE ('',( #145 ) ) ;
#47 = APPLICATION_CONTEXT ( 'automotive_design' ) ;
#48 = DIRECTION ( 'NONE',  ( 0.000000000000000000, 1.000000000000000000, 0.000000000000000000 ) ) ;
#49 = AXIS2_PLACEMENT_3D ( 'NONE', #217, #171, #213 ) ;
#50 = LENGTH_MEASURE_WITH_UNIT ( LENGTH_MEASURE( 0.02539999999999999897 ), #13 );
#51 =( GEOMETRIC_REPRESENTATION_CONTEXT ( 3 ) GLOBAL_UNCERTAINTY_ASSIGNED_CONTEXT ( ( #96 ) ) GLOBAL_UNIT_ASSIGNED_CONTEXT ( ( #125, #123, #200 ) ) REPRESENTATION_CONTEXT ( 'NONE', 'WORKASPACE' ) );
#52 = PRESENTATION_LAYER_ASSIGNMENT (  '', '', ( #118 ) ) ;
#53 =( LENGTH_UNIT ( ) NAMED_UNIT ( * ) SI_UNIT ( $, .METRE. ) );
#54 = PRESENTATION_STYLE_ASSIGNMENT (( #17 ) ) ;
#55 = SURFACE_SIDE_STYLE ('',( #107 ) ) ;
#56 = DIRECTION ( 'NONE',  ( -1.252875704100928464E-16, 1.000000000000000000, -0.000000000000000000 ) ) ;
#57 = PRODUCT_DEFINITION_FORMATION_WITH_SPECIFIED_SOURCE ( 'ANY', '', #173, .NOT_KNOWN. ) ;
#58 = ORIENTED_EDGE ( 'NONE', *, *, #32, .T. ) ;
#59 = FILL_AREA_STYLE ('',( #62 ) ) ;
#60 = ORIENTED_EDGE ( 'NONE', *, *, #155, .F. ) ;
#61 = CARTESIAN_POINT ( 'NONE',  ( 3.061616997868382402E-17, 0.4330127018922180770, -0.2499999999999999722 ) ) ;
#62 = FILL_AREA_STYLE_COLOUR ( '', #27 ) ;
#63 = EDGE_CURVE ( 'NONE', #45, #224, #74, .T. ) ;
#64 = DIRECTION ( 'NONE',  ( -1.000000000000000000, 0.000000000000000000, 0.000000000000000000 ) ) ;
#65 = CARTESIAN_POINT ( 'NONE',  ( 0.000000000000000000, 0.000000000000000000, 0.000000000000000000 ) ) ;
#66 =( CONVERSION_BASED_UNIT ( 'INCH', #89 ) LENGTH_UNIT ( ) NAMED_UNIT ( #68 ) );
#67 = AXIS2_PLACEMENT_3D ( 'NONE', #256, #93, #137 ) ;
#68 = DIMENSIONAL_EXPONENTS ( 1.000000000000000000, 0.000000000000000000, 0.000000000000000000, 0.000000000000000000, 0.000000000000000000, 0.000000000000000000, 0.000000000000000000 ) ;
#69 = PRESENTATION_LAYER_ASSIGNMENT (  '', '', ( #233 ) ) ;
#70 = UNCERTAINTY_MEASURE_WITH_UNIT (LENGTH_MEASURE( 1.000000000000000082E-05 ), #41, 'distance_accuracy_value', 'NONE');
#71 = DIRECTION ( 'NONE',  ( -1.000000000000000000, 0.000000000000000000, 0.000000000000000000 ) ) ;
#72 = PRESENTATION_STYLE_ASSIGNMENT (( #100 ) ) ;
#73 =( GEOMETRIC_REPRESENTATION_CONTEXT ( 3 ) GLOBAL_UNCERTAINTY_ASSIGNED_CONTEXT ( ( #169 ) ) GLOBAL_UNIT_ASSIGNED_CONTEXT ( ( #66, #7, #131 ) ) REPRESENTATION_CONTEXT ( 'NONE', 'WORKASPACE' ) );
#74 = LINE ( 'NONE', #206, #95 ) ;
#75 = ORIENTED_EDGE ( 'NONE', *, *, #105, .F. ) ;
#76 = LENGTH_MEASURE_WITH_UNIT ( LENGTH_MEASURE( 0.02539999999999999897 ), #264 );
#77 = DIRECTION ( 'NONE',  ( -1.000000000000000000, -1.252875704100928464E-16, 0.000000000000000000 ) ) ;
#78 = SURFACE_STYLE_FILL_AREA ( #108 ) ;
#79 = MECHANICAL_DESIGN_GEOMETRIC_PRESENTATION_REPRESENTATION (  '', ( #237 ), #36 ) ;
#80 = EDGE_LOOP ( 'NONE', ( #156, #4 ) ) ;
#81 = CARTESIAN_POINT ( 'NONE',  ( 0.000000000000000000, 0.000000000000000000, 0.000000000000000000 ) ) ;
#82 = FACE_OUTER_BOUND ( 'NONE', #239, .T. ) ;
#83 = CARTESIAN_POINT ( 'NONE',  ( -6.123233995736770966E-17, 3.000000000000000444, 0.000000000000000000 ) ) ;
#84 = APPLICATION_CONTEXT ( 'automotive_design' ) ;
#85 = MECHANICAL_DESIGN_GEOMETRIC_PRESENTATION_REPRESENTATION (  '', ( #118 ), #102 ) ;
#86 = DIRECTION ( 'NONE',  ( -1.252875704100928464E-16, 1.000000000000000000, -0.000000000000000000 ) ) ;
#87 = ADVANCED_FACE ( 'NONE', ( #18 ), #244, .T. ) ;
#88 = CARTESIAN_POINT ( 'NONE',  ( -6.123233995736770966E-17, 3.000000000000000444, 0.000000000000000000 ) ) ;
#89 = LENGTH_MEASURE_WITH_UNIT ( LENGTH_MEASURE( 0.02539999999999999897 ), #186 );
#90 = MECHANICAL_DESIGN_GEOMETRIC_PRESENTATION_REPRESENTATION (  '', ( #254 ), #73 ) ;
#91 = ADVANCED_BREP_SHAPE_REPRESENTATION ( '06288', ( #162, #160, #238 ), #51 ) ;
#92 = PRODUCT_DEFINITION ( 'UNKNOWN', '', #57, #258 ) ;
#93 = DIRECTION ( 'NONE',  ( 0.000000000000000000, 1.000000000000000000, 0.000000000000000000 ) ) ;
#94 = PRESENTATION_STYLE_ASSIGNMENT (( #196 ) ) ;
#95 = VECTOR ( 'NONE', #122, 39.37007874015748143 ) ;
#96 = UNCERTAINTY_MEASURE_WITH_UNIT (LENGTH_MEASURE( 1.000000000000000082E-05 ), #125, 'distance_accuracy_value', 'NONE');
#97 = EDGE_CURVE ( 'NONE', #224, #42, #195, .T. ) ;
#98 = DIRECTION ( 'NONE',  ( -1.252875704100928464E-16, 1.000000000000000000, -0.000000000000000000 ) ) ;
#99 = FILL_AREA_STYLE ('',( #34 ) ) ;
#100 = SURFACE_STYLE_USAGE ( .BOTH. , #193 ) ;
#101 = EDGE_LOOP ( 'NONE', ( #161, #246, #20, #144 ) ) ;
#102 =( GEOMETRIC_REPRESENTATION_CONTEXT ( 3 ) GLOBAL_UNCERTAINTY_ASSIGNED_CONTEXT ( ( #70 ) ) GLOBAL_UNIT_ASSIGNED_CONTEXT ( ( #41, #157, #3 ) ) REPRESENTATION_CONTEXT ( 'NONE', 'WORKASPACE' ) );
#103 = ORIENTED_EDGE ( 'NONE', *, *, #63, .T. ) ;
#104 = DIRECTION ( 'NONE',  ( 0.000000000000000000, 0.000000000000000000, 1.000000000000000000 ) ) ;
#105 = EDGE_CURVE ( 'NONE', #39, #121, #112, .T. ) ;
#106 =( LENGTH_UNIT ( ) NAMED_UNIT ( * ) SI_UNIT ( $, .METRE. ) );
#107 = SURFACE_STYLE_FILL_AREA ( #247 ) ;
#108 = FILL_AREA_STYLE ('',( #159 ) ) ;
#109 = AXIS2_PLACEMENT_3D ( 'NONE', #187, #56, #5 ) ;
#110 = EDGE_LOOP ( 'NONE', ( #75, #198, #58 ) ) ;
#111 = DIRECTION ( 'NONE',  ( 0.000000000000000000, 0.000000000000000000, 1.000000000000000000 ) ) ;
#112 = LINE ( 'NONE', #189, #190 ) ;
#113 = CYLINDRICAL_SURFACE ( 'NONE', #183, 0.2499999999999998612 ) ;
#114 = DIRECTION ( 'NONE',  ( -1.252875704100928464E-16, 1.000000000000000000, -0.000000000000000000 ) ) ;
#115 = COLOUR_RGB ( '',1.000000000000000000, 0.000000000000000000, 0.000000000000000000 ) ;
#116 = EDGE_CURVE ( 'NONE', #140, #45, #15, .T. ) ;
#117 = SURFACE_STYLE_FILL_AREA ( #99 ) ;
#118 = STYLED_ITEM ( 'NONE', ( #185 ), #162 ) ;
#119 = DIRECTION ( 'NONE',  ( -1.000000000000000000, 0.000000000000000000, 0.000000000000000000 ) ) ;
#120 =( NAMED_UNIT ( * ) PLANE_ANGLE_UNIT ( ) SI_UNIT ( $, .RADIAN. ) );
#121 = VERTEX_POINT ( 'NONE', #147 ) ;
#122 = DIRECTION ( 'NONE',  ( -1.252875704100928464E-16, 1.000000000000000000, -0.000000000000000000 ) ) ;
#123 =( NAMED_UNIT ( * ) PLANE_ANGLE_UNIT ( ) SI_UNIT ( $, .RADIAN. ) );
#124 = CARTESIAN_POINT ( 'NONE',  ( -0.2499999999999994449, 0.4330127018922179105, 0.000000000000000000 ) ) ;
#125 =( CONVERSION_BASED_UNIT ( 'INCH', #76 ) LENGTH_UNIT ( ) NAMED_UNIT ( #211 ) );
#126 = CLOSED_SHELL ( 'NONE', ( #192, #251, #87 ) ) ;
#127 = AXIS2_PLACEMENT_3D ( 'NONE', #205, #229, #164 ) ;
#128 = CARTESIAN_POINT ( 'NONE',  ( 0.000000000000000000, 0.4330127018922180770, 0.000000000000000000 ) ) ;
#129 = LENGTH_MEASURE_WITH_UNIT ( LENGTH_MEASURE( 0.02539999999999999897 ), #245 );
#130 = DIRECTION ( 'NONE',  ( 0.000000000000000000, 0.000000000000000000, 1.000000000000000000 ) ) ;
#131 =( NAMED_UNIT ( * ) SI_UNIT ( $, .STERADIAN. ) SOLID_ANGLE_UNIT ( ) );
#132 = EDGE_CURVE ( 'NONE', #39, #163, #148, .T. ) ;
#133 = COLOUR_RGB ( '',0.7921568627450980005, 0.8196078431372548767, 0.9333333333333333481 ) ;
#134 = LINE ( 'NONE', #146, #2 ) ;
#135 =( NAMED_UNIT ( * ) SI_UNIT ( $, .STERADIAN. ) SOLID_ANGLE_UNIT ( ) );
#136 = PRODUCT_RELATED_PRODUCT_CATEGORY ( 'part', '', ( #173 ) ) ;
#137 = DIRECTION ( 'NONE',  ( 0.000000000000000000, -0.000000000000000000, 1.000000000000000000 ) ) ;
#138 = UNCERTAINTY_MEASURE_WITH_UNIT (LENGTH_MEASURE( 1.000000000000000082E-05 ), #240, 'distance_accuracy_value', 'NONE');
#139 = EDGE_CURVE ( 'NONE', #42, #224, #182, .T. ) ;
#140 = VERTEX_POINT ( 'NONE', #261 ) ;
#141 = MECHANICAL_DESIGN_GEOMETRIC_PRESENTATION_REPRESENTATION (  '', ( #40 ), #191 ) ;
#142 = ORIENTED_EDGE ( 'NONE', *, *, #143, .T. ) ;
#143 = EDGE_CURVE ( 'NONE', #121, #163, #166, .T. ) ;
#144 = ORIENTED_EDGE ( 'NONE', *, *, #63, .F. ) ;
#145 = SURFACE_STYLE_FILL_AREA ( #59 ) ;
#146 = CARTESIAN_POINT ( 'NONE',  ( 0.2499999999999998057, 3.000000000000000444, 3.061616997868381785E-17 ) ) ;
#147 = CARTESIAN_POINT ( 'NONE',  ( 0.000000000000000000, 0.4330127018922180770, 0.2499999999999999722 ) ) ;
#148 = LINE ( 'NONE', #65, #232 ) ;
#149 = AXIS2_PLACEMENT_3D ( 'NONE', #248, #6, #77 ) ;
#150 = DIRECTION ( 'NONE',  ( 0.000000000000000000, 1.000000000000000000, 0.000000000000000000 ) ) ;
#151 =( CONVERSION_BASED_UNIT ( 'INCH', #50 ) LENGTH_UNIT ( ) NAMED_UNIT ( #234 ) );
#152 = COLOUR_RGB ( '',0.7921568627450980005, 0.8196078431372548767, 0.9333333333333333481 ) ;
#153 = MECHANICAL_DESIGN_GEOMETRIC_PRESENTATION_REPRESENTATION (  '', ( #233 ), #22 ) ;
#154 = CARTESIAN_POINT ( 'NONE',  ( -6.123233995736772199E-17, 3.000000000000000444, 0.000000000000000000 ) ) ;
#155 = EDGE_CURVE ( 'NONE', #45, #140, #236, .T. ) ;
#156 = ORIENTED_EDGE ( 'NONE', *, *, #143, .F. ) ;
#157 =( NAMED_UNIT ( * ) PLANE_ANGLE_UNIT ( ) SI_UNIT ( $, .RADIAN. ) );
#158 = CARTESIAN_POINT ( 'NONE',  ( 0.2499999999999999722, 3.000000000000000444, 3.061616997868383018E-17 ) ) ;
#159 = FILL_AREA_STYLE_COLOUR ( '', #133 ) ;
#160 = MANIFOLD_SOLID_BREP ( 'Revolve - Tool Body (Pointed)', #175 ) ;
#161 = ORIENTED_EDGE ( 'NONE', *, *, #155, .T. ) ;
#162 = MANIFOLD_SOLID_BREP ( 'Revolve - Cutting Edge', #126 ) ;
#163 = VERTEX_POINT ( 'NONE', #61 ) ;
#164 = DIRECTION ( 'NONE',  ( 1.000000000000000000, 1.252875704100928464E-16, 0.000000000000000000 ) ) ;
#165 = ADVANCED_FACE ( 'NONE', ( #207 ), #23, .T. ) ;
#166 = CIRCLE ( 'NONE', #49, 0.2499999999999999722 ) ;
#167 = DIRECTION ( 'NONE',  ( -1.000000000000000000, 0.000000000000000000, 0.000000000000000000 ) ) ;
#168 = ADVANCED_FACE ( 'NONE', ( #82 ), #203, .F. ) ;
#169 = UNCERTAINTY_MEASURE_WITH_UNIT (LENGTH_MEASURE( 1.000000000000000082E-05 ), #66, 'distance_accuracy_value', 'NONE');
#170 = DIRECTION ( 'NONE',  ( -1.252875704100928464E-16, 1.000000000000000000, -0.000000000000000000 ) ) ;
#171 = DIRECTION ( 'NONE',  ( -0.000000000000000000, -1.000000000000000000, -0.000000000000000000 ) ) ;
#172 = FILL_AREA_STYLE_COLOUR ( '', #152 ) ;
#173 = PRODUCT ( '06288', '06288', '', ( #222 ) ) ;
#174 = PRESENTATION_STYLE_ASSIGNMENT (( #265 ) ) ;
#175 = CLOSED_SHELL ( 'NONE', ( #231, #178, #165, #168 ) ) ;
#176 = ORIENTED_EDGE ( 'NONE', *, *, #97, .T. ) ;
#177 = PLANE ( 'NONE',  #149 ) ;
#178 = ADVANCED_FACE ( 'NONE', ( #201 ), #177, .F. ) ;
#179 = CARTESIAN_POINT ( 'NONE',  ( 0.000000000000000000, 0.000000000000000000, 0.000000000000000000 ) ) ;
#180 = CARTESIAN_POINT ( 'NONE',  ( 0.000000000000000000, 39.37007874015748143, 0.000000000000000000 ) ) ;
#181 = ORIENTED_EDGE ( 'NONE', *, *, #132, .F. ) ;
#182 = CIRCLE ( 'NONE', #212, 0.2500000000000000555 ) ;
#183 = AXIS2_PLACEMENT_3D ( 'NONE', #154, #170, #11 ) ;
#184 = ORIENTED_EDGE ( 'NONE', *, *, #215, .F. ) ;
#185 = PRESENTATION_STYLE_ASSIGNMENT (( #24 ) ) ;
#186 =( LENGTH_UNIT ( ) NAMED_UNIT ( * ) SI_UNIT ( $, .METRE. ) );
#187 = CARTESIAN_POINT ( 'NONE',  ( -6.123233995736772199E-17, 3.000000000000000444, 0.000000000000000000 ) ) ;
#188 = DIMENSIONAL_EXPONENTS ( 1.000000000000000000, 0.000000000000000000, 0.000000000000000000, 0.000000000000000000, 0.000000000000000000, 0.000000000000000000, 0.000000000000000000 ) ;
#189 = CARTESIAN_POINT ( 'NONE',  ( 0.000000000000000000, 0.000000000000000000, 0.000000000000000000 ) ) ;
#190 = VECTOR ( 'NONE', #250, 39.37007874015748143 ) ;
#191 =( GEOMETRIC_REPRESENTATION_CONTEXT ( 3 ) GLOBAL_UNCERTAINTY_ASSIGNED_CONTEXT ( ( #138 ) ) GLOBAL_UNIT_ASSIGNED_CONTEXT ( ( #240, #227, #225 ) ) REPRESENTATION_CONTEXT ( 'NONE', 'WORKASPACE' ) );
#192 = ADVANCED_FACE ( 'NONE', ( #19 ), #255, .T. ) ;
#193 = SURFACE_SIDE_STYLE ('',( #14 ) ) ;
#194 = UNCERTAINTY_MEASURE_WITH_UNIT (LENGTH_MEASURE( 1.000000000000000082E-05 ), #151, 'distance_accuracy_value', 'NONE');
#195 = CIRCLE ( 'NONE', #257, 0.2500000000000000555 ) ;
#196 = SURFACE_STYLE_USAGE ( .BOTH. , #218 ) ;
#197 = FILL_AREA_STYLE ('',( #172 ) ) ;
#198 = ORIENTED_EDGE ( 'NONE', *, *, #132, .T. ) ;
#199 = AXIS2_PLACEMENT_3D ( 'NONE', #128, #226, #220 ) ;
#200 =( NAMED_UNIT ( * ) SI_UNIT ( $, .STERADIAN. ) SOLID_ANGLE_UNIT ( ) );
#201 = FACE_OUTER_BOUND ( 'NONE', #204, .T. ) ;
#202 = CARTESIAN_POINT ( 'NONE',  ( 0.000000000000000000, 39.37007874015748143, 0.000000000000000000 ) ) ;
#203 = PLANE ( 'NONE',  #127 ) ;
#204 = EDGE_LOOP ( 'NONE', ( #60, #44 ) ) ;
#205 = CARTESIAN_POINT ( 'NONE',  ( 0.2499999999999999722, 3.000000000000000444, 0.000000000000000000 ) ) ;
#206 = CARTESIAN_POINT ( 'NONE',  ( -0.2499999999999999167, 3.000000000000000444, 0.000000000000000000 ) ) ;
#207 = FACE_OUTER_BOUND ( 'NONE', #228, .T. ) ;
#208 = FILL_AREA_STYLE_COLOUR ( '', #216 ) ;
#209 = DIMENSIONAL_EXPONENTS ( 1.000000000000000000, 0.000000000000000000, 0.000000000000000000, 0.000000000000000000, 0.000000000000000000, 0.000000000000000000, 0.000000000000000000 ) ;
#210 = FACE_OUTER_BOUND ( 'NONE', #101, .T. ) ;
#211 = DIMENSIONAL_EXPONENTS ( 1.000000000000000000, 0.000000000000000000, 0.000000000000000000, 0.000000000000000000, 0.000000000000000000, 0.000000000000000000, 0.000000000000000000 ) ;
#212 = AXIS2_PLACEMENT_3D ( 'NONE', #88, #98, #71 ) ;
#213 = DIRECTION ( 'NONE',  ( 0.000000000000000000, 0.000000000000000000, -1.000000000000000000 ) ) ;
#214 = FACE_OUTER_BOUND ( 'NONE', #80, .T. ) ;
#215 = EDGE_CURVE ( 'NONE', #140, #42, #134, .T. ) ;
#216 = COLOUR_RGB ( '',1.000000000000000000, 0.000000000000000000, 0.000000000000000000 ) ;
#217 = CARTESIAN_POINT ( 'NONE',  ( 0.000000000000000000, 0.4330127018922180770, 0.000000000000000000 ) ) ;
#218 = SURFACE_SIDE_STYLE ('',( #117 ) ) ;
#219 = ORIENTED_EDGE ( 'NONE', *, *, #105, .T. ) ;
#220 = DIRECTION ( 'NONE',  ( 0.000000000000000000, 0.000000000000000000, -1.000000000000000000 ) ) ;
#221 = PRESENTATION_LAYER_ASSIGNMENT (  '', '', ( #40 ) ) ;
#222 = PRODUCT_CONTEXT ( 'NONE', #84, 'mechanical' ) ;
#223 =( CONVERSION_BASED_UNIT ( 'INCH', #242 ) LENGTH_UNIT ( ) NAMED_UNIT ( #188 ) );
#224 = VERTEX_POINT ( 'NONE', #230 ) ;
#225 =( NAMED_UNIT ( * ) SI_UNIT ( $, .STERADIAN. ) SOLID_ANGLE_UNIT ( ) );
#226 = DIRECTION ( 'NONE',  ( -0.000000000000000000, -1.000000000000000000, -0.000000000000000000 ) ) ;
#227 =( NAMED_UNIT ( * ) PLANE_ANGLE_UNIT ( ) SI_UNIT ( $, .RADIAN. ) );
#228 = EDGE_LOOP ( 'NONE', ( #184, #241, #103, #263 ) ) ;
#229 = DIRECTION ( 'NONE',  ( 1.252875704100928464E-16, -1.000000000000000000, 0.000000000000000000 ) ) ;
#230 = CARTESIAN_POINT ( 'NONE',  ( -0.2500000000000001110, 3.000000000000000444, 0.000000000000000000 ) ) ;
#231 = ADVANCED_FACE ( 'NONE', ( #210 ), #113, .T. ) ;
#232 = VECTOR ( 'NONE', #31, 39.37007874015748143 ) ;
#233 = STYLED_ITEM ( 'NONE', ( #94 ), #251 ) ;
#234 = DIMENSIONAL_EXPONENTS ( 1.000000000000000000, 0.000000000000000000, 0.000000000000000000, 0.000000000000000000, 0.000000000000000000, 0.000000000000000000, 0.000000000000000000 ) ;
#235 = LENGTH_MEASURE_WITH_UNIT ( LENGTH_MEASURE( 0.02539999999999999897 ), #53 );
#236 = CIRCLE ( 'NONE', #8, 0.2499999999999997224 ) ;
#237 = STYLED_ITEM ( 'NONE', ( #54 ), #192 ) ;
#238 = AXIS2_PLACEMENT_3D ( 'NONE', #179, #104, #21 ) ;
#239 = EDGE_LOOP ( 'NONE', ( #176, #243 ) ) ;
#240 =( CONVERSION_BASED_UNIT ( 'INCH', #235 ) LENGTH_UNIT ( ) NAMED_UNIT ( #253 ) );
#241 = ORIENTED_EDGE ( 'NONE', *, *, #116, .T. ) ;
#242 = LENGTH_MEASURE_WITH_UNIT ( LENGTH_MEASURE( 0.02539999999999999897 ), #106 );
#243 = ORIENTED_EDGE ( 'NONE', *, *, #139, .T. ) ;
#244 = CONICAL_SURFACE ( 'NONE', #262, 22.73032555864674364, 0.5235987755983000369 ) ;
#245 =( LENGTH_UNIT ( ) NAMED_UNIT ( * ) SI_UNIT ( $, .METRE. ) );
#246 = ORIENTED_EDGE ( 'NONE', *, *, #215, .T. ) ;
#247 = FILL_AREA_STYLE ('',( #208 ) ) ;
#248 = CARTESIAN_POINT ( 'NONE',  ( 2.603792618961250911E-16, 0.4330127018922180770, 0.000000000000000000 ) ) ;
#249 = DIRECTION ( 'NONE',  ( -1.252875704100928464E-16, 1.000000000000000000, -0.000000000000000000 ) ) ;
#250 = DIRECTION ( 'NONE',  ( 0.000000000000000000, 0.8660254037844380415, 0.5000000000000009992 ) ) ;
#251 = ADVANCED_FACE ( 'NONE', ( #214 ), #259, .T. ) ;
#252 = SHAPE_DEFINITION_REPRESENTATION ( #12, #91 ) ;
#253 = DIMENSIONAL_EXPONENTS ( 1.000000000000000000, 0.000000000000000000, 0.000000000000000000, 0.000000000000000000, 0.000000000000000000, 0.000000000000000000, 0.000000000000000000 ) ;
#254 = STYLED_ITEM ( 'NONE', ( #174 ), #87 ) ;
#255 = CONICAL_SURFACE ( 'NONE', #9, 22.73032555864674364, 0.5235987755983000369 ) ;
#256 = CARTESIAN_POINT ( 'NONE',  ( 0.000000000000000000, 0.4330127018922180770, 0.000000000000000000 ) ) ;
#257 = AXIS2_PLACEMENT_3D ( 'NONE', #83, #249, #64 ) ;
#258 = PRODUCT_DEFINITION_CONTEXT ( 'detailed design', #47, 'design' ) ;
#259 = PLANE ( 'NONE',  #67 ) ;
#260 = CARTESIAN_POINT ( 'NONE',  ( 2.603792618961250418E-16, 0.4330127018922179105, 0.000000000000000000 ) ) ;
#261 = CARTESIAN_POINT ( 'NONE',  ( 0.2500000000000000000, 0.4330127018922179105, 3.061616997868383018E-17 ) ) ;
#262 = AXIS2_PLACEMENT_3D ( 'NONE', #202, #48, #111 ) ;
#263 = ORIENTED_EDGE ( 'NONE', *, *, #139, .F. ) ;
#264 =( LENGTH_UNIT ( ) NAMED_UNIT ( * ) SI_UNIT ( $, .METRE. ) );
#265 = SURFACE_STYLE_USAGE ( .BOTH. , #55 ) ;
ENDSEC;
END-ISO-10303-21;
