ISO-10303-21;
HEADER;
FILE_DESCRIPTION (( 'STEP AP214' ),
    '1' );
FILE_NAME ('84608.STEP',
    '2023-07-12T13:11:07',
    ( '' ),
    ( '' ),
    'SwSTEP 2.0',
    'SolidWorks 2023',
    '' );
FILE_SCHEMA (( 'AUTOMOTIVE_DESIGN' ));
ENDSEC;

DATA;
#1 = SURFACE_SIDE_STYLE ('',( #91 ) ) ;
#2 = SURFACE_STYLE_FILL_AREA ( #202 ) ;
#3 = PRODUCT_RELATED_PRODUCT_CATEGORY ( 'part', '', ( #85 ) ) ;
#4 =( NAMED_UNIT ( * ) PLANE_ANGLE_UNIT ( ) SI_UNIT ( $, .RADIAN. ) );
#5 = UNCERTAINTY_MEASURE_WITH_UNIT (LENGTH_MEASURE( 1.000000000000000082E-05 ), #161, 'distance_accuracy_value', 'NONE');
#6 = CARTESIAN_POINT ( 'NONE',  ( 6.385105040622814365E-68, -4.727353132798506525E-35, 0.000000000000000000 ) ) ;
#7 = CARTESIAN_POINT ( 'NONE',  ( -0.03500000000000000333, -9.454706265597013051E-35, 0.000000000000000000 ) ) ;
#8 = CIRCLE ( 'NONE', #245, 0.1874999999999999722 ) ;
#9 = VECTOR ( 'NONE', #104, 39.37007874015748143 ) ;
#10 = EDGE_LOOP ( 'NONE', ( #14, #74 ) ) ;
#11 = PRESENTATION_STYLE_ASSIGNMENT (( #144 ) ) ;
#12 = ADVANCED_FACE ( 'NONE', ( #100 ), #170, .T. ) ;
#13 = DIRECTION ( 'NONE',  ( -1.000000000000000000, 0.000000000000000000, 0.000000000000000000 ) ) ;
#14 = ORIENTED_EDGE ( 'NONE', *, *, #258, .F. ) ;
#15 =( GEOMETRIC_REPRESENTATION_CONTEXT ( 3 ) GLOBAL_UNCERTAINTY_ASSIGNED_CONTEXT ( ( #173 ) ) GLOBAL_UNIT_ASSIGNED_CONTEXT ( ( #130, #4, #208 ) ) REPRESENTATION_CONTEXT ( 'NONE', 'WORKASPACE' ) );
#16 = VERTEX_POINT ( 'NONE', #300 ) ;
#17 = SURFACE_SIDE_STYLE ('',( #295 ) ) ;
#18 = CARTESIAN_POINT ( 'NONE',  ( 3.192552520311407182E-68, -2.363676566399253263E-35, 0.000000000000000000 ) ) ;
#19 =( GEOMETRIC_REPRESENTATION_CONTEXT ( 3 ) GLOBAL_UNCERTAINTY_ASSIGNED_CONTEXT ( ( #68 ) ) GLOBAL_UNIT_ASSIGNED_CONTEXT ( ( #50, #169, #241 ) ) REPRESENTATION_CONTEXT ( 'NONE', 'WORKASPACE' ) );
#20 = CARTESIAN_POINT ( 'NONE',  ( 6.385105040622814365E-68, -4.727353132798506525E-35, 0.000000000000000000 ) ) ;
#21 = DIRECTION ( 'NONE',  ( -9.417729399688030957E-17, 1.000000000000000000, 0.000000000000000000 ) ) ;
#22 = DIRECTION ( 'NONE',  ( 9.417729399688030957E-17, -1.000000000000000000, 0.000000000000000000 ) ) ;
#23 =( LENGTH_UNIT ( ) NAMED_UNIT ( * ) SI_UNIT ( $, .METRE. ) );
#24 = DIRECTION ( 'NONE',  ( -1.350672323656716052E-33, 1.000000000000000000, 0.000000000000000000 ) ) ;
#25 = MECHANICAL_DESIGN_GEOMETRIC_PRESENTATION_REPRESENTATION (  '', ( #80 ), #15 ) ;
#26 =( LENGTH_UNIT ( ) NAMED_UNIT ( * ) SI_UNIT ( $, .METRE. ) );
#27 = EDGE_CURVE ( 'NONE', #58, #16, #8, .T. ) ;
#28 = CARTESIAN_POINT ( 'NONE',  ( 2.801539409366032693E-16, 0.1754311821012033978, 0.000000000000000000 ) ) ;
#29 = STYLED_ITEM ( 'NONE', ( #237 ), #153 ) ;
#30 = SURFACE_STYLE_USAGE ( .BOTH. , #17 ) ;
#31 = PRODUCT_DEFINITION ( 'UNKNOWN', '', #38, #270 ) ;
#32 = ORIENTED_EDGE ( 'NONE', *, *, #27, .F. ) ;
#33 =( GEOMETRIC_REPRESENTATION_CONTEXT ( 3 ) GLOBAL_UNCERTAINTY_ASSIGNED_CONTEXT ( ( #5 ) ) GLOBAL_UNIT_ASSIGNED_CONTEXT ( ( #161, #263, #115 ) ) REPRESENTATION_CONTEXT ( 'NONE', 'WORKASPACE' ) );
#34 = CARTESIAN_POINT ( 'NONE',  ( 6.123233995736772199E-17, 2.500000000000000000, 0.000000000000000000 ) ) ;
#35 = ORIENTED_EDGE ( 'NONE', *, *, #103, .F. ) ;
#36 = VERTEX_POINT ( 'NONE', #79 ) ;
#37 = ORIENTED_EDGE ( 'NONE', *, *, #48, .T. ) ;
#38 = PRODUCT_DEFINITION_FORMATION_WITH_SPECIFIED_SOURCE ( 'ANY', '', #85, .NOT_KNOWN. ) ;
#39 = LENGTH_MEASURE_WITH_UNIT ( LENGTH_MEASURE( 0.02539999999999999897 ), #152 );
#40 = LINE ( 'NONE', #66, #147 ) ;
#41 = DIRECTION ( 'NONE',  ( -9.417729399688032190E-17, 1.000000000000000000, -0.000000000000000000 ) ) ;
#42 = ADVANCED_FACE ( 'NONE', ( #277 ), #123, .T. ) ;
#43 = MECHANICAL_DESIGN_GEOMETRIC_PRESENTATION_REPRESENTATION (  '', ( #180 ), #19 ) ;
#44 = PLANE ( 'NONE',  #179 ) ;
#45 = DIRECTION ( 'NONE',  ( 1.350672323656716052E-33, -1.000000000000000000, -0.000000000000000000 ) ) ;
#46 = VECTOR ( 'NONE', #94, 39.37007874015748143 ) ;
#47 = AXIS2_PLACEMENT_3D ( 'NONE', #6, #289, #210 ) ;
#48 = EDGE_CURVE ( 'NONE', #36, #124, #40, .T. ) ;
#49 = SURFACE_SIDE_STYLE ('',( #187 ) ) ;
#50 =( CONVERSION_BASED_UNIT ( 'INCH', #216 ) LENGTH_UNIT ( ) NAMED_UNIT ( #166 ) );
#51 = ORIENTED_EDGE ( 'NONE', *, *, #198, .F. ) ;
#52 = PRESENTATION_LAYER_ASSIGNMENT (  '', '', ( #193 ) ) ;
#53 = DIMENSIONAL_EXPONENTS ( 1.000000000000000000, 0.000000000000000000, 0.000000000000000000, 0.000000000000000000, 0.000000000000000000, 0.000000000000000000, 0.000000000000000000 ) ;
#54 = FACE_OUTER_BOUND ( 'NONE', #107, .T. ) ;
#55 = SURFACE_STYLE_FILL_AREA ( #271 ) ;
#56 = EDGE_CURVE ( 'NONE', #294, #124, #253, .T. ) ;
#57 =( NAMED_UNIT ( * ) SI_UNIT ( $, .STERADIAN. ) SOLID_ANGLE_UNIT ( ) );
#58 = VERTEX_POINT ( 'NONE', #260 ) ;
#59 = EDGE_CURVE ( 'NONE', #124, #294, #296, .T. ) ;
#60 = DIRECTION ( 'NONE',  ( -1.000000000000000000, 0.000000000000000000, 0.000000000000000000 ) ) ;
#61 = DIRECTION ( 'NONE',  ( -9.417729399688030957E-17, 1.000000000000000000, -0.000000000000000000 ) ) ;
#62 = LINE ( 'NONE', #126, #9 ) ;
#63 = UNCERTAINTY_MEASURE_WITH_UNIT (LENGTH_MEASURE( 1.000000000000000082E-05 ), #84, 'distance_accuracy_value', 'NONE');
#64 = SURFACE_SIDE_STYLE ('',( #55 ) ) ;
#65 = FILL_AREA_STYLE_COLOUR ( '', #262 ) ;
#66 = CARTESIAN_POINT ( 'NONE',  ( 0.1874999999999998890, 2.500000000000000000, 2.296212748401284952E-17 ) ) ;
#67 = MECHANICAL_DESIGN_GEOMETRIC_PRESENTATION_REPRESENTATION (  '', ( #303 ), #222 ) ;
#68 = UNCERTAINTY_MEASURE_WITH_UNIT (LENGTH_MEASURE( 1.000000000000000082E-05 ), #50, 'distance_accuracy_value', 'NONE');
#69 = DIRECTION ( 'NONE',  ( -1.000000000000000000, -1.821231995776178437E-16, 0.000000000000000000 ) ) ;
#70 = DIRECTION ( 'NONE',  ( -1.000000000000000000, 0.000000000000000000, 0.000000000000000000 ) ) ;
#71 = AXIS2_PLACEMENT_3D ( 'NONE', #137, #119, #13 ) ;
#72 = ORIENTED_EDGE ( 'NONE', *, *, #305, .F. ) ;
#73 = DIRECTION ( 'NONE',  ( 1.000000000000000000, 1.350672323656716052E-33, 0.000000000000000000 ) ) ;
#74 = ORIENTED_EDGE ( 'NONE', *, *, #155, .F. ) ;
#75 = ORIENTED_EDGE ( 'NONE', *, *, #258, .T. ) ;
#76 = CARTESIAN_POINT ( 'NONE',  ( -2.369500423704768587E-34, 0.1754311821012033978, 0.000000000000000000 ) ) ;
#77 = DIMENSIONAL_EXPONENTS ( 1.000000000000000000, 0.000000000000000000, 0.000000000000000000, 0.000000000000000000, 0.000000000000000000, 0.000000000000000000, 0.000000000000000000 ) ;
#78 = EDGE_CURVE ( 'NONE', #136, #174, #157, .T. ) ;
#79 = CARTESIAN_POINT ( 'NONE',  ( 0.1874999999999999722, 0.1754311821012034256, 2.296212748401286185E-17 ) ) ;
#80 = STYLED_ITEM ( 'NONE', ( #285 ), #86 ) ;
#81 = ORIENTED_EDGE ( 'NONE', *, *, #78, .T. ) ;
#82 = EDGE_LOOP ( 'NONE', ( #51, #246, #244, #35 ) ) ;
#83 = APPLICATION_PROTOCOL_DEFINITION ( 'draft international standard', 'automotive_design', 1998, #307 ) ;
#84 =( CONVERSION_BASED_UNIT ( 'INCH', #183 ) LENGTH_UNIT ( ) NAMED_UNIT ( #218 ) );
#85 = PRODUCT ( '84608', '84608', '', ( #309 ) ) ;
#86 = ADVANCED_FACE ( 'NONE', ( #306 ), #44, .T. ) ;
#87 = PRESENTATION_STYLE_ASSIGNMENT (( #108 ) ) ;
#88 = CIRCLE ( 'NONE', #47, 0.03500000000000000333 ) ;
#89 = DIRECTION ( 'NONE',  ( -1.000000000000000000, 0.000000000000000000, 0.000000000000000000 ) ) ;
#90 = DIRECTION ( 'NONE',  ( -1.000000000000000000, -9.417729399688030957E-17, 0.000000000000000000 ) ) ;
#91 = SURFACE_STYLE_FILL_AREA ( #206 ) ;
#92 =( NAMED_UNIT ( * ) PLANE_ANGLE_UNIT ( ) SI_UNIT ( $, .RADIAN. ) );
#93 = CARTESIAN_POINT ( 'NONE',  ( 6.123233995736772199E-17, 2.500000000000000000, 0.000000000000000000 ) ) ;
#94 = DIRECTION ( 'NONE',  ( -0.6560590289905083861, 0.7547095802227710148, 0.000000000000000000 ) ) ;
#95 = CIRCLE ( 'NONE', #264, 0.1874999999999996947 ) ;
#96 = PRESENTATION_STYLE_ASSIGNMENT (( #30 ) ) ;
#97 = FACE_OUTER_BOUND ( 'NONE', #163, .T. ) ;
#98 = STYLED_ITEM ( 'NONE', ( #254 ), #42 ) ;
#99 = DIRECTION ( 'NONE',  ( 1.350672323656716052E-33, -1.000000000000000000, -0.000000000000000000 ) ) ;
#100 = FACE_OUTER_BOUND ( 'NONE', #118, .T. ) ;
#101 =( CONVERSION_BASED_UNIT ( 'INCH', #273 ) LENGTH_UNIT ( ) NAMED_UNIT ( #272 ) );
#102 = DIRECTION ( 'NONE',  ( 1.350672323656716052E-33, -1.000000000000000000, -0.000000000000000000 ) ) ;
#103 = EDGE_CURVE ( 'NONE', #136, #16, #132, .T. ) ;
#104 = DIRECTION ( 'NONE',  ( 0.6560590289905083861, 0.7547095802227710148, 8.034405899049467357E-17 ) ) ;
#105 = AXIS2_PLACEMENT_3D ( 'NONE', #34, #176, #60 ) ;
#106 =( NAMED_UNIT ( * ) SI_UNIT ( $, .STERADIAN. ) SOLID_ANGLE_UNIT ( ) );
#107 = EDGE_LOOP ( 'NONE', ( #81, #251 ) ) ;
#108 = SURFACE_STYLE_USAGE ( .BOTH. , #156 ) ;
#109 =( CONVERSION_BASED_UNIT ( 'INCH', #39 ) LENGTH_UNIT ( ) NAMED_UNIT ( #299 ) );
#110 = CARTESIAN_POINT ( 'NONE',  ( 6.123233995736772199E-17, 2.500000000000000000, 0.000000000000000000 ) ) ;
#111 = AXIS2_PLACEMENT_3D ( 'NONE', #125, #45, #112 ) ;
#112 = DIRECTION ( 'NONE',  ( 1.000000000000000000, 1.350672323656716052E-33, 0.000000000000000000 ) ) ;
#113 = AXIS2_PLACEMENT_3D ( 'NONE', #93, #231, #70 ) ;
#114 = AXIS2_PLACEMENT_3D ( 'NONE', #189, #240, #69 ) ;
#115 =( NAMED_UNIT ( * ) SI_UNIT ( $, .STERADIAN. ) SOLID_ANGLE_UNIT ( ) );
#116 = ADVANCED_FACE ( 'NONE', ( #290 ), #207, .F. ) ;
#117 = DIMENSIONAL_EXPONENTS ( 1.000000000000000000, 0.000000000000000000, 0.000000000000000000, 0.000000000000000000, 0.000000000000000000, 0.000000000000000000, 0.000000000000000000 ) ;
#118 = EDGE_LOOP ( 'NONE', ( #75, #37, #162, #72 ) ) ;
#119 = DIRECTION ( 'NONE',  ( -9.417729399688032190E-17, 1.000000000000000000, -0.000000000000000000 ) ) ;
#120 = CARTESIAN_POINT ( 'NONE',  ( -2.369500423704768587E-34, 0.1754311821012033978, 0.000000000000000000 ) ) ;
#121 = EDGE_LOOP ( 'NONE', ( #266, #143, #275, #211 ) ) ;
#122 = APPLICATION_PROTOCOL_DEFINITION ( 'draft international standard', 'automotive_design', 1998, #188 ) ;
#123 = CONICAL_SURFACE ( 'NONE', #213, 0.03500000000000000333, 0.7155849933176765543 ) ;
#124 = VERTEX_POINT ( 'NONE', #205 ) ;
#125 = CARTESIAN_POINT ( 'NONE',  ( 6.385105040622814365E-68, -4.727353132798506525E-35, 0.000000000000000000 ) ) ;
#126 = CARTESIAN_POINT ( 'NONE',  ( 0.03500000000000000333, 0.000000000000000000, 4.286263797015735979E-18 ) ) ;
#127 = FILL_AREA_STYLE_COLOUR ( '', #151 ) ;
#128 = CARTESIAN_POINT ( 'NONE',  ( 0.1874999999999999722, 2.500000000000000000, 0.000000000000000000 ) ) ;
#129 = AXIS2_PLACEMENT_3D ( 'NONE', #284, #236, #135 ) ;
#130 =( CONVERSION_BASED_UNIT ( 'INCH', #288 ) LENGTH_UNIT ( ) NAMED_UNIT ( #53 ) );
#131 =( NAMED_UNIT ( * ) PLANE_ANGLE_UNIT ( ) SI_UNIT ( $, .RADIAN. ) );
#132 = LINE ( 'NONE', #7, #46 ) ;
#133 = PRESENTATION_LAYER_ASSIGNMENT (  '', '', ( #98 ) ) ;
#134 = MECHANICAL_DESIGN_GEOMETRIC_PRESENTATION_REPRESENTATION (  '', ( #29 ), #33 ) ;
#135 = DIRECTION ( 'NONE',  ( -1.000000000000000000, -1.350672323656716052E-33, 0.000000000000000000 ) ) ;
#136 = VERTEX_POINT ( 'NONE', #287 ) ;
#137 = CARTESIAN_POINT ( 'NONE',  ( 6.123233995736772199E-17, 2.500000000000000000, 0.000000000000000000 ) ) ;
#138 = EDGE_LOOP ( 'NONE', ( #220, #196 ) ) ;
#139 = MECHANICAL_DESIGN_GEOMETRIC_PRESENTATION_REPRESENTATION (  '', ( #98 ), #292 ) ;
#140 = PRESENTATION_LAYER_ASSIGNMENT (  '', '', ( #180 ) ) ;
#141 = ADVANCED_FACE ( 'NONE', ( #280 ), #268, .T. ) ;
#142 = DIRECTION ( 'NONE',  ( -9.417729399688032190E-17, 1.000000000000000000, -0.000000000000000000 ) ) ;
#143 = ORIENTED_EDGE ( 'NONE', *, *, #78, .F. ) ;
#144 = SURFACE_STYLE_USAGE ( .BOTH. , #248 ) ;
#145 = FILL_AREA_STYLE_COLOUR ( '', #181 ) ;
#146 = EDGE_LOOP ( 'NONE', ( #149, #32 ) ) ;
#147 = VECTOR ( 'NONE', #61, 39.37007874015748143 ) ;
#148 = DIRECTION ( 'NONE',  ( 1.350672323656716052E-33, -1.000000000000000000, -0.000000000000000000 ) ) ;
#149 = ORIENTED_EDGE ( 'NONE', *, *, #276, .F. ) ;
#150 =( NAMED_UNIT ( * ) SI_UNIT ( $, .STERADIAN. ) SOLID_ANGLE_UNIT ( ) );
#151 = COLOUR_RGB ( '',1.000000000000000000, 0.000000000000000000, 0.000000000000000000 ) ;
#152 =( LENGTH_UNIT ( ) NAMED_UNIT ( * ) SI_UNIT ( $, .METRE. ) );
#153 = MANIFOLD_SOLID_BREP ( 'Revolve - Tool Body (Tipped Off)', #232 ) ;
#154 = DIRECTION ( 'NONE',  ( -1.350672323656716052E-33, 1.000000000000000000, 0.000000000000000000 ) ) ;
#155 = EDGE_CURVE ( 'NONE', #36, #226, #242, .T. ) ;
#156 = SURFACE_SIDE_STYLE ('',( #2 ) ) ;
#157 = CIRCLE ( 'NONE', #111, 0.03500000000000000333 ) ;
#158 = CIRCLE ( 'NONE', #204, 0.1874999999999999722 ) ;
#159 =( LENGTH_UNIT ( ) NAMED_UNIT ( * ) SI_UNIT ( $, .METRE. ) );
#160 = FILL_AREA_STYLE ('',( #261 ) ) ;
#161 =( CONVERSION_BASED_UNIT ( 'INCH', #259 ) LENGTH_UNIT ( ) NAMED_UNIT ( #77 ) );
#162 = ORIENTED_EDGE ( 'NONE', *, *, #56, .F. ) ;
#163 = EDGE_LOOP ( 'NONE', ( #297, #199, #225, #304 ) ) ;
#164 = AXIS2_PLACEMENT_3D ( 'NONE', #128, #22, #256 ) ;
#165 = DIRECTION ( 'NONE',  ( 1.000000000000000000, 0.000000000000000000, 0.000000000000000000 ) ) ;
#166 = DIMENSIONAL_EXPONENTS ( 1.000000000000000000, 0.000000000000000000, 0.000000000000000000, 0.000000000000000000, 0.000000000000000000, 0.000000000000000000, 0.000000000000000000 ) ;
#167 = FILL_AREA_STYLE_COLOUR ( '', #267 ) ;
#168 = CYLINDRICAL_SURFACE ( 'NONE', #71, 0.1874999999999998057 ) ;
#169 =( NAMED_UNIT ( * ) PLANE_ANGLE_UNIT ( ) SI_UNIT ( $, .RADIAN. ) );
#170 = CYLINDRICAL_SURFACE ( 'NONE', #105, 0.1874999999999998057 ) ;
#171 = AXIS2_PLACEMENT_3D ( 'NONE', #110, #41, #89 ) ;
#172 = COLOUR_RGB ( '',0.7921568627450980005, 0.8196078431372548767, 0.9333333333333333481 ) ;
#173 = UNCERTAINTY_MEASURE_WITH_UNIT (LENGTH_MEASURE( 1.000000000000000082E-05 ), #130, 'distance_accuracy_value', 'NONE');
#174 = VERTEX_POINT ( 'NONE', #234 ) ;
#175 = CARTESIAN_POINT ( 'NONE',  ( 2.801539409366032200E-16, 0.1754311821012033978, 0.000000000000000000 ) ) ;
#176 = DIRECTION ( 'NONE',  ( -9.417729399688032190E-17, 1.000000000000000000, -0.000000000000000000 ) ) ;
#177 = UNCERTAINTY_MEASURE_WITH_UNIT (LENGTH_MEASURE( 1.000000000000000082E-05 ), #109, 'distance_accuracy_value', 'NONE');
#178 = SURFACE_STYLE_USAGE ( .BOTH. , #1 ) ;
#179 = AXIS2_PLACEMENT_3D ( 'NONE', #235, #24, #209 ) ;
#180 = STYLED_ITEM ( 'NONE', ( #11 ), #212 ) ;
#181 = COLOUR_RGB ( '',1.000000000000000000, 0.000000000000000000, 0.000000000000000000 ) ;
#182 = CARTESIAN_POINT ( 'NONE',  ( -0.1874999999999998335, 2.500000000000000000, 0.000000000000000000 ) ) ;
#183 = LENGTH_MEASURE_WITH_UNIT ( LENGTH_MEASURE( 0.02539999999999999897 ), #159 );
#184 = LINE ( 'NONE', #279, #214 ) ;
#185 =( LENGTH_UNIT ( ) NAMED_UNIT ( * ) SI_UNIT ( $, .METRE. ) );
#186 = COLOUR_RGB ( '',0.7921568627450980005, 0.8196078431372548767, 0.9333333333333333481 ) ;
#187 = SURFACE_STYLE_FILL_AREA ( #160 ) ;
#188 = APPLICATION_CONTEXT ( 'automotive_design' ) ;
#189 = CARTESIAN_POINT ( 'NONE',  ( 2.801539409366032693E-16, 0.1754311821012033978, 0.000000000000000000 ) ) ;
#190 = CLOSED_SHELL ( 'NONE', ( #42, #86, #141, #212 ) ) ;
#191 =( GEOMETRIC_REPRESENTATION_CONTEXT ( 3 ) GLOBAL_UNCERTAINTY_ASSIGNED_CONTEXT ( ( #250 ) ) GLOBAL_UNIT_ASSIGNED_CONTEXT ( ( #101, #195, #57 ) ) REPRESENTATION_CONTEXT ( 'NONE', 'WORKASPACE' ) );
#192 = FILL_AREA_STYLE ('',( #243 ) ) ;
#193 = STYLED_ITEM ( 'NONE', ( #96 ), #274 ) ;
#194 = DIRECTION ( 'NONE',  ( -1.000000000000000000, -1.821231995776178437E-16, 0.000000000000000000 ) ) ;
#195 =( NAMED_UNIT ( * ) PLANE_ANGLE_UNIT ( ) SI_UNIT ( $, .RADIAN. ) );
#196 = ORIENTED_EDGE ( 'NONE', *, *, #59, .T. ) ;
#197 = PRESENTATION_LAYER_ASSIGNMENT (  '', '', ( #80 ) ) ;
#198 = EDGE_CURVE ( 'NONE', #174, #136, #88, .T. ) ;
#199 = ORIENTED_EDGE ( 'NONE', *, *, #155, .T. ) ;
#200 = LENGTH_MEASURE_WITH_UNIT ( LENGTH_MEASURE( 0.02539999999999999897 ), #23 );
#201 = SHAPE_DEFINITION_REPRESENTATION ( #230, #223 ) ;
#202 = FILL_AREA_STYLE ('',( #65 ) ) ;
#203 = SURFACE_STYLE_USAGE ( .BOTH. , #64 ) ;
#204 = AXIS2_PLACEMENT_3D ( 'NONE', #76, #102, #165 ) ;
#205 = CARTESIAN_POINT ( 'NONE',  ( 0.1874999999999999722, 2.500000000000000000, 2.296212748401286185E-17 ) ) ;
#206 = FILL_AREA_STYLE ('',( #127 ) ) ;
#207 = PLANE ( 'NONE',  #219 ) ;
#208 =( NAMED_UNIT ( * ) SI_UNIT ( $, .STERADIAN. ) SOLID_ANGLE_UNIT ( ) );
#209 = DIRECTION ( 'NONE',  ( -1.000000000000000000, -1.350672323656716052E-33, 0.000000000000000000 ) ) ;
#210 = DIRECTION ( 'NONE',  ( 1.000000000000000000, 1.350672323656716052E-33, 0.000000000000000000 ) ) ;
#211 = ORIENTED_EDGE ( 'NONE', *, *, #276, .T. ) ;
#212 = ADVANCED_FACE ( 'NONE', ( #54 ), #269, .T. ) ;
#213 = AXIS2_PLACEMENT_3D ( 'NONE', #20, #154, #255 ) ;
#214 = VECTOR ( 'NONE', #229, 39.37007874015748143 ) ;
#215 = FACE_OUTER_BOUND ( 'NONE', #138, .T. ) ;
#216 = LENGTH_MEASURE_WITH_UNIT ( LENGTH_MEASURE( 0.02539999999999999897 ), #293 );
#217 = SURFACE_STYLE_FILL_AREA ( #265 ) ;
#218 = DIMENSIONAL_EXPONENTS ( 1.000000000000000000, 0.000000000000000000, 0.000000000000000000, 0.000000000000000000, 0.000000000000000000, 0.000000000000000000, 0.000000000000000000 ) ;
#219 = AXIS2_PLACEMENT_3D ( 'NONE', #175, #21, #90 ) ;
#220 = ORIENTED_EDGE ( 'NONE', *, *, #56, .T. ) ;
#221 = ADVANCED_FACE ( 'NONE', ( #97 ), #168, .T. ) ;
#222 =( GEOMETRIC_REPRESENTATION_CONTEXT ( 3 ) GLOBAL_UNCERTAINTY_ASSIGNED_CONTEXT ( ( #286 ) ) GLOBAL_UNIT_ASSIGNED_CONTEXT ( ( #257, #131, #106 ) ) REPRESENTATION_CONTEXT ( 'NONE', 'WORKASPACE' ) );
#223 = ADVANCED_BREP_SHAPE_REPRESENTATION ( '84608', ( #274, #153, #308 ), #247 ) ;
#224 = PLANE ( 'NONE',  #164 ) ;
#225 = ORIENTED_EDGE ( 'NONE', *, *, #305, .T. ) ;
#226 = VERTEX_POINT ( 'NONE', #302 ) ;
#227 = MECHANICAL_DESIGN_GEOMETRIC_PRESENTATION_REPRESENTATION (  '', ( #193 ), #191 ) ;
#228 =( NAMED_UNIT ( * ) PLANE_ANGLE_UNIT ( ) SI_UNIT ( $, .RADIAN. ) );
#229 = DIRECTION ( 'NONE',  ( -9.417729399688030957E-17, 1.000000000000000000, -0.000000000000000000 ) ) ;
#230 = PRODUCT_DEFINITION_SHAPE ( 'NONE', 'NONE',  #31 ) ;
#231 = DIRECTION ( 'NONE',  ( -9.417729399688032190E-17, 1.000000000000000000, -0.000000000000000000 ) ) ;
#232 = CLOSED_SHELL ( 'NONE', ( #12, #116, #221, #282 ) ) ;
#233 = PRESENTATION_LAYER_ASSIGNMENT (  '', '', ( #29 ) ) ;
#234 = CARTESIAN_POINT ( 'NONE',  ( 0.03500000000000000333, 0.000000000000000000, 1.362419564051430200E-17 ) ) ;
#235 = CARTESIAN_POINT ( 'NONE',  ( -2.369500423704768587E-34, 0.1754311821012033978, 0.000000000000000000 ) ) ;
#236 = DIRECTION ( 'NONE',  ( -1.350672323656716052E-33, 1.000000000000000000, 0.000000000000000000 ) ) ;
#237 = PRESENTATION_STYLE_ASSIGNMENT (( #239 ) ) ;
#238 = AXIS2_PLACEMENT_3D ( 'NONE', #18, #99, #73 ) ;
#239 = SURFACE_STYLE_USAGE ( .BOTH. , #49 ) ;
#240 = DIRECTION ( 'NONE',  ( -9.417729399688032190E-17, 1.000000000000000000, -0.000000000000000000 ) ) ;
#241 =( NAMED_UNIT ( * ) SI_UNIT ( $, .STERADIAN. ) SOLID_ANGLE_UNIT ( ) );
#242 = CIRCLE ( 'NONE', #114, 0.1874999999999996947 ) ;
#243 = FILL_AREA_STYLE_COLOUR ( '', #186 ) ;
#244 = ORIENTED_EDGE ( 'NONE', *, *, #27, .T. ) ;
#245 = AXIS2_PLACEMENT_3D ( 'NONE', #120, #148, #301 ) ;
#246 = ORIENTED_EDGE ( 'NONE', *, *, #291, .T. ) ;
#247 =( GEOMETRIC_REPRESENTATION_CONTEXT ( 3 ) GLOBAL_UNCERTAINTY_ASSIGNED_CONTEXT ( ( #177 ) ) GLOBAL_UNIT_ASSIGNED_CONTEXT ( ( #109, #92, #150 ) ) REPRESENTATION_CONTEXT ( 'NONE', 'WORKASPACE' ) );
#248 = SURFACE_SIDE_STYLE ('',( #217 ) ) ;
#249 = CARTESIAN_POINT ( 'NONE',  ( 0.000000000000000000, 0.000000000000000000, 0.000000000000000000 ) ) ;
#250 = UNCERTAINTY_MEASURE_WITH_UNIT (LENGTH_MEASURE( 1.000000000000000082E-05 ), #101, 'distance_accuracy_value', 'NONE');
#251 = ORIENTED_EDGE ( 'NONE', *, *, #198, .T. ) ;
#252 = DIRECTION ( 'NONE',  ( 1.000000000000000000, 0.000000000000000000, 0.000000000000000000 ) ) ;
#253 = CIRCLE ( 'NONE', #113, 0.1874999999999999167 ) ;
#254 = PRESENTATION_STYLE_ASSIGNMENT (( #203 ) ) ;
#255 = DIRECTION ( 'NONE',  ( -1.000000000000000000, -1.350672323656716052E-33, 0.000000000000000000 ) ) ;
#256 = DIRECTION ( 'NONE',  ( 1.000000000000000000, 9.417729399688030957E-17, 0.000000000000000000 ) ) ;
#257 =( CONVERSION_BASED_UNIT ( 'INCH', #200 ) LENGTH_UNIT ( ) NAMED_UNIT ( #117 ) );
#258 = EDGE_CURVE ( 'NONE', #226, #36, #95, .T. ) ;
#259 = LENGTH_MEASURE_WITH_UNIT ( LENGTH_MEASURE( 0.02539999999999999897 ), #26 );
#260 = CARTESIAN_POINT ( 'NONE',  ( 0.1874999999999999722, 0.1754311821012033978, 2.296212748401286493E-17 ) ) ;
#261 = FILL_AREA_STYLE_COLOUR ( '', #172 ) ;
#262 = COLOUR_RGB ( '',1.000000000000000000, 0.000000000000000000, 0.000000000000000000 ) ;
#263 =( NAMED_UNIT ( * ) PLANE_ANGLE_UNIT ( ) SI_UNIT ( $, .RADIAN. ) );
#264 = AXIS2_PLACEMENT_3D ( 'NONE', #28, #142, #194 ) ;
#265 = FILL_AREA_STYLE ('',( #145 ) ) ;
#266 = ORIENTED_EDGE ( 'NONE', *, *, #291, .F. ) ;
#267 = COLOUR_RGB ( '',1.000000000000000000, 0.000000000000000000, 0.000000000000000000 ) ;
#268 = CONICAL_SURFACE ( 'NONE', #129, 0.03500000000000000333, 0.7155849933176765543 ) ;
#269 = PLANE ( 'NONE',  #238 ) ;
#270 = PRODUCT_DEFINITION_CONTEXT ( 'detailed design', #307, 'design' ) ;
#271 = FILL_AREA_STYLE ('',( #167 ) ) ;
#272 = DIMENSIONAL_EXPONENTS ( 1.000000000000000000, 0.000000000000000000, 0.000000000000000000, 0.000000000000000000, 0.000000000000000000, 0.000000000000000000, 0.000000000000000000 ) ;
#273 = LENGTH_MEASURE_WITH_UNIT ( LENGTH_MEASURE( 0.02539999999999999897 ), #298 );
#274 = MANIFOLD_SOLID_BREP ( 'Revolve - Cutting Edge', #190 ) ;
#275 = ORIENTED_EDGE ( 'NONE', *, *, #103, .T. ) ;
#276 = EDGE_CURVE ( 'NONE', #16, #58, #158, .T. ) ;
#277 = FACE_OUTER_BOUND ( 'NONE', #82, .T. ) ;
#278 = PRESENTATION_LAYER_ASSIGNMENT (  '', '', ( #303 ) ) ;
#279 = CARTESIAN_POINT ( 'NONE',  ( -0.1874999999999997502, 2.500000000000000000, 0.000000000000000000 ) ) ;
#280 = FACE_OUTER_BOUND ( 'NONE', #121, .T. ) ;
#281 = DIRECTION ( 'NONE',  ( 0.000000000000000000, 0.000000000000000000, 1.000000000000000000 ) ) ;
#282 = ADVANCED_FACE ( 'NONE', ( #215 ), #224, .F. ) ;
#283 =( NAMED_UNIT ( * ) SI_UNIT ( $, .STERADIAN. ) SOLID_ANGLE_UNIT ( ) );
#284 = CARTESIAN_POINT ( 'NONE',  ( 6.385105040622814365E-68, -4.727353132798506525E-35, 0.000000000000000000 ) ) ;
#285 = PRESENTATION_STYLE_ASSIGNMENT (( #178 ) ) ;
#286 = UNCERTAINTY_MEASURE_WITH_UNIT (LENGTH_MEASURE( 1.000000000000000082E-05 ), #257, 'distance_accuracy_value', 'NONE');
#287 = CARTESIAN_POINT ( 'NONE',  ( -0.03500000000000000333, -9.454706265597013051E-35, 0.000000000000000000 ) ) ;
#288 = LENGTH_MEASURE_WITH_UNIT ( LENGTH_MEASURE( 0.02539999999999999897 ), #185 );
#289 = DIRECTION ( 'NONE',  ( 1.350672323656716052E-33, -1.000000000000000000, -0.000000000000000000 ) ) ;
#290 = FACE_OUTER_BOUND ( 'NONE', #10, .T. ) ;
#291 = EDGE_CURVE ( 'NONE', #174, #58, #62, .T. ) ;
#292 =( GEOMETRIC_REPRESENTATION_CONTEXT ( 3 ) GLOBAL_UNCERTAINTY_ASSIGNED_CONTEXT ( ( #63 ) ) GLOBAL_UNIT_ASSIGNED_CONTEXT ( ( #84, #228, #283 ) ) REPRESENTATION_CONTEXT ( 'NONE', 'WORKASPACE' ) );
#293 =( LENGTH_UNIT ( ) NAMED_UNIT ( * ) SI_UNIT ( $, .METRE. ) );
#294 = VERTEX_POINT ( 'NONE', #182 ) ;
#295 = SURFACE_STYLE_FILL_AREA ( #192 ) ;
#296 = CIRCLE ( 'NONE', #171, 0.1874999999999999167 ) ;
#297 = ORIENTED_EDGE ( 'NONE', *, *, #48, .F. ) ;
#298 =( LENGTH_UNIT ( ) NAMED_UNIT ( * ) SI_UNIT ( $, .METRE. ) );
#299 = DIMENSIONAL_EXPONENTS ( 1.000000000000000000, 0.000000000000000000, 0.000000000000000000, 0.000000000000000000, 0.000000000000000000, 0.000000000000000000, 0.000000000000000000 ) ;
#300 = CARTESIAN_POINT ( 'NONE',  ( -0.1874999999999999722, 0.1754311821012033978, 0.000000000000000000 ) ) ;
#301 = DIRECTION ( 'NONE',  ( 1.000000000000000000, 0.000000000000000000, 0.000000000000000000 ) ) ;
#302 = CARTESIAN_POINT ( 'NONE',  ( -0.1874999999999994449, 0.1754311821012033423, 0.000000000000000000 ) ) ;
#303 = STYLED_ITEM ( 'NONE', ( #87 ), #141 ) ;
#304 = ORIENTED_EDGE ( 'NONE', *, *, #59, .F. ) ;
#305 = EDGE_CURVE ( 'NONE', #226, #294, #184, .T. ) ;
#306 = FACE_OUTER_BOUND ( 'NONE', #146, .T. ) ;
#307 = APPLICATION_CONTEXT ( 'automotive_design' ) ;
#308 = AXIS2_PLACEMENT_3D ( 'NONE', #249, #281, #252 ) ;
#309 = PRODUCT_CONTEXT ( 'NONE', #188, 'mechanical' ) ;
ENDSEC;
END-ISO-10303-21;
