ISO-10303-21;
HEADER;
FILE_DESCRIPTION (( 'STEP AP214' ),
    '1' );
FILE_NAME ('81560.STEP',
    '2023-06-23T01:56:51',
    ( '' ),
    ( '' ),
    'SwSTEP 2.0',
    'SolidWorks 2023',
    '' );
FILE_SCHEMA (( 'AUTOMOTIVE_DESIGN' ));
ENDSEC;

DATA;
#1 = DIRECTION ( 'NONE',  ( -1.000000000000000000, 0.000000000000000000, 0.000000000000000000 ) ) ;
#2 = CLOSED_SHELL ( 'NONE', ( #117, #144, #67, #207 ) ) ;
#3 = DIMENSIONAL_EXPONENTS ( 1.000000000000000000, 0.000000000000000000, 0.000000000000000000, 0.000000000000000000, 0.000000000000000000, 0.000000000000000000, 0.000000000000000000 ) ;
#4 = FACE_OUTER_BOUND ( 'NONE', #59, .T. ) ;
#5 = AXIS2_PLACEMENT_3D ( 'NONE', #105, #76, #264 ) ;
#6 = UNCERTAINTY_MEASURE_WITH_UNIT (LENGTH_MEASURE( 1.000000000000000082E-05 ), #185, 'distance_accuracy_value', 'NONE');
#7 = CARTESIAN_POINT ( 'NONE',  ( 6.123233995736772199E-17, 2.500000000000000000, 0.000000000000000000 ) ) ;
#8 = EDGE_CURVE ( 'NONE', #156, #81, #189, .T. ) ;
#9 = ORIENTED_EDGE ( 'NONE', *, *, #147, .F. ) ;
#10 = PRESENTATION_STYLE_ASSIGNMENT (( #124 ) ) ;
#11 = AXIS2_PLACEMENT_3D ( 'NONE', #140, #288, #235 ) ;
#12 = VECTOR ( 'NONE', #177, 39.37007874015748143 ) ;
#13 = ORIENTED_EDGE ( 'NONE', *, *, #201, .T. ) ;
#14 = PRODUCT_DEFINITION_CONTEXT ( 'detailed design', #269, 'design' ) ;
#15 = CARTESIAN_POINT ( 'NONE',  ( 0.000000000000000000, 0.7499999999999998890, 0.000000000000000000 ) ) ;
#16 = CARTESIAN_POINT ( 'NONE',  ( 2.296212748401287726E-17, 0.7500000000000001110, 0.1875000000000000278 ) ) ;
#17 = AXIS2_PLACEMENT_3D ( 'NONE', #7, #149, #37 ) ;
#18 = DIRECTION ( 'NONE',  ( 0.000000000000000000, 0.000000000000000000, -1.000000000000000000 ) ) ;
#19 = EDGE_CURVE ( 'NONE', #81, #156, #62, .T. ) ;
#20 = CYLINDRICAL_SURFACE ( 'NONE', #11, 0.1875000000000000278 ) ;
#21 =( NAMED_UNIT ( * ) SI_UNIT ( $, .STERADIAN. ) SOLID_ANGLE_UNIT ( ) );
#22 = MECHANICAL_DESIGN_GEOMETRIC_PRESENTATION_REPRESENTATION (  '', ( #119 ), #303 ) ;
#23 = DIRECTION ( 'NONE',  ( 3.498990854706726443E-17, 1.000000000000000000, -0.000000000000000000 ) ) ;
#24 = ADVANCED_FACE ( 'NONE', ( #60 ), #130, .T. ) ;
#25 = DIRECTION ( 'NONE',  ( 0.000000000000000000, 1.000000000000000000, 0.000000000000000000 ) ) ;
#26 =( GEOMETRIC_REPRESENTATION_CONTEXT ( 3 ) GLOBAL_UNCERTAINTY_ASSIGNED_CONTEXT ( ( #52 ) ) GLOBAL_UNIT_ASSIGNED_CONTEXT ( ( #134, #308, #283 ) ) REPRESENTATION_CONTEXT ( 'NONE', 'WORKASPACE' ) );
#27 = CARTESIAN_POINT ( 'NONE',  ( 0.000000000000000000, 0.000000000000000000, -0.1875000000000000278 ) ) ;
#28 = PRODUCT_RELATED_PRODUCT_CATEGORY ( 'part', '', ( #256 ) ) ;
#29 = CARTESIAN_POINT ( 'NONE',  ( -0.1874999999999998890, 2.500000000000000000, 0.000000000000000000 ) ) ;
#30 = EDGE_LOOP ( 'NONE', ( #78, #296 ) ) ;
#31 = PRESENTATION_LAYER_ASSIGNMENT (  '', '', ( #49 ) ) ;
#32 = DIRECTION ( 'NONE',  ( 0.000000000000000000, 0.000000000000000000, -1.000000000000000000 ) ) ;
#33 = VERTEX_POINT ( 'NONE', #133 ) ;
#34 = EDGE_CURVE ( 'NONE', #217, #36, #276, .T. ) ;
#35 =( LENGTH_UNIT ( ) NAMED_UNIT ( * ) SI_UNIT ( $, .METRE. ) );
#36 = VERTEX_POINT ( 'NONE', #213 ) ;
#37 = DIRECTION ( 'NONE',  ( -1.000000000000000000, 0.000000000000000000, 0.000000000000000000 ) ) ;
#38 = ORIENTED_EDGE ( 'NONE', *, *, #94, .T. ) ;
#39 = DIRECTION ( 'NONE',  ( 1.000000000000000000, -3.498990854706726443E-17, 0.000000000000000000 ) ) ;
#40 = DIRECTION ( 'NONE',  ( -1.000000000000000000, 0.000000000000000000, 0.000000000000000000 ) ) ;
#41 = SURFACE_STYLE_FILL_AREA ( #92 ) ;
#42 = DIMENSIONAL_EXPONENTS ( 1.000000000000000000, 0.000000000000000000, 0.000000000000000000, 0.000000000000000000, 0.000000000000000000, 0.000000000000000000, 0.000000000000000000 ) ;
#43 = PRESENTATION_STYLE_ASSIGNMENT (( #254 ) ) ;
#44 = CARTESIAN_POINT ( 'NONE',  ( 0.000000000000000000, 0.000000000000000000, 0.000000000000000000 ) ) ;
#45 =( LENGTH_UNIT ( ) NAMED_UNIT ( * ) SI_UNIT ( $, .METRE. ) );
#46 = AXIS2_PLACEMENT_3D ( 'NONE', #158, #196, #84 ) ;
#47 =( CONVERSION_BASED_UNIT ( 'INCH', #285 ) LENGTH_UNIT ( ) NAMED_UNIT ( #261 ) );
#48 = EDGE_CURVE ( 'NONE', #36, #217, #294, .T. ) ;
#49 = STYLED_ITEM ( 'NONE', ( #183 ), #117 ) ;
#50 = MANIFOLD_SOLID_BREP ( 'Revolve - Tool Body (Straight Shanked)', #173 ) ;
#51 = FACE_OUTER_BOUND ( 'NONE', #30, .T. ) ;
#52 = UNCERTAINTY_MEASURE_WITH_UNIT (LENGTH_MEASURE( 1.000000000000000082E-05 ), #134, 'distance_accuracy_value', 'NONE');
#53 =( NAMED_UNIT ( * ) SI_UNIT ( $, .STERADIAN. ) SOLID_ANGLE_UNIT ( ) );
#54 = CYLINDRICAL_SURFACE ( 'NONE', #17, 0.1874999999999999722 ) ;
#55 = ORIENTED_EDGE ( 'NONE', *, *, #83, .F. ) ;
#56 = EDGE_CURVE ( 'NONE', #197, #152, #247, .T. ) ;
#57 = AXIS2_PLACEMENT_3D ( 'NONE', #227, #199, #182 ) ;
#58 = SURFACE_STYLE_FILL_AREA ( #193 ) ;
#59 = EDGE_LOOP ( 'NONE', ( #104, #109, #61, #195 ) ) ;
#60 = FACE_OUTER_BOUND ( 'NONE', #174, .T. ) ;
#61 = ORIENTED_EDGE ( 'NONE', *, *, #259, .T. ) ;
#62 = CIRCLE ( 'NONE', #111, 0.1875000000000000278 ) ;
#63 = STYLED_ITEM ( 'NONE', ( #75 ), #249 ) ;
#64 = ORIENTED_EDGE ( 'NONE', *, *, #56, .T. ) ;
#65 = APPLICATION_CONTEXT ( 'automotive_design' ) ;
#66 = DIRECTION ( 'NONE',  ( -0.000000000000000000, -1.000000000000000000, -0.000000000000000000 ) ) ;
#67 = ADVANCED_FACE ( 'NONE', ( #250 ), #302, .T. ) ;
#68 = APPLICATION_PROTOCOL_DEFINITION ( 'draft international standard', 'automotive_design', 1998, #269 ) ;
#69 = COLOUR_RGB ( '',1.000000000000000000, 0.000000000000000000, 0.000000000000000000 ) ;
#70 =( LENGTH_UNIT ( ) NAMED_UNIT ( * ) SI_UNIT ( $, .METRE. ) );
#71 = CIRCLE ( 'NONE', #239, 0.1874999999999999445 ) ;
#72 =( NAMED_UNIT ( * ) PLANE_ANGLE_UNIT ( ) SI_UNIT ( $, .RADIAN. ) );
#73 = DIRECTION ( 'NONE',  ( 3.498990854706726443E-17, 1.000000000000000000, -0.000000000000000000 ) ) ;
#74 = FACE_OUTER_BOUND ( 'NONE', #125, .T. ) ;
#75 = PRESENTATION_STYLE_ASSIGNMENT (( #103 ) ) ;
#76 = DIRECTION ( 'NONE',  ( 3.498990854706726443E-17, 1.000000000000000000, -0.000000000000000000 ) ) ;
#77 = UNCERTAINTY_MEASURE_WITH_UNIT (LENGTH_MEASURE( 1.000000000000000082E-05 ), #136, 'distance_accuracy_value', 'NONE');
#78 = ORIENTED_EDGE ( 'NONE', *, *, #8, .F. ) ;
#79 =( NAMED_UNIT ( * ) PLANE_ANGLE_UNIT ( ) SI_UNIT ( $, .RADIAN. ) );
#80 = ORIENTED_EDGE ( 'NONE', *, *, #83, .T. ) ;
#81 = VERTEX_POINT ( 'NONE', #16 ) ;
#82 = ORIENTED_EDGE ( 'NONE', *, *, #167, .T. ) ;
#83 = EDGE_CURVE ( 'NONE', #81, #197, #178, .T. ) ;
#84 = DIRECTION ( 'NONE',  ( 0.000000000000000000, 0.000000000000000000, -1.000000000000000000 ) ) ;
#85 = COLOUR_RGB ( '',1.000000000000000000, 0.000000000000000000, 0.000000000000000000 ) ;
#86 = DIRECTION ( 'NONE',  ( -0.000000000000000000, -1.000000000000000000, -0.000000000000000000 ) ) ;
#87 = DIRECTION ( 'NONE',  ( 3.498990854706726443E-17, 1.000000000000000000, -0.000000000000000000 ) ) ;
#88 = PRODUCT_DEFINITION_SHAPE ( 'NONE', 'NONE',  #155 ) ;
#89 = FILL_AREA_STYLE ('',( #162 ) ) ;
#90 = DIRECTION ( 'NONE',  ( 1.000000000000000000, 0.000000000000000000, 0.000000000000000000 ) ) ;
#91 = LINE ( 'NONE', #279, #225 ) ;
#92 = FILL_AREA_STYLE ('',( #280 ) ) ;
#93 = PRODUCT_DEFINITION_FORMATION_WITH_SPECIFIED_SOURCE ( 'ANY', '', #256, .NOT_KNOWN. ) ;
#94 = EDGE_CURVE ( 'NONE', #156, #152, #91, .T. ) ;
#95 = LENGTH_MEASURE_WITH_UNIT ( LENGTH_MEASURE( 0.02539999999999999897 ), #135 );
#96 = CARTESIAN_POINT ( 'NONE',  ( 0.000000000000000000, 0.7500000000000001110, -0.1875000000000000278 ) ) ;
#97 = LENGTH_MEASURE_WITH_UNIT ( LENGTH_MEASURE( 0.02539999999999999897 ), #209 );
#98 =( NAMED_UNIT ( * ) PLANE_ANGLE_UNIT ( ) SI_UNIT ( $, .RADIAN. ) );
#99 = UNCERTAINTY_MEASURE_WITH_UNIT (LENGTH_MEASURE( 1.000000000000000082E-05 ), #298, 'distance_accuracy_value', 'NONE');
#100 = COLOUR_RGB ( '',1.000000000000000000, 0.000000000000000000, 0.000000000000000000 ) ;
#101 = COLOUR_RGB ( '',0.7921568627450980005, 0.8196078431372548767, 0.9333333333333333481 ) ;
#102 = CARTESIAN_POINT ( 'NONE',  ( 0.000000000000000000, 0.7499999999999998890, 0.000000000000000000 ) ) ;
#103 = SURFACE_STYLE_USAGE ( .BOTH. , #154 ) ;
#104 = ORIENTED_EDGE ( 'NONE', *, *, #297, .F. ) ;
#105 = CARTESIAN_POINT ( 'NONE',  ( 6.123233995736772199E-17, 2.500000000000000000, 0.000000000000000000 ) ) ;
#106 = ORIENTED_EDGE ( 'NONE', *, *, #19, .T. ) ;
#107 = MECHANICAL_DESIGN_GEOMETRIC_PRESENTATION_REPRESENTATION (  '', ( #132 ), #26 ) ;
#108 = CARTESIAN_POINT ( 'NONE',  ( 2.296212748401287726E-17, 0.000000000000000000, 0.1875000000000000278 ) ) ;
#109 = ORIENTED_EDGE ( 'NONE', *, *, #34, .T. ) ;
#110 = ORIENTED_EDGE ( 'NONE', *, *, #94, .F. ) ;
#111 = AXIS2_PLACEMENT_3D ( 'NONE', #268, #244, #246 ) ;
#112 = SHAPE_DEFINITION_REPRESENTATION ( #88, #274 ) ;
#113 = LINE ( 'NONE', #304, #205 ) ;
#114 = FILL_AREA_STYLE_COLOUR ( '', #69 ) ;
#115 = SURFACE_SIDE_STYLE ('',( #41 ) ) ;
#116 = PRESENTATION_LAYER_ASSIGNMENT (  '', '', ( #281 ) ) ;
#117 = ADVANCED_FACE ( 'NONE', ( #164 ), #20, .T. ) ;
#118 = CARTESIAN_POINT ( 'NONE',  ( 6.123233995736772199E-17, 2.500000000000000000, 0.000000000000000000 ) ) ;
#119 = STYLED_ITEM ( 'NONE', ( #43 ), #67 ) ;
#120 = MECHANICAL_DESIGN_GEOMETRIC_PRESENTATION_REPRESENTATION (  '', ( #63 ), #295 ) ;
#121 = DIRECTION ( 'NONE',  ( -0.000000000000000000, -1.000000000000000000, -0.000000000000000000 ) ) ;
#122 = DIRECTION ( 'NONE',  ( 0.000000000000000000, 0.000000000000000000, -1.000000000000000000 ) ) ;
#123 = DIMENSIONAL_EXPONENTS ( 1.000000000000000000, 0.000000000000000000, 0.000000000000000000, 0.000000000000000000, 0.000000000000000000, 0.000000000000000000, 0.000000000000000000 ) ;
#124 = SURFACE_STYLE_USAGE ( .BOTH. , #216 ) ;
#125 = EDGE_LOOP ( 'NONE', ( #299, #292 ) ) ;
#126 = PRESENTATION_LAYER_ASSIGNMENT (  '', '', ( #132 ) ) ;
#127 = STYLED_ITEM ( 'NONE', ( #10 ), #207 ) ;
#128 = PLANE ( 'NONE',  #146 ) ;
#129 = ORIENTED_EDGE ( 'NONE', *, *, #259, .F. ) ;
#130 = CYLINDRICAL_SURFACE ( 'NONE', #252, 0.1874999999999999722 ) ;
#131 =( NAMED_UNIT ( * ) PLANE_ANGLE_UNIT ( ) SI_UNIT ( $, .RADIAN. ) );
#132 = STYLED_ITEM ( 'NONE', ( #251 ), #50 ) ;
#133 = CARTESIAN_POINT ( 'NONE',  ( 0.1875000000000000278, 2.500000000000000000, 2.296212748401287109E-17 ) ) ;
#134 =( CONVERSION_BASED_UNIT ( 'INCH', #95 ) LENGTH_UNIT ( ) NAMED_UNIT ( #211 ) );
#135 =( LENGTH_UNIT ( ) NAMED_UNIT ( * ) SI_UNIT ( $, .METRE. ) );
#136 =( CONVERSION_BASED_UNIT ( 'INCH', #228 ) LENGTH_UNIT ( ) NAMED_UNIT ( #42 ) );
#137 = SURFACE_SIDE_STYLE ('',( #284 ) ) ;
#138 = ADVANCED_FACE ( 'NONE', ( #74 ), #287, .F. ) ;
#139 = AXIS2_PLACEMENT_3D ( 'NONE', #102, #191, #1 ) ;
#140 = CARTESIAN_POINT ( 'NONE',  ( 0.000000000000000000, 0.000000000000000000, 0.000000000000000000 ) ) ;
#141 = AXIS2_PLACEMENT_3D ( 'NONE', #190, #150, #32 ) ;
#142 = COLOUR_RGB ( '',1.000000000000000000, 0.000000000000000000, 0.000000000000000000 ) ;
#143 = FILL_AREA_STYLE_COLOUR ( '', #85 ) ;
#144 = ADVANCED_FACE ( 'NONE', ( #51 ), #165, .T. ) ;
#145 = UNCERTAINTY_MEASURE_WITH_UNIT (LENGTH_MEASURE( 1.000000000000000082E-05 ), #248, 'distance_accuracy_value', 'NONE');
#146 = AXIS2_PLACEMENT_3D ( 'NONE', #214, #293, #39 ) ;
#147 = EDGE_CURVE ( 'NONE', #222, #33, #71, .T. ) ;
#148 = DIRECTION ( 'NONE',  ( -1.000000000000000000, 0.000000000000000000, 0.000000000000000000 ) ) ;
#149 = DIRECTION ( 'NONE',  ( 3.498990854706726443E-17, 1.000000000000000000, -0.000000000000000000 ) ) ;
#150 = DIRECTION ( 'NONE',  ( 0.000000000000000000, -1.000000000000000000, -0.000000000000000000 ) ) ;
#151 = UNCERTAINTY_MEASURE_WITH_UNIT (LENGTH_MEASURE( 1.000000000000000082E-05 ), #47, 'distance_accuracy_value', 'NONE');
#152 = VERTEX_POINT ( 'NONE', #27 ) ;
#153 = PRESENTATION_LAYER_ASSIGNMENT (  '', '', ( #127 ) ) ;
#154 = SURFACE_SIDE_STYLE ('',( #221 ) ) ;
#155 = PRODUCT_DEFINITION ( 'UNKNOWN', '', #93, #14 ) ;
#156 = VERTEX_POINT ( 'NONE', #96 ) ;
#157 = LINE ( 'NONE', #301, #12 ) ;
#158 = CARTESIAN_POINT ( 'NONE',  ( 0.000000000000000000, 0.7500000000000001110, 0.000000000000000000 ) ) ;
#159 =( GEOMETRIC_REPRESENTATION_CONTEXT ( 3 ) GLOBAL_UNCERTAINTY_ASSIGNED_CONTEXT ( ( #6 ) ) GLOBAL_UNIT_ASSIGNED_CONTEXT ( ( #185, #72, #208 ) ) REPRESENTATION_CONTEXT ( 'NONE', 'WORKASPACE' ) );
#160 = AXIS2_PLACEMENT_3D ( 'NONE', #210, #121, #122 ) ;
#161 = PRODUCT_CONTEXT ( 'NONE', #65, 'mechanical' ) ;
#162 = FILL_AREA_STYLE_COLOUR ( '', #100 ) ;
#163 =( GEOMETRIC_REPRESENTATION_CONTEXT ( 3 ) GLOBAL_UNCERTAINTY_ASSIGNED_CONTEXT ( ( #77 ) ) GLOBAL_UNIT_ASSIGNED_CONTEXT ( ( #136, #277, #278 ) ) REPRESENTATION_CONTEXT ( 'NONE', 'WORKASPACE' ) );
#164 = FACE_OUTER_BOUND ( 'NONE', #242, .T. ) ;
#165 = PLANE ( 'NONE',  #198 ) ;
#166 = DIRECTION ( 'NONE',  ( -1.000000000000000000, 3.498990854706726443E-17, 0.000000000000000000 ) ) ;
#167 = EDGE_CURVE ( 'NONE', #152, #197, #253, .T. ) ;
#168 = CARTESIAN_POINT ( 'NONE',  ( 1.147775343873872857E-34, 0.7500000000000001110, 0.000000000000000000 ) ) ;
#169 = SURFACE_STYLE_USAGE ( .BOTH. , #233 ) ;
#170 = FACE_OUTER_BOUND ( 'NONE', #265, .T. ) ;
#171 = DIRECTION ( 'NONE',  ( -1.000000000000000000, 0.000000000000000000, 0.000000000000000000 ) ) ;
#172 = ORIENTED_EDGE ( 'NONE', *, *, #147, .T. ) ;
#173 = CLOSED_SHELL ( 'NONE', ( #24, #138, #192, #223 ) ) ;
#174 = EDGE_LOOP ( 'NONE', ( #271, #215, #9, #129 ) ) ;
#175 = EDGE_LOOP ( 'NONE', ( #55, #106, #38, #237 ) ) ;
#176 = EDGE_LOOP ( 'NONE', ( #172, #13 ) ) ;
#177 = DIRECTION ( 'NONE',  ( 3.498990854706726443E-17, 1.000000000000000000, -0.000000000000000000 ) ) ;
#178 = LINE ( 'NONE', #202, #184 ) ;
#179 =( NAMED_UNIT ( * ) PLANE_ANGLE_UNIT ( ) SI_UNIT ( $, .RADIAN. ) );
#180 = MECHANICAL_DESIGN_GEOMETRIC_PRESENTATION_REPRESENTATION (  '', ( #281 ), #159 ) ;
#181 = PRESENTATION_LAYER_ASSIGNMENT (  '', '', ( #63 ) ) ;
#182 = DIRECTION ( 'NONE',  ( 0.000000000000000000, 0.000000000000000000, -1.000000000000000000 ) ) ;
#183 = PRESENTATION_STYLE_ASSIGNMENT (( #260 ) ) ;
#184 = VECTOR ( 'NONE', #307, 39.37007874015748143 ) ;
#185 =( CONVERSION_BASED_UNIT ( 'INCH', #97 ) LENGTH_UNIT ( ) NAMED_UNIT ( #289 ) );
#186 = DIRECTION ( 'NONE',  ( 0.000000000000000000, -0.000000000000000000, 1.000000000000000000 ) ) ;
#187 = SURFACE_STYLE_FILL_AREA ( #203 ) ;
#188 = SURFACE_STYLE_FILL_AREA ( #257 ) ;
#189 = CIRCLE ( 'NONE', #46, 0.1875000000000000278 ) ;
#190 = CARTESIAN_POINT ( 'NONE',  ( 0.000000000000000000, 0.000000000000000000, 0.000000000000000000 ) ) ;
#191 = DIRECTION ( 'NONE',  ( 3.498990854706726443E-17, 1.000000000000000000, -0.000000000000000000 ) ) ;
#192 = ADVANCED_FACE ( 'NONE', ( #4 ), #54, .T. ) ;
#193 = FILL_AREA_STYLE ('',( #218 ) ) ;
#194 =( LENGTH_UNIT ( ) NAMED_UNIT ( * ) SI_UNIT ( $, .METRE. ) );
#195 = ORIENTED_EDGE ( 'NONE', *, *, #201, .F. ) ;
#196 = DIRECTION ( 'NONE',  ( -0.000000000000000000, -1.000000000000000000, -0.000000000000000000 ) ) ;
#197 = VERTEX_POINT ( 'NONE', #108 ) ;
#198 = AXIS2_PLACEMENT_3D ( 'NONE', #258, #25, #186 ) ;
#199 = DIRECTION ( 'NONE',  ( -0.000000000000000000, -1.000000000000000000, -0.000000000000000000 ) ) ;
#200 = DIRECTION ( 'NONE',  ( 0.000000000000000000, 0.000000000000000000, 1.000000000000000000 ) ) ;
#201 = EDGE_CURVE ( 'NONE', #33, #222, #212, .T. ) ;
#202 = CARTESIAN_POINT ( 'NONE',  ( 2.296212748401287726E-17, 0.000000000000000000, 0.1875000000000000278 ) ) ;
#203 = FILL_AREA_STYLE ('',( #114 ) ) ;
#204 = AXIS2_PLACEMENT_3D ( 'NONE', #168, #23, #166 ) ;
#205 = VECTOR ( 'NONE', #87, 39.37007874015748143 ) ;
#206 = SURFACE_STYLE_USAGE ( .BOTH. , #115 ) ;
#207 = ADVANCED_FACE ( 'NONE', ( #170 ), #238, .T. ) ;
#208 =( NAMED_UNIT ( * ) SI_UNIT ( $, .STERADIAN. ) SOLID_ANGLE_UNIT ( ) );
#209 =( LENGTH_UNIT ( ) NAMED_UNIT ( * ) SI_UNIT ( $, .METRE. ) );
#210 = CARTESIAN_POINT ( 'NONE',  ( 0.000000000000000000, 0.000000000000000000, 0.000000000000000000 ) ) ;
#211 = DIMENSIONAL_EXPONENTS ( 1.000000000000000000, 0.000000000000000000, 0.000000000000000000, 0.000000000000000000, 0.000000000000000000, 0.000000000000000000, 0.000000000000000000 ) ;
#212 = CIRCLE ( 'NONE', #5, 0.1874999999999999445 ) ;
#213 = CARTESIAN_POINT ( 'NONE',  ( -0.1875000000000000278, 0.7499999999999998890, 0.000000000000000000 ) ) ;
#214 = CARTESIAN_POINT ( 'NONE',  ( 0.1875000000000000278, 2.500000000000000000, 0.000000000000000000 ) ) ;
#215 = ORIENTED_EDGE ( 'NONE', *, *, #297, .T. ) ;
#216 = SURFACE_SIDE_STYLE ('',( #58 ) ) ;
#217 = VERTEX_POINT ( 'NONE', #236 ) ;
#218 = FILL_AREA_STYLE_COLOUR ( '', #142 ) ;
#219 = DIRECTION ( 'NONE',  ( 3.498990854706726443E-17, 1.000000000000000000, -0.000000000000000000 ) ) ;
#220 = AXIS2_PLACEMENT_3D ( 'NONE', #44, #200, #90 ) ;
#221 = SURFACE_STYLE_FILL_AREA ( #291 ) ;
#222 = VERTEX_POINT ( 'NONE', #29 ) ;
#223 = ADVANCED_FACE ( 'NONE', ( #266 ), #128, .F. ) ;
#224 =( LENGTH_UNIT ( ) NAMED_UNIT ( * ) SI_UNIT ( $, .METRE. ) );
#225 = VECTOR ( 'NONE', #66, 39.37007874015748143 ) ;
#226 =( GEOMETRIC_REPRESENTATION_CONTEXT ( 3 ) GLOBAL_UNCERTAINTY_ASSIGNED_CONTEXT ( ( #99 ) ) GLOBAL_UNIT_ASSIGNED_CONTEXT ( ( #298, #79, #241 ) ) REPRESENTATION_CONTEXT ( 'NONE', 'WORKASPACE' ) );
#227 = CARTESIAN_POINT ( 'NONE',  ( 0.000000000000000000, 0.000000000000000000, 0.000000000000000000 ) ) ;
#228 = LENGTH_MEASURE_WITH_UNIT ( LENGTH_MEASURE( 0.02539999999999999897 ), #224 );
#229 = LENGTH_MEASURE_WITH_UNIT ( LENGTH_MEASURE( 0.02539999999999999897 ), #45 );
#230 = AXIS2_PLACEMENT_3D ( 'NONE', #15, #300, #171 ) ;
#231 =( NAMED_UNIT ( * ) SI_UNIT ( $, .STERADIAN. ) SOLID_ANGLE_UNIT ( ) );
#232 =( GEOMETRIC_REPRESENTATION_CONTEXT ( 3 ) GLOBAL_UNCERTAINTY_ASSIGNED_CONTEXT ( ( #151 ) ) GLOBAL_UNIT_ASSIGNED_CONTEXT ( ( #47, #98, #231 ) ) REPRESENTATION_CONTEXT ( 'NONE', 'WORKASPACE' ) );
#233 = SURFACE_SIDE_STYLE ('',( #188 ) ) ;
#234 = DIMENSIONAL_EXPONENTS ( 1.000000000000000000, 0.000000000000000000, 0.000000000000000000, 0.000000000000000000, 0.000000000000000000, 0.000000000000000000, 0.000000000000000000 ) ;
#235 = DIRECTION ( 'NONE',  ( 0.000000000000000000, 0.000000000000000000, -1.000000000000000000 ) ) ;
#236 = CARTESIAN_POINT ( 'NONE',  ( 0.1875000000000000278, 0.7499999999999998890, 2.296212748401287109E-17 ) ) ;
#237 = ORIENTED_EDGE ( 'NONE', *, *, #56, .F. ) ;
#238 = PLANE ( 'NONE',  #141 ) ;
#239 = AXIS2_PLACEMENT_3D ( 'NONE', #118, #73, #148 ) ;
#240 = ORIENTED_EDGE ( 'NONE', *, *, #167, .F. ) ;
#241 =( NAMED_UNIT ( * ) SI_UNIT ( $, .STERADIAN. ) SOLID_ANGLE_UNIT ( ) );
#242 = EDGE_LOOP ( 'NONE', ( #273, #80, #240, #110 ) ) ;
#243 =( CONVERSION_BASED_UNIT ( 'INCH', #270 ) LENGTH_UNIT ( ) NAMED_UNIT ( #123 ) );
#244 = DIRECTION ( 'NONE',  ( -0.000000000000000000, -1.000000000000000000, -0.000000000000000000 ) ) ;
#245 = FILL_AREA_STYLE_COLOUR ( '', #101 ) ;
#246 = DIRECTION ( 'NONE',  ( 0.000000000000000000, 0.000000000000000000, -1.000000000000000000 ) ) ;
#247 = CIRCLE ( 'NONE', #57, 0.1875000000000000278 ) ;
#248 =( CONVERSION_BASED_UNIT ( 'INCH', #229 ) LENGTH_UNIT ( ) NAMED_UNIT ( #234 ) );
#249 = MANIFOLD_SOLID_BREP ( 'Revolve - Cutting Edge', #2 ) ;
#250 = FACE_OUTER_BOUND ( 'NONE', #175, .T. ) ;
#251 = PRESENTATION_STYLE_ASSIGNMENT (( #206 ) ) ;
#252 = AXIS2_PLACEMENT_3D ( 'NONE', #275, #219, #40 ) ;
#253 = CIRCLE ( 'NONE', #160, 0.1875000000000000278 ) ;
#254 = SURFACE_STYLE_USAGE ( .BOTH. , #137 ) ;
#255 = SURFACE_SIDE_STYLE ('',( #187 ) ) ;
#256 = PRODUCT ( '81560', '81560', '', ( #161 ) ) ;
#257 = FILL_AREA_STYLE ('',( #143 ) ) ;
#258 = CARTESIAN_POINT ( 'NONE',  ( 0.000000000000000000, 0.7500000000000001110, 0.000000000000000000 ) ) ;
#259 = EDGE_CURVE ( 'NONE', #36, #222, #113, .T. ) ;
#260 = SURFACE_STYLE_USAGE ( .BOTH. , #255 ) ;
#261 = DIMENSIONAL_EXPONENTS ( 1.000000000000000000, 0.000000000000000000, 0.000000000000000000, 0.000000000000000000, 0.000000000000000000, 0.000000000000000000, 0.000000000000000000 ) ;
#262 = PRESENTATION_STYLE_ASSIGNMENT (( #169 ) ) ;
#263 = UNCERTAINTY_MEASURE_WITH_UNIT (LENGTH_MEASURE( 1.000000000000000082E-05 ), #243, 'distance_accuracy_value', 'NONE');
#264 = DIRECTION ( 'NONE',  ( -1.000000000000000000, 0.000000000000000000, 0.000000000000000000 ) ) ;
#265 = EDGE_LOOP ( 'NONE', ( #82, #64 ) ) ;
#266 = FACE_OUTER_BOUND ( 'NONE', #176, .T. ) ;
#267 = PRESENTATION_LAYER_ASSIGNMENT (  '', '', ( #119 ) ) ;
#268 = CARTESIAN_POINT ( 'NONE',  ( 0.000000000000000000, 0.7500000000000001110, 0.000000000000000000 ) ) ;
#269 = APPLICATION_CONTEXT ( 'automotive_design' ) ;
#270 = LENGTH_MEASURE_WITH_UNIT ( LENGTH_MEASURE( 0.02539999999999999897 ), #35 );
#271 = ORIENTED_EDGE ( 'NONE', *, *, #48, .T. ) ;
#272 = LENGTH_MEASURE_WITH_UNIT ( LENGTH_MEASURE( 0.02539999999999999897 ), #194 );
#273 = ORIENTED_EDGE ( 'NONE', *, *, #8, .T. ) ;
#274 = ADVANCED_BREP_SHAPE_REPRESENTATION ( '81560', ( #249, #50, #220 ), #163 ) ;
#275 = CARTESIAN_POINT ( 'NONE',  ( 6.123233995736772199E-17, 2.500000000000000000, 0.000000000000000000 ) ) ;
#276 = CIRCLE ( 'NONE', #230, 0.1875000000000000278 ) ;
#277 =( NAMED_UNIT ( * ) PLANE_ANGLE_UNIT ( ) SI_UNIT ( $, .RADIAN. ) );
#278 =( NAMED_UNIT ( * ) SI_UNIT ( $, .STERADIAN. ) SOLID_ANGLE_UNIT ( ) );
#279 = CARTESIAN_POINT ( 'NONE',  ( 0.000000000000000000, 0.000000000000000000, -0.1875000000000000278 ) ) ;
#280 = FILL_AREA_STYLE_COLOUR ( '', #286 ) ;
#281 = STYLED_ITEM ( 'NONE', ( #262 ), #144 ) ;
#282 = MECHANICAL_DESIGN_GEOMETRIC_PRESENTATION_REPRESENTATION (  '', ( #127 ), #226 ) ;
#283 =( NAMED_UNIT ( * ) SI_UNIT ( $, .STERADIAN. ) SOLID_ANGLE_UNIT ( ) );
#284 = SURFACE_STYLE_FILL_AREA ( #89 ) ;
#285 = LENGTH_MEASURE_WITH_UNIT ( LENGTH_MEASURE( 0.02539999999999999897 ), #70 );
#286 = COLOUR_RGB ( '',0.7921568627450980005, 0.8196078431372548767, 0.9333333333333333481 ) ;
#287 = PLANE ( 'NONE',  #204 ) ;
#288 = DIRECTION ( 'NONE',  ( -0.000000000000000000, -1.000000000000000000, -0.000000000000000000 ) ) ;
#289 = DIMENSIONAL_EXPONENTS ( 1.000000000000000000, 0.000000000000000000, 0.000000000000000000, 0.000000000000000000, 0.000000000000000000, 0.000000000000000000, 0.000000000000000000 ) ;
#290 = MECHANICAL_DESIGN_GEOMETRIC_PRESENTATION_REPRESENTATION (  '', ( #49 ), #232 ) ;
#291 = FILL_AREA_STYLE ('',( #245 ) ) ;
#292 = ORIENTED_EDGE ( 'NONE', *, *, #34, .F. ) ;
#293 = DIRECTION ( 'NONE',  ( -3.498990854706726443E-17, -1.000000000000000000, 0.000000000000000000 ) ) ;
#294 = CIRCLE ( 'NONE', #139, 0.1875000000000000278 ) ;
#295 =( GEOMETRIC_REPRESENTATION_CONTEXT ( 3 ) GLOBAL_UNCERTAINTY_ASSIGNED_CONTEXT ( ( #263 ) ) GLOBAL_UNIT_ASSIGNED_CONTEXT ( ( #243, #131, #53 ) ) REPRESENTATION_CONTEXT ( 'NONE', 'WORKASPACE' ) );
#296 = ORIENTED_EDGE ( 'NONE', *, *, #19, .F. ) ;
#297 = EDGE_CURVE ( 'NONE', #217, #33, #157, .T. ) ;
#298 =( CONVERSION_BASED_UNIT ( 'INCH', #272 ) LENGTH_UNIT ( ) NAMED_UNIT ( #3 ) );
#299 = ORIENTED_EDGE ( 'NONE', *, *, #48, .F. ) ;
#300 = DIRECTION ( 'NONE',  ( 3.498990854706726443E-17, 1.000000000000000000, -0.000000000000000000 ) ) ;
#301 = CARTESIAN_POINT ( 'NONE',  ( 0.1875000000000000555, 2.500000000000000000, 2.296212748401286801E-17 ) ) ;
#302 = CYLINDRICAL_SURFACE ( 'NONE', #309, 0.1875000000000000278 ) ;
#303 =( GEOMETRIC_REPRESENTATION_CONTEXT ( 3 ) GLOBAL_UNCERTAINTY_ASSIGNED_CONTEXT ( ( #145 ) ) GLOBAL_UNIT_ASSIGNED_CONTEXT ( ( #248, #179, #21 ) ) REPRESENTATION_CONTEXT ( 'NONE', 'WORKASPACE' ) );
#304 = CARTESIAN_POINT ( 'NONE',  ( -0.1874999999999999167, 2.500000000000000000, 0.000000000000000000 ) ) ;
#305 = CARTESIAN_POINT ( 'NONE',  ( 0.000000000000000000, 0.000000000000000000, 0.000000000000000000 ) ) ;
#306 = APPLICATION_PROTOCOL_DEFINITION ( 'draft international standard', 'automotive_design', 1998, #65 ) ;
#307 = DIRECTION ( 'NONE',  ( -0.000000000000000000, -1.000000000000000000, -0.000000000000000000 ) ) ;
#308 =( NAMED_UNIT ( * ) PLANE_ANGLE_UNIT ( ) SI_UNIT ( $, .RADIAN. ) );
#309 = AXIS2_PLACEMENT_3D ( 'NONE', #305, #86, #18 ) ;
ENDSEC;
END-ISO-10303-21;
