ISO-10303-21;
HEADER;
FILE_DESCRIPTION (( 'STEP AP214' ),
    '1' );
FILE_NAME ('01690.STEP',
    '2023-06-22T14:43:56',
    ( '' ),
    ( '' ),
    'SwSTEP 2.0',
    'SolidWorks 2023',
    '' );
FILE_SCHEMA (( 'AUTOMOTIVE_DESIGN' ));
ENDSEC;

DATA;
#1 = PLANE ( 'NONE',  #160 ) ;
#2 = DIRECTION ( 'NONE',  ( -0.000000000000000000, -1.000000000000000000, -0.000000000000000000 ) ) ;
#3 =( NAMED_UNIT ( * ) PLANE_ANGLE_UNIT ( ) SI_UNIT ( $, .RADIAN. ) );
#4 =( CONVERSION_BASED_UNIT ( 'INCH', #213 ) LENGTH_UNIT ( ) NAMED_UNIT ( #255 ) );
#5 = LENGTH_MEASURE_WITH_UNIT ( LENGTH_MEASURE( 0.02539999999999999897 ), #243 );
#6 = DIRECTION ( 'NONE',  ( -0.000000000000000000, -1.000000000000000000, -0.000000000000000000 ) ) ;
#7 = EDGE_LOOP ( 'NONE', ( #279, #258 ) ) ;
#8 = VECTOR ( 'NONE', #241, 39.37007874015748143 ) ;
#9 = CARTESIAN_POINT ( 'NONE',  ( 0.000000000000000000, 0.000000000000000000, -0.3750000000000000555 ) ) ;
#10 = DIRECTION ( 'NONE',  ( -4.453261087808560759E-17, 1.000000000000000000, -0.000000000000000000 ) ) ;
#11 =( CONVERSION_BASED_UNIT ( 'INCH', #248 ) LENGTH_UNIT ( ) NAMED_UNIT ( #224 ) );
#12 = UNCERTAINTY_MEASURE_WITH_UNIT (LENGTH_MEASURE( 1.000000000000000082E-05 ), #187, 'distance_accuracy_value', 'NONE');
#13 = UNCERTAINTY_MEASURE_WITH_UNIT (LENGTH_MEASURE( 1.000000000000000082E-05 ), #59, 'distance_accuracy_value', 'NONE');
#14 = ORIENTED_EDGE ( 'NONE', *, *, #103, .F. ) ;
#15 = ORIENTED_EDGE ( 'NONE', *, *, #271, .F. ) ;
#16 = EDGE_CURVE ( 'NONE', #303, #152, #218, .T. ) ;
#17 = CARTESIAN_POINT ( 'NONE',  ( -0.3750000000000002220, 6.000000000000000888, 0.000000000000000000 ) ) ;
#18 = VERTEX_POINT ( 'NONE', #215 ) ;
#19 = PRESENTATION_LAYER_ASSIGNMENT (  '', '', ( #44 ) ) ;
#20 = LINE ( 'NONE', #116, #119 ) ;
#21 = CARTESIAN_POINT ( 'NONE',  ( 4.592425496802575451E-17, 3.250000000000000000, 0.3750000000000000555 ) ) ;
#22 = CARTESIAN_POINT ( 'NONE',  ( 0.000000000000000000, 3.250000000000000000, 0.000000000000000000 ) ) ;
#23 = STYLED_ITEM ( 'NONE', ( #141 ), #195 ) ;
#24 = VERTEX_POINT ( 'NONE', #245 ) ;
#25 = EDGE_CURVE ( 'NONE', #303, #24, #210, .T. ) ;
#26 = CARTESIAN_POINT ( 'NONE',  ( 0.000000000000000000, 3.250000000000000000, 0.000000000000000000 ) ) ;
#27 = AXIS2_PLACEMENT_3D ( 'NONE', #240, #121, #211 ) ;
#28 = CARTESIAN_POINT ( 'NONE',  ( -0.3750000000000002776, 6.000000000000000888, 0.000000000000000000 ) ) ;
#29 =( NAMED_UNIT ( * ) SI_UNIT ( $, .STERADIAN. ) SOLID_ANGLE_UNIT ( ) );
#30 = ORIENTED_EDGE ( 'NONE', *, *, #296, .T. ) ;
#31 = LENGTH_MEASURE_WITH_UNIT ( LENGTH_MEASURE( 0.02539999999999999897 ), #142 );
#32 = DIRECTION ( 'NONE',  ( 0.000000000000000000, 0.000000000000000000, -1.000000000000000000 ) ) ;
#33 = ADVANCED_FACE ( 'NONE', ( #212 ), #217, .F. ) ;
#34 = AXIS2_PLACEMENT_3D ( 'NONE', #111, #151, #88 ) ;
#35 = CARTESIAN_POINT ( 'NONE',  ( 0.000000000000000000, 0.000000000000000000, 0.000000000000000000 ) ) ;
#36 = FACE_OUTER_BOUND ( 'NONE', #71, .T. ) ;
#37 = DIMENSIONAL_EXPONENTS ( 1.000000000000000000, 0.000000000000000000, 0.000000000000000000, 0.000000000000000000, 0.000000000000000000, 0.000000000000000000, 0.000000000000000000 ) ;
#38 = ADVANCED_BREP_SHAPE_REPRESENTATION ( '01690', ( #99, #195, #207 ), #90 ) ;
#39 = APPLICATION_PROTOCOL_DEFINITION ( 'draft international standard', 'automotive_design', 1998, #285 ) ;
#40 = ADVANCED_FACE ( 'NONE', ( #96 ), #57, .T. ) ;
#41 = VERTEX_POINT ( 'NONE', #128 ) ;
#42 = SURFACE_STYLE_FILL_AREA ( #259 ) ;
#43 = ORIENTED_EDGE ( 'NONE', *, *, #129, .T. ) ;
#44 = STYLED_ITEM ( 'NONE', ( #196 ), #69 ) ;
#45 = CLOSED_SHELL ( 'NONE', ( #74, #246, #222, #33 ) ) ;
#46 =( NAMED_UNIT ( * ) PLANE_ANGLE_UNIT ( ) SI_UNIT ( $, .RADIAN. ) );
#47 = EDGE_CURVE ( 'NONE', #41, #18, #219, .T. ) ;
#48 = ORIENTED_EDGE ( 'NONE', *, *, #47, .F. ) ;
#49 =( NAMED_UNIT ( * ) PLANE_ANGLE_UNIT ( ) SI_UNIT ( $, .RADIAN. ) );
#50 = SURFACE_STYLE_USAGE ( .BOTH. , #272 ) ;
#51 = MECHANICAL_DESIGN_GEOMETRIC_PRESENTATION_REPRESENTATION (  '', ( #304 ), #223 ) ;
#52 = CARTESIAN_POINT ( 'NONE',  ( 0.000000000000000000, 0.000000000000000000, 0.000000000000000000 ) ) ;
#53 = ORIENTED_EDGE ( 'NONE', *, *, #149, .F. ) ;
#54 =( LENGTH_UNIT ( ) NAMED_UNIT ( * ) SI_UNIT ( $, .METRE. ) );
#55 =( CONVERSION_BASED_UNIT ( 'INCH', #5 ) LENGTH_UNIT ( ) NAMED_UNIT ( #276 ) );
#56 =( NAMED_UNIT ( * ) SI_UNIT ( $, .STERADIAN. ) SOLID_ANGLE_UNIT ( ) );
#57 = CYLINDRICAL_SURFACE ( 'NONE', #306, 0.3750000000000000555 ) ;
#58 = ORIENTED_EDGE ( 'NONE', *, *, #16, .T. ) ;
#59 =( CONVERSION_BASED_UNIT ( 'INCH', #127 ) LENGTH_UNIT ( ) NAMED_UNIT ( #133 ) );
#60 = FILL_AREA_STYLE ('',( #147 ) ) ;
#61 = CYLINDRICAL_SURFACE ( 'NONE', #252, 0.3750000000000000555 ) ;
#62 =( NAMED_UNIT ( * ) PLANE_ANGLE_UNIT ( ) SI_UNIT ( $, .RADIAN. ) );
#63 = PLANE ( 'NONE',  #27 ) ;
#64 = CIRCLE ( 'NONE', #236, 0.3750000000000001665 ) ;
#65 = EDGE_LOOP ( 'NONE', ( #118, #58, #294, #68 ) ) ;
#66 = DIRECTION ( 'NONE',  ( 0.000000000000000000, 0.000000000000000000, -1.000000000000000000 ) ) ;
#67 =( NAMED_UNIT ( * ) PLANE_ANGLE_UNIT ( ) SI_UNIT ( $, .RADIAN. ) );
#68 = ORIENTED_EDGE ( 'NONE', *, *, #296, .F. ) ;
#69 = ADVANCED_FACE ( 'NONE', ( #170 ), #61, .T. ) ;
#70 = FILL_AREA_STYLE_COLOUR ( '', #205 ) ;
#71 = EDGE_LOOP ( 'NONE', ( #113, #162, #15, #14 ) ) ;
#72 = UNCERTAINTY_MEASURE_WITH_UNIT (LENGTH_MEASURE( 1.000000000000000082E-05 ), #11, 'distance_accuracy_value', 'NONE');
#73 = SURFACE_STYLE_USAGE ( .BOTH. , #231 ) ;
#74 = ADVANCED_FACE ( 'NONE', ( #36 ), #144, .T. ) ;
#75 = DIRECTION ( 'NONE',  ( -1.000000000000000000, 0.000000000000000000, 0.000000000000000000 ) ) ;
#76 = CIRCLE ( 'NONE', #148, 0.3750000000000000555 ) ;
#77 = ORIENTED_EDGE ( 'NONE', *, *, #161, .F. ) ;
#78 = DIRECTION ( 'NONE',  ( -4.453261087808560759E-17, 1.000000000000000000, -0.000000000000000000 ) ) ;
#79 = DIRECTION ( 'NONE',  ( 4.453261087808560759E-17, -1.000000000000000000, 0.000000000000000000 ) ) ;
#80 = UNCERTAINTY_MEASURE_WITH_UNIT (LENGTH_MEASURE( 1.000000000000000082E-05 ), #184, 'distance_accuracy_value', 'NONE');
#81 = VECTOR ( 'NONE', #104, 39.37007874015748143 ) ;
#82 = COLOUR_RGB ( '',1.000000000000000000, 0.000000000000000000, 0.000000000000000000 ) ;
#83 =( GEOMETRIC_REPRESENTATION_CONTEXT ( 3 ) GLOBAL_UNCERTAINTY_ASSIGNED_CONTEXT ( ( #12 ) ) GLOBAL_UNIT_ASSIGNED_CONTEXT ( ( #187, #49, #233 ) ) REPRESENTATION_CONTEXT ( 'NONE', 'WORKASPACE' ) );
#84 = APPLICATION_PROTOCOL_DEFINITION ( 'draft international standard', 'automotive_design', 1998, #298 ) ;
#85 = LINE ( 'NONE', #17, #108 ) ;
#86 = EDGE_LOOP ( 'NONE', ( #115, #154, #92, #48 ) ) ;
#87 = FILL_AREA_STYLE_COLOUR ( '', #156 ) ;
#88 = DIRECTION ( 'NONE',  ( 0.000000000000000000, 0.000000000000000000, -1.000000000000000000 ) ) ;
#89 = VERTEX_POINT ( 'NONE', #136 ) ;
#90 =( GEOMETRIC_REPRESENTATION_CONTEXT ( 3 ) GLOBAL_UNCERTAINTY_ASSIGNED_CONTEXT ( ( #235 ) ) GLOBAL_UNIT_ASSIGNED_CONTEXT ( ( #4, #284, #56 ) ) REPRESENTATION_CONTEXT ( 'NONE', 'WORKASPACE' ) );
#91 = FILL_AREA_STYLE ('',( #300 ) ) ;
#92 = ORIENTED_EDGE ( 'NONE', *, *, #129, .F. ) ;
#93 = UNCERTAINTY_MEASURE_WITH_UNIT (LENGTH_MEASURE( 1.000000000000000082E-05 ), #55, 'distance_accuracy_value', 'NONE');
#94 = PRESENTATION_STYLE_ASSIGNMENT (( #73 ) ) ;
#95 =( LENGTH_UNIT ( ) NAMED_UNIT ( * ) SI_UNIT ( $, .METRE. ) );
#96 = FACE_OUTER_BOUND ( 'NONE', #185, .T. ) ;
#97 = DIRECTION ( 'NONE',  ( 0.000000000000000000, 0.000000000000000000, -1.000000000000000000 ) ) ;
#98 =( NAMED_UNIT ( * ) SI_UNIT ( $, .STERADIAN. ) SOLID_ANGLE_UNIT ( ) );
#99 = MANIFOLD_SOLID_BREP ( 'Revolve - Cutting Edge', #232 ) ;
#100 =( LENGTH_UNIT ( ) NAMED_UNIT ( * ) SI_UNIT ( $, .METRE. ) );
#101 = COLOUR_RGB ( '',1.000000000000000000, 0.000000000000000000, 0.000000000000000000 ) ;
#102 = PRESENTATION_STYLE_ASSIGNMENT (( #50 ) ) ;
#103 = EDGE_CURVE ( 'NONE', #152, #237, #85, .T. ) ;
#104 = DIRECTION ( 'NONE',  ( -0.000000000000000000, -1.000000000000000000, -0.000000000000000000 ) ) ;
#105 = PRESENTATION_LAYER_ASSIGNMENT (  '', '', ( #23 ) ) ;
#106 = SURFACE_STYLE_USAGE ( .BOTH. , #221 ) ;
#107 = ADVANCED_FACE ( 'NONE', ( #179 ), #63, .T. ) ;
#108 = VECTOR ( 'NONE', #112, 39.37007874015748143 ) ;
#109 = CARTESIAN_POINT ( 'NONE',  ( -1.224646799147354440E-16, 6.000000000000000888, 0.000000000000000000 ) ) ;
#110 = DIRECTION ( 'NONE',  ( 0.000000000000000000, -1.000000000000000000, -0.000000000000000000 ) ) ;
#111 = CARTESIAN_POINT ( 'NONE',  ( 0.000000000000000000, 3.250000000000000000, 0.000000000000000000 ) ) ;
#112 = DIRECTION ( 'NONE',  ( -4.453261087808560759E-17, 1.000000000000000000, -0.000000000000000000 ) ) ;
#113 = ORIENTED_EDGE ( 'NONE', *, *, #202, .T. ) ;
#114 = COLOUR_RGB ( '',1.000000000000000000, 0.000000000000000000, 0.000000000000000000 ) ;
#115 = ORIENTED_EDGE ( 'NONE', *, *, #149, .T. ) ;
#116 = CARTESIAN_POINT ( 'NONE',  ( 4.592425496802575451E-17, 0.000000000000000000, 0.3750000000000000555 ) ) ;
#117 = CYLINDRICAL_SURFACE ( 'NONE', #200, 0.3750000000000001110 ) ;
#118 = ORIENTED_EDGE ( 'NONE', *, *, #25, .F. ) ;
#119 = VECTOR ( 'NONE', #228, 39.37007874015748143 ) ;
#120 = CARTESIAN_POINT ( 'NONE',  ( 3.718412684285603637E-34, 3.250000000000000000, 0.000000000000000000 ) ) ;
#121 = DIRECTION ( 'NONE',  ( 0.000000000000000000, 1.000000000000000000, 0.000000000000000000 ) ) ;
#122 = SURFACE_STYLE_FILL_AREA ( #288 ) ;
#123 = DIRECTION ( 'NONE',  ( -0.000000000000000000, -1.000000000000000000, -0.000000000000000000 ) ) ;
#124 = DIRECTION ( 'NONE',  ( -4.453261087808560759E-17, 1.000000000000000000, -0.000000000000000000 ) ) ;
#125 = CARTESIAN_POINT ( 'NONE',  ( -1.224646799147354440E-16, 6.000000000000000888, 0.000000000000000000 ) ) ;
#126 = FILL_AREA_STYLE_COLOUR ( '', #82 ) ;
#127 = LENGTH_MEASURE_WITH_UNIT ( LENGTH_MEASURE( 0.02539999999999999897 ), #100 );
#128 = CARTESIAN_POINT ( 'NONE',  ( 0.000000000000000000, 3.250000000000000000, -0.3750000000000000555 ) ) ;
#129 = EDGE_CURVE ( 'NONE', #18, #89, #150, .T. ) ;
#130 =( GEOMETRIC_REPRESENTATION_CONTEXT ( 3 ) GLOBAL_UNCERTAINTY_ASSIGNED_CONTEXT ( ( #93 ) ) GLOBAL_UNIT_ASSIGNED_CONTEXT ( ( #55, #62, #253 ) ) REPRESENTATION_CONTEXT ( 'NONE', 'WORKASPACE' ) );
#131 = FILL_AREA_STYLE ('',( #297 ) ) ;
#132 = CIRCLE ( 'NONE', #254, 0.3750000000000000555 ) ;
#133 = DIMENSIONAL_EXPONENTS ( 1.000000000000000000, 0.000000000000000000, 0.000000000000000000, 0.000000000000000000, 0.000000000000000000, 0.000000000000000000, 0.000000000000000000 ) ;
#134 = PRODUCT_DEFINITION_CONTEXT ( 'detailed design', #285, 'design' ) ;
#135 = SHAPE_DEFINITION_REPRESENTATION ( #282, #38 ) ;
#136 = CARTESIAN_POINT ( 'NONE',  ( 4.592425496802575451E-17, 0.000000000000000000, 0.3750000000000000555 ) ) ;
#137 = AXIS2_PLACEMENT_3D ( 'NONE', #26, #124, #291 ) ;
#138 = AXIS2_PLACEMENT_3D ( 'NONE', #125, #287, #242 ) ;
#139 = ORIENTED_EDGE ( 'NONE', *, *, #257, .T. ) ;
#140 = FACE_OUTER_BOUND ( 'NONE', #65, .T. ) ;
#141 = PRESENTATION_STYLE_ASSIGNMENT (( #157 ) ) ;
#142 =( LENGTH_UNIT ( ) NAMED_UNIT ( * ) SI_UNIT ( $, .METRE. ) );
#143 = CARTESIAN_POINT ( 'NONE',  ( 0.000000000000000000, 0.000000000000000000, 0.000000000000000000 ) ) ;
#144 = CYLINDRICAL_SURFACE ( 'NONE', #289, 0.3750000000000001110 ) ;
#145 = PRESENTATION_LAYER_ASSIGNMENT (  '', '', ( #275 ) ) ;
#146 = DIRECTION ( 'NONE',  ( -0.000000000000000000, -1.000000000000000000, -0.000000000000000000 ) ) ;
#147 = FILL_AREA_STYLE_COLOUR ( '', #114 ) ;
#148 = AXIS2_PLACEMENT_3D ( 'NONE', #22, #78, #208 ) ;
#149 = EDGE_CURVE ( 'NONE', #41, #234, #132, .T. ) ;
#150 = CIRCLE ( 'NONE', #266, 0.3750000000000000555 ) ;
#151 = DIRECTION ( 'NONE',  ( -0.000000000000000000, -1.000000000000000000, -0.000000000000000000 ) ) ;
#152 = VERTEX_POINT ( 'NONE', #155 ) ;
#153 = SURFACE_STYLE_FILL_AREA ( #183 ) ;
#154 = ORIENTED_EDGE ( 'NONE', *, *, #161, .T. ) ;
#155 = CARTESIAN_POINT ( 'NONE',  ( -0.3750000000000000555, 3.250000000000000000, 0.000000000000000000 ) ) ;
#156 = COLOUR_RGB ( '',0.7921568627450980005, 0.8196078431372548767, 0.9333333333333333481 ) ;
#157 = SURFACE_STYLE_USAGE ( .BOTH. , #283 ) ;
#158 = LENGTH_MEASURE_WITH_UNIT ( LENGTH_MEASURE( 0.02539999999999999897 ), #95 );
#159 =( LENGTH_UNIT ( ) NAMED_UNIT ( * ) SI_UNIT ( $, .METRE. ) );
#160 = AXIS2_PLACEMENT_3D ( 'NONE', #120, #163, #308 ) ;
#161 = EDGE_CURVE ( 'NONE', #234, #89, #20, .T. ) ;
#162 = ORIENTED_EDGE ( 'NONE', *, *, #25, .T. ) ;
#163 = DIRECTION ( 'NONE',  ( -4.453261087808560759E-17, 1.000000000000000000, 0.000000000000000000 ) ) ;
#164 = CIRCLE ( 'NONE', #34, 0.3750000000000000555 ) ;
#165 = PRESENTATION_STYLE_ASSIGNMENT (( #261 ) ) ;
#166 =( GEOMETRIC_REPRESENTATION_CONTEXT ( 3 ) GLOBAL_UNCERTAINTY_ASSIGNED_CONTEXT ( ( #72 ) ) GLOBAL_UNIT_ASSIGNED_CONTEXT ( ( #11, #273, #171 ) ) REPRESENTATION_CONTEXT ( 'NONE', 'WORKASPACE' ) );
#167 = ORIENTED_EDGE ( 'NONE', *, *, #271, .T. ) ;
#168 = EDGE_CURVE ( 'NONE', #234, #41, #164, .T. ) ;
#169 = CARTESIAN_POINT ( 'NONE',  ( 0.3750000000000000555, 6.000000000000000888, 0.000000000000000000 ) ) ;
#170 = FACE_OUTER_BOUND ( 'NONE', #86, .T. ) ;
#171 =( NAMED_UNIT ( * ) SI_UNIT ( $, .STERADIAN. ) SOLID_ANGLE_UNIT ( ) );
#172 =( LENGTH_UNIT ( ) NAMED_UNIT ( * ) SI_UNIT ( $, .METRE. ) );
#173 = DIRECTION ( 'NONE',  ( -1.000000000000000000, 0.000000000000000000, 0.000000000000000000 ) ) ;
#174 = UNCERTAINTY_MEASURE_WITH_UNIT (LENGTH_MEASURE( 1.000000000000000082E-05 ), #292, 'distance_accuracy_value', 'NONE');
#175 = MECHANICAL_DESIGN_GEOMETRIC_PRESENTATION_REPRESENTATION (  '', ( #44 ), #166 ) ;
#176 = AXIS2_PLACEMENT_3D ( 'NONE', #169, #79, #265 ) ;
#177 = DIMENSIONAL_EXPONENTS ( 1.000000000000000000, 0.000000000000000000, 0.000000000000000000, 0.000000000000000000, 0.000000000000000000, 0.000000000000000000, 0.000000000000000000 ) ;
#178 = ADVANCED_FACE ( 'NONE', ( #201 ), #225, .T. ) ;
#179 = FACE_OUTER_BOUND ( 'NONE', #182, .T. ) ;
#180 = AXIS2_PLACEMENT_3D ( 'NONE', #35, #110, #66 ) ;
#181 = PRODUCT ( '01690', '01690', '', ( #256 ) ) ;
#182 = EDGE_LOOP ( 'NONE', ( #53, #199 ) ) ;
#183 = FILL_AREA_STYLE ('',( #87 ) ) ;
#184 =( CONVERSION_BASED_UNIT ( 'INCH', #158 ) LENGTH_UNIT ( ) NAMED_UNIT ( #198 ) );
#185 = EDGE_LOOP ( 'NONE', ( #77, #269, #229, #204 ) ) ;
#186 = CARTESIAN_POINT ( 'NONE',  ( -1.224646799147354440E-16, 6.000000000000000888, 0.000000000000000000 ) ) ;
#187 =( CONVERSION_BASED_UNIT ( 'INCH', #239 ) LENGTH_UNIT ( ) NAMED_UNIT ( #37 ) );
#188 = DIRECTION ( 'NONE',  ( -1.000000000000000000, 0.000000000000000000, 0.000000000000000000 ) ) ;
#189 = CARTESIAN_POINT ( 'NONE',  ( 0.000000000000000000, 3.250000000000000000, 0.000000000000000000 ) ) ;
#190 = MECHANICAL_DESIGN_GEOMETRIC_PRESENTATION_REPRESENTATION (  '', ( #275 ), #238 ) ;
#191 = CARTESIAN_POINT ( 'NONE',  ( 0.3749999999999999445, 6.000000000000000888, 4.592425496802576068E-17 ) ) ;
#192 = PRESENTATION_LAYER_ASSIGNMENT (  '', '', ( #262 ) ) ;
#193 = AXIS2_PLACEMENT_3D ( 'NONE', #52, #6, #97 ) ;
#194 = MECHANICAL_DESIGN_GEOMETRIC_PRESENTATION_REPRESENTATION (  '', ( #251 ), #130 ) ;
#195 = MANIFOLD_SOLID_BREP ( 'Revolve - Tool Body (Straight Shanked)', #45 ) ;
#196 = PRESENTATION_STYLE_ASSIGNMENT (( #106 ) ) ;
#197 = DIRECTION ( 'NONE',  ( 0.000000000000000000, 0.000000000000000000, 1.000000000000000000 ) ) ;
#198 = DIMENSIONAL_EXPONENTS ( 1.000000000000000000, 0.000000000000000000, 0.000000000000000000, 0.000000000000000000, 0.000000000000000000, 0.000000000000000000, 0.000000000000000000 ) ;
#199 = ORIENTED_EDGE ( 'NONE', *, *, #168, .F. ) ;
#200 = AXIS2_PLACEMENT_3D ( 'NONE', #216, #209, #75 ) ;
#201 = FACE_OUTER_BOUND ( 'NONE', #264, .T. ) ;
#202 = EDGE_CURVE ( 'NONE', #152, #303, #76, .T. ) ;
#203 = SURFACE_SIDE_STYLE ('',( #307 ) ) ;
#204 = ORIENTED_EDGE ( 'NONE', *, *, #257, .F. ) ;
#205 = COLOUR_RGB ( '',1.000000000000000000, 0.000000000000000000, 0.000000000000000000 ) ;
#206 = MECHANICAL_DESIGN_GEOMETRIC_PRESENTATION_REPRESENTATION (  '', ( #262 ), #299 ) ;
#207 = AXIS2_PLACEMENT_3D ( 'NONE', #226, #197, #301 ) ;
#208 = DIRECTION ( 'NONE',  ( -1.000000000000000000, 0.000000000000000000, 0.000000000000000000 ) ) ;
#209 = DIRECTION ( 'NONE',  ( -4.453261087808560759E-17, 1.000000000000000000, -0.000000000000000000 ) ) ;
#210 = LINE ( 'NONE', #191, #8 ) ;
#211 = DIRECTION ( 'NONE',  ( 0.000000000000000000, -0.000000000000000000, 1.000000000000000000 ) ) ;
#212 = FACE_OUTER_BOUND ( 'NONE', #280, .T. ) ;
#213 = LENGTH_MEASURE_WITH_UNIT ( LENGTH_MEASURE( 0.02539999999999999897 ), #54 );
#214 = DIRECTION ( 'NONE',  ( 0.000000000000000000, 0.000000000000000000, -1.000000000000000000 ) ) ;
#215 = CARTESIAN_POINT ( 'NONE',  ( 0.000000000000000000, 0.000000000000000000, -0.3750000000000000555 ) ) ;
#216 = CARTESIAN_POINT ( 'NONE',  ( -1.224646799147354440E-16, 6.000000000000000888, 0.000000000000000000 ) ) ;
#217 = PLANE ( 'NONE',  #176 ) ;
#218 = CIRCLE ( 'NONE', #137, 0.3750000000000000555 ) ;
#219 = LINE ( 'NONE', #9, #81 ) ;
#220 = DIRECTION ( 'NONE',  ( 0.000000000000000000, 0.000000000000000000, -1.000000000000000000 ) ) ;
#221 = SURFACE_SIDE_STYLE ('',( #270 ) ) ;
#222 = ADVANCED_FACE ( 'NONE', ( #140 ), #117, .T. ) ;
#223 =( GEOMETRIC_REPRESENTATION_CONTEXT ( 3 ) GLOBAL_UNCERTAINTY_ASSIGNED_CONTEXT ( ( #80 ) ) GLOBAL_UNIT_ASSIGNED_CONTEXT ( ( #184, #46, #29 ) ) REPRESENTATION_CONTEXT ( 'NONE', 'WORKASPACE' ) );
#224 = DIMENSIONAL_EXPONENTS ( 1.000000000000000000, 0.000000000000000000, 0.000000000000000000, 0.000000000000000000, 0.000000000000000000, 0.000000000000000000, 0.000000000000000000 ) ;
#225 = PLANE ( 'NONE',  #180 ) ;
#226 = CARTESIAN_POINT ( 'NONE',  ( 0.000000000000000000, 0.000000000000000000, 0.000000000000000000 ) ) ;
#227 = SURFACE_SIDE_STYLE ('',( #153 ) ) ;
#228 = DIRECTION ( 'NONE',  ( -0.000000000000000000, -1.000000000000000000, -0.000000000000000000 ) ) ;
#229 = ORIENTED_EDGE ( 'NONE', *, *, #47, .T. ) ;
#230 = PRESENTATION_STYLE_ASSIGNMENT (( #305 ) ) ;
#231 = SURFACE_SIDE_STYLE ('',( #42 ) ) ;
#232 = CLOSED_SHELL ( 'NONE', ( #69, #107, #40, #178 ) ) ;
#233 =( NAMED_UNIT ( * ) SI_UNIT ( $, .STERADIAN. ) SOLID_ANGLE_UNIT ( ) );
#234 = VERTEX_POINT ( 'NONE', #21 ) ;
#235 = UNCERTAINTY_MEASURE_WITH_UNIT (LENGTH_MEASURE( 1.000000000000000082E-05 ), #4, 'distance_accuracy_value', 'NONE');
#236 = AXIS2_PLACEMENT_3D ( 'NONE', #186, #267, #188 ) ;
#237 = VERTEX_POINT ( 'NONE', #28 ) ;
#238 =( GEOMETRIC_REPRESENTATION_CONTEXT ( 3 ) GLOBAL_UNCERTAINTY_ASSIGNED_CONTEXT ( ( #13 ) ) GLOBAL_UNIT_ASSIGNED_CONTEXT ( ( #59, #67, #302 ) ) REPRESENTATION_CONTEXT ( 'NONE', 'WORKASPACE' ) );
#239 = LENGTH_MEASURE_WITH_UNIT ( LENGTH_MEASURE( 0.02539999999999999897 ), #159 );
#240 = CARTESIAN_POINT ( 'NONE',  ( 0.000000000000000000, 3.250000000000000000, 0.000000000000000000 ) ) ;
#241 = DIRECTION ( 'NONE',  ( -4.453261087808560759E-17, 1.000000000000000000, -0.000000000000000000 ) ) ;
#242 = DIRECTION ( 'NONE',  ( -1.000000000000000000, 0.000000000000000000, 0.000000000000000000 ) ) ;
#243 =( LENGTH_UNIT ( ) NAMED_UNIT ( * ) SI_UNIT ( $, .METRE. ) );
#244 = CARTESIAN_POINT ( 'NONE',  ( 0.3750000000000000555, 3.250000000000000000, 4.592425496802576684E-17 ) ) ;
#245 = CARTESIAN_POINT ( 'NONE',  ( 0.3750000000000000555, 6.000000000000000888, 4.592425496802576684E-17 ) ) ;
#246 = ADVANCED_FACE ( 'NONE', ( #263 ), #1, .F. ) ;
#247 = DIRECTION ( 'NONE',  ( -0.000000000000000000, -1.000000000000000000, -0.000000000000000000 ) ) ;
#248 = LENGTH_MEASURE_WITH_UNIT ( LENGTH_MEASURE( 0.02539999999999999897 ), #172 );
#249 = MECHANICAL_DESIGN_GEOMETRIC_PRESENTATION_REPRESENTATION (  '', ( #23 ), #83 ) ;
#250 = CARTESIAN_POINT ( 'NONE',  ( 0.000000000000000000, 0.000000000000000000, 0.000000000000000000 ) ) ;
#251 = STYLED_ITEM ( 'NONE', ( #94 ), #178 ) ;
#252 = AXIS2_PLACEMENT_3D ( 'NONE', #250, #146, #220 ) ;
#253 =( NAMED_UNIT ( * ) SI_UNIT ( $, .STERADIAN. ) SOLID_ANGLE_UNIT ( ) );
#254 = AXIS2_PLACEMENT_3D ( 'NONE', #189, #123, #214 ) ;
#255 = DIMENSIONAL_EXPONENTS ( 1.000000000000000000, 0.000000000000000000, 0.000000000000000000, 0.000000000000000000, 0.000000000000000000, 0.000000000000000000, 0.000000000000000000 ) ;
#256 = PRODUCT_CONTEXT ( 'NONE', #298, 'mechanical' ) ;
#257 = EDGE_CURVE ( 'NONE', #89, #18, #286, .T. ) ;
#258 = ORIENTED_EDGE ( 'NONE', *, *, #16, .F. ) ;
#259 = FILL_AREA_STYLE ('',( #70 ) ) ;
#260 = PRODUCT_RELATED_PRODUCT_CATEGORY ( 'part', '', ( #181 ) ) ;
#261 = SURFACE_STYLE_USAGE ( .BOTH. , #203 ) ;
#262 = STYLED_ITEM ( 'NONE', ( #102 ), #40 ) ;
#263 = FACE_OUTER_BOUND ( 'NONE', #7, .T. ) ;
#264 = EDGE_LOOP ( 'NONE', ( #43, #139 ) ) ;
#265 = DIRECTION ( 'NONE',  ( 1.000000000000000000, 4.453261087808560759E-17, 0.000000000000000000 ) ) ;
#266 = AXIS2_PLACEMENT_3D ( 'NONE', #268, #2, #309 ) ;
#267 = DIRECTION ( 'NONE',  ( -4.453261087808560759E-17, 1.000000000000000000, -0.000000000000000000 ) ) ;
#268 = CARTESIAN_POINT ( 'NONE',  ( 0.000000000000000000, 0.000000000000000000, 0.000000000000000000 ) ) ;
#269 = ORIENTED_EDGE ( 'NONE', *, *, #168, .T. ) ;
#270 = SURFACE_STYLE_FILL_AREA ( #131 ) ;
#271 = EDGE_CURVE ( 'NONE', #237, #24, #64, .T. ) ;
#272 = SURFACE_SIDE_STYLE ('',( #122 ) ) ;
#273 =( NAMED_UNIT ( * ) PLANE_ANGLE_UNIT ( ) SI_UNIT ( $, .RADIAN. ) );
#274 = PRODUCT_DEFINITION ( 'UNKNOWN', '', #290, #134 ) ;
#275 = STYLED_ITEM ( 'NONE', ( #230 ), #99 ) ;
#276 = DIMENSIONAL_EXPONENTS ( 1.000000000000000000, 0.000000000000000000, 0.000000000000000000, 0.000000000000000000, 0.000000000000000000, 0.000000000000000000, 0.000000000000000000 ) ;
#277 = CIRCLE ( 'NONE', #138, 0.3750000000000001665 ) ;
#278 = PRESENTATION_LAYER_ASSIGNMENT (  '', '', ( #304 ) ) ;
#279 = ORIENTED_EDGE ( 'NONE', *, *, #202, .F. ) ;
#280 = EDGE_LOOP ( 'NONE', ( #167, #30 ) ) ;
#281 = SURFACE_STYLE_FILL_AREA ( #91 ) ;
#282 = PRODUCT_DEFINITION_SHAPE ( 'NONE', 'NONE',  #274 ) ;
#283 = SURFACE_SIDE_STYLE ('',( #281 ) ) ;
#284 =( NAMED_UNIT ( * ) PLANE_ANGLE_UNIT ( ) SI_UNIT ( $, .RADIAN. ) );
#285 = APPLICATION_CONTEXT ( 'automotive_design' ) ;
#286 = CIRCLE ( 'NONE', #193, 0.3750000000000000555 ) ;
#287 = DIRECTION ( 'NONE',  ( -4.453261087808560759E-17, 1.000000000000000000, -0.000000000000000000 ) ) ;
#288 = FILL_AREA_STYLE ('',( #126 ) ) ;
#289 = AXIS2_PLACEMENT_3D ( 'NONE', #109, #10, #173 ) ;
#290 = PRODUCT_DEFINITION_FORMATION_WITH_SPECIFIED_SOURCE ( 'ANY', '', #181, .NOT_KNOWN. ) ;
#291 = DIRECTION ( 'NONE',  ( -1.000000000000000000, 0.000000000000000000, 0.000000000000000000 ) ) ;
#292 =( CONVERSION_BASED_UNIT ( 'INCH', #31 ) LENGTH_UNIT ( ) NAMED_UNIT ( #177 ) );
#293 = COLOUR_RGB ( '',0.7921568627450980005, 0.8196078431372548767, 0.9333333333333333481 ) ;
#294 = ORIENTED_EDGE ( 'NONE', *, *, #103, .T. ) ;
#295 = PRESENTATION_LAYER_ASSIGNMENT (  '', '', ( #251 ) ) ;
#296 = EDGE_CURVE ( 'NONE', #24, #237, #277, .T. ) ;
#297 = FILL_AREA_STYLE_COLOUR ( '', #101 ) ;
#298 = APPLICATION_CONTEXT ( 'automotive_design' ) ;
#299 =( GEOMETRIC_REPRESENTATION_CONTEXT ( 3 ) GLOBAL_UNCERTAINTY_ASSIGNED_CONTEXT ( ( #174 ) ) GLOBAL_UNIT_ASSIGNED_CONTEXT ( ( #292, #3, #98 ) ) REPRESENTATION_CONTEXT ( 'NONE', 'WORKASPACE' ) );
#300 = FILL_AREA_STYLE_COLOUR ( '', #293 ) ;
#301 = DIRECTION ( 'NONE',  ( 1.000000000000000000, 0.000000000000000000, 0.000000000000000000 ) ) ;
#302 =( NAMED_UNIT ( * ) SI_UNIT ( $, .STERADIAN. ) SOLID_ANGLE_UNIT ( ) );
#303 = VERTEX_POINT ( 'NONE', #244 ) ;
#304 = STYLED_ITEM ( 'NONE', ( #165 ), #107 ) ;
#305 = SURFACE_STYLE_USAGE ( .BOTH. , #227 ) ;
#306 = AXIS2_PLACEMENT_3D ( 'NONE', #143, #247, #32 ) ;
#307 = SURFACE_STYLE_FILL_AREA ( #60 ) ;
#308 = DIRECTION ( 'NONE',  ( -1.000000000000000000, -4.453261087808560759E-17, 0.000000000000000000 ) ) ;
#309 = DIRECTION ( 'NONE',  ( 0.000000000000000000, 0.000000000000000000, -1.000000000000000000 ) ) ;
ENDSEC;
END-ISO-10303-21;
