ISO-10303-21;
HEADER;
FILE_DESCRIPTION (( 'STEP AP214' ),
    '1' );
FILE_NAME ('01152.STEP',
    '2023-06-22T14:20:39',
    ( '' ),
    ( '' ),
    'SwSTEP 2.0',
    'SolidWorks 2023',
    '' );
FILE_SCHEMA (( 'AUTOMOTIVE_DESIGN' ));
ENDSEC;

DATA;
#1 = LENGTH_MEASURE_WITH_UNIT ( LENGTH_MEASURE( 0.02539999999999999897 ), #180 );
#2 = EDGE_CURVE ( 'NONE', #124, #206, #115, .T. ) ;
#3 = DIRECTION ( 'NONE',  ( -3.768143997376471359E-17, -1.000000000000000000, 0.000000000000000000 ) ) ;
#4 = CARTESIAN_POINT ( 'NONE',  ( -0.1250000000000000278, 0.3749999999999999445, 0.000000000000000000 ) ) ;
#5 = SURFACE_STYLE_USAGE ( .BOTH. , #9 ) ;
#6 = LINE ( 'NONE', #281, #162 ) ;
#7 = AXIS2_PLACEMENT_3D ( 'NONE', #213, #154, #133 ) ;
#8 = AXIS2_PLACEMENT_3D ( 'NONE', #60, #271, #151 ) ;
#9 = SURFACE_SIDE_STYLE ('',( #108 ) ) ;
#10 = EDGE_CURVE ( 'NONE', #262, #124, #25, .T. ) ;
#11 = STYLED_ITEM ( 'NONE', ( #89 ), #159 ) ;
#12 = MECHANICAL_DESIGN_GEOMETRIC_PRESENTATION_REPRESENTATION (  '', ( #296 ), #122 ) ;
#13 = ORIENTED_EDGE ( 'NONE', *, *, #266, .T. ) ;
#14 = DIRECTION ( 'NONE',  ( 3.768143997376471359E-17, 1.000000000000000000, -0.000000000000000000 ) ) ;
#15 = CARTESIAN_POINT ( 'NONE',  ( 0.1250000000000000278, 2.000000000000000000, 1.530808498934191817E-17 ) ) ;
#16 = SURFACE_SIDE_STYLE ('',( #282 ) ) ;
#17 = PRESENTATION_STYLE_ASSIGNMENT (( #106 ) ) ;
#18 = ORIENTED_EDGE ( 'NONE', *, *, #54, .F. ) ;
#19 = EDGE_CURVE ( 'NONE', #99, #139, #269, .T. ) ;
#20 =( GEOMETRIC_REPRESENTATION_CONTEXT ( 3 ) GLOBAL_UNCERTAINTY_ASSIGNED_CONTEXT ( ( #32 ) ) GLOBAL_UNIT_ASSIGNED_CONTEXT ( ( #22, #190, #290 ) ) REPRESENTATION_CONTEXT ( 'NONE', 'WORKASPACE' ) );
#21 = ORIENTED_EDGE ( 'NONE', *, *, #172, .F. ) ;
#22 =( CONVERSION_BASED_UNIT ( 'INCH', #137 ) LENGTH_UNIT ( ) NAMED_UNIT ( #164 ) );
#23 = PRODUCT_DEFINITION ( 'UNKNOWN', '', #63, #294 ) ;
#24 = CARTESIAN_POINT ( 'NONE',  ( -0.1249999999999999167, 2.000000000000000000, 0.000000000000000000 ) ) ;
#25 = LINE ( 'NONE', #168, #236 ) ;
#26 =( LENGTH_UNIT ( ) NAMED_UNIT ( * ) SI_UNIT ( $, .METRE. ) );
#27 = DIRECTION ( 'NONE',  ( 0.000000000000000000, 0.000000000000000000, 1.000000000000000000 ) ) ;
#28 = AXIS2_PLACEMENT_3D ( 'NONE', #155, #179, #287 ) ;
#29 = FACE_OUTER_BOUND ( 'NONE', #101, .T. ) ;
#30 = LENGTH_MEASURE_WITH_UNIT ( LENGTH_MEASURE( 0.02539999999999999897 ), #178 );
#31 = DIRECTION ( 'NONE',  ( -1.000000000000000000, 0.000000000000000000, 0.000000000000000000 ) ) ;
#32 = UNCERTAINTY_MEASURE_WITH_UNIT (LENGTH_MEASURE( 1.000000000000000082E-05 ), #22, 'distance_accuracy_value', 'NONE');
#33 = PRESENTATION_LAYER_ASSIGNMENT (  '', '', ( #11 ) ) ;
#34 = AXIS2_PLACEMENT_3D ( 'NONE', #212, #3, #132 ) ;
#35 = DIRECTION ( 'NONE',  ( -0.000000000000000000, -1.000000000000000000, -0.000000000000000000 ) ) ;
#36 = VERTEX_POINT ( 'NONE', #4 ) ;
#37 = MECHANICAL_DESIGN_GEOMETRIC_PRESENTATION_REPRESENTATION (  '', ( #11 ), #134 ) ;
#38 = ORIENTED_EDGE ( 'NONE', *, *, #19, .T. ) ;
#39 = ORIENTED_EDGE ( 'NONE', *, *, #19, .F. ) ;
#40 = CARTESIAN_POINT ( 'NONE',  ( 0.000000000000000000, 0.3749999999999999445, 0.000000000000000000 ) ) ;
#41 = COLOUR_RGB ( '',1.000000000000000000, 0.000000000000000000, 0.000000000000000000 ) ;
#42 = ORIENTED_EDGE ( 'NONE', *, *, #2, .F. ) ;
#43 = PRODUCT_CONTEXT ( 'NONE', #156, 'mechanical' ) ;
#44 =( CONVERSION_BASED_UNIT ( 'INCH', #30 ) LENGTH_UNIT ( ) NAMED_UNIT ( #191 ) );
#45 = FACE_OUTER_BOUND ( 'NONE', #307, .T. ) ;
#46 = CARTESIAN_POINT ( 'NONE',  ( 0.000000000000000000, 0.3750000000000000555, -0.1250000000000000278 ) ) ;
#47 = SURFACE_STYLE_USAGE ( .BOTH. , #289 ) ;
#48 = CIRCLE ( 'NONE', #76, 0.1250000000000000278 ) ;
#49 = CARTESIAN_POINT ( 'NONE',  ( 8.874318240602707505E-35, 0.3750000000000000555, 0.000000000000000000 ) ) ;
#50 = FILL_AREA_STYLE ('',( #92 ) ) ;
#51 = DIMENSIONAL_EXPONENTS ( 1.000000000000000000, 0.000000000000000000, 0.000000000000000000, 0.000000000000000000, 0.000000000000000000, 0.000000000000000000, 0.000000000000000000 ) ;
#52 = UNCERTAINTY_MEASURE_WITH_UNIT (LENGTH_MEASURE( 1.000000000000000082E-05 ), #44, 'distance_accuracy_value', 'NONE');
#53 = MECHANICAL_DESIGN_GEOMETRIC_PRESENTATION_REPRESENTATION (  '', ( #62 ), #88 ) ;
#54 = EDGE_CURVE ( 'NONE', #139, #99, #229, .T. ) ;
#55 = ORIENTED_EDGE ( 'NONE', *, *, #291, .F. ) ;
#56 = SURFACE_SIDE_STYLE ('',( #220 ) ) ;
#57 = EDGE_CURVE ( 'NONE', #36, #130, #128, .T. ) ;
#58 = DIRECTION ( 'NONE',  ( -0.000000000000000000, -1.000000000000000000, -0.000000000000000000 ) ) ;
#59 = ORIENTED_EDGE ( 'NONE', *, *, #113, .T. ) ;
#60 = CARTESIAN_POINT ( 'NONE',  ( 0.000000000000000000, 0.3750000000000000555, 0.000000000000000000 ) ) ;
#61 = CARTESIAN_POINT ( 'NONE',  ( 0.000000000000000000, 0.3750000000000000555, 0.000000000000000000 ) ) ;
#62 = STYLED_ITEM ( 'NONE', ( #152 ), #197 ) ;
#63 = PRODUCT_DEFINITION_FORMATION_WITH_SPECIFIED_SOURCE ( 'ANY', '', #245, .NOT_KNOWN. ) ;
#64 = FILL_AREA_STYLE_COLOUR ( '', #41 ) ;
#65 = DIRECTION ( 'NONE',  ( -1.000000000000000000, 3.768143997376471359E-17, 0.000000000000000000 ) ) ;
#66 = DIRECTION ( 'NONE',  ( 3.768143997376471359E-17, 1.000000000000000000, -0.000000000000000000 ) ) ;
#67 = CARTESIAN_POINT ( 'NONE',  ( 1.530808498934191509E-17, 0.000000000000000000, 0.1250000000000000000 ) ) ;
#68 = DIRECTION ( 'NONE',  ( -1.000000000000000000, 0.000000000000000000, 0.000000000000000000 ) ) ;
#69 = UNCERTAINTY_MEASURE_WITH_UNIT (LENGTH_MEASURE( 1.000000000000000082E-05 ), #207, 'distance_accuracy_value', 'NONE');
#70 = STYLED_ITEM ( 'NONE', ( #304 ), #234 ) ;
#71 = UNCERTAINTY_MEASURE_WITH_UNIT (LENGTH_MEASURE( 1.000000000000000082E-05 ), #163, 'distance_accuracy_value', 'NONE');
#72 = DIRECTION ( 'NONE',  ( 3.768143997376471359E-17, 1.000000000000000000, -0.000000000000000000 ) ) ;
#73 = CYLINDRICAL_SURFACE ( 'NONE', #297, 0.1250000000000000000 ) ;
#74 = ORIENTED_EDGE ( 'NONE', *, *, #266, .F. ) ;
#75 = CYLINDRICAL_SURFACE ( 'NONE', #170, 0.1250000000000000000 ) ;
#76 = AXIS2_PLACEMENT_3D ( 'NONE', #40, #14, #283 ) ;
#77 =( NAMED_UNIT ( * ) SI_UNIT ( $, .STERADIAN. ) SOLID_ANGLE_UNIT ( ) );
#78 = VERTEX_POINT ( 'NONE', #242 ) ;
#79 = LENGTH_MEASURE_WITH_UNIT ( LENGTH_MEASURE( 0.02539999999999999897 ), #120 );
#80 =( LENGTH_UNIT ( ) NAMED_UNIT ( * ) SI_UNIT ( $, .METRE. ) );
#81 = EDGE_LOOP ( 'NONE', ( #55, #96, #105, #193 ) ) ;
#82 =( NAMED_UNIT ( * ) PLANE_ANGLE_UNIT ( ) SI_UNIT ( $, .RADIAN. ) );
#83 = FILL_AREA_STYLE_COLOUR ( '', #84 ) ;
#84 = COLOUR_RGB ( '',1.000000000000000000, 0.000000000000000000, 0.000000000000000000 ) ;
#85 =( NAMED_UNIT ( * ) SI_UNIT ( $, .STERADIAN. ) SOLID_ANGLE_UNIT ( ) );
#86 = PLANE ( 'NONE',  #28 ) ;
#87 = DIRECTION ( 'NONE',  ( 1.000000000000000000, 0.000000000000000000, 0.000000000000000000 ) ) ;
#88 =( GEOMETRIC_REPRESENTATION_CONTEXT ( 3 ) GLOBAL_UNCERTAINTY_ASSIGNED_CONTEXT ( ( #71 ) ) GLOBAL_UNIT_ASSIGNED_CONTEXT ( ( #163, #279, #169 ) ) REPRESENTATION_CONTEXT ( 'NONE', 'WORKASPACE' ) );
#89 = PRESENTATION_STYLE_ASSIGNMENT (( #5 ) ) ;
#90 = UNCERTAINTY_MEASURE_WITH_UNIT (LENGTH_MEASURE( 1.000000000000000082E-05 ), #305, 'distance_accuracy_value', 'NONE');
#91 = AXIS2_PLACEMENT_3D ( 'NONE', #231, #214, #270 ) ;
#92 = FILL_AREA_STYLE_COLOUR ( '', #208 ) ;
#93 = DIMENSIONAL_EXPONENTS ( 1.000000000000000000, 0.000000000000000000, 0.000000000000000000, 0.000000000000000000, 0.000000000000000000, 0.000000000000000000, 0.000000000000000000 ) ;
#94 = MANIFOLD_SOLID_BREP ( 'Revolve - Tool Body (Straight Shanked)', #218 ) ;
#95 = CARTESIAN_POINT ( 'NONE',  ( 6.123233995736766036E-17, 2.000000000000000000, 0.000000000000000000 ) ) ;
#96 = ORIENTED_EDGE ( 'NONE', *, *, #172, .T. ) ;
#97 =( NAMED_UNIT ( * ) SI_UNIT ( $, .STERADIAN. ) SOLID_ANGLE_UNIT ( ) );
#98 = FILL_AREA_STYLE ('',( #83 ) ) ;
#99 = VERTEX_POINT ( 'NONE', #15 ) ;
#100 = SURFACE_STYLE_USAGE ( .BOTH. , #16 ) ;
#101 = EDGE_LOOP ( 'NONE', ( #173, #38 ) ) ;
#102 = FILL_AREA_STYLE_COLOUR ( '', #200 ) ;
#103 = PRESENTATION_LAYER_ASSIGNMENT (  '', '', ( #62 ) ) ;
#104 = FILL_AREA_STYLE_COLOUR ( '', #161 ) ;
#105 = ORIENTED_EDGE ( 'NONE', *, *, #10, .T. ) ;
#106 = SURFACE_STYLE_USAGE ( .BOTH. , #167 ) ;
#107 = DIRECTION ( 'NONE',  ( -0.000000000000000000, -1.000000000000000000, -0.000000000000000000 ) ) ;
#108 = SURFACE_STYLE_FILL_AREA ( #153 ) ;
#109 = CARTESIAN_POINT ( 'NONE',  ( 6.123233995736766036E-17, 2.000000000000000000, 0.000000000000000000 ) ) ;
#110 = STYLED_ITEM ( 'NONE', ( #145 ), #202 ) ;
#111 = CARTESIAN_POINT ( 'NONE',  ( 0.1250000000000000278, 0.3749999999999999445, 1.530808498934191817E-17 ) ) ;
#112 = AXIS2_PLACEMENT_3D ( 'NONE', #95, #192, #68 ) ;
#113 = EDGE_CURVE ( 'NONE', #36, #139, #284, .T. ) ;
#114 = PLANE ( 'NONE',  #34 ) ;
#115 = CIRCLE ( 'NONE', #188, 0.1250000000000000000 ) ;
#116 = AXIS2_PLACEMENT_3D ( 'NONE', #109, #288, #267 ) ;
#117 = FACE_OUTER_BOUND ( 'NONE', #81, .T. ) ;
#118 = DIRECTION ( 'NONE',  ( 3.768143997376471359E-17, 1.000000000000000000, -0.000000000000000000 ) ) ;
#119 = ADVANCED_FACE ( 'NONE', ( #45 ), #126, .T. ) ;
#120 =( LENGTH_UNIT ( ) NAMED_UNIT ( * ) SI_UNIT ( $, .METRE. ) );
#121 = ORIENTED_EDGE ( 'NONE', *, *, #252, .T. ) ;
#122 =( GEOMETRIC_REPRESENTATION_CONTEXT ( 3 ) GLOBAL_UNCERTAINTY_ASSIGNED_CONTEXT ( ( #90 ) ) GLOBAL_UNIT_ASSIGNED_CONTEXT ( ( #305, #261, #221 ) ) REPRESENTATION_CONTEXT ( 'NONE', 'WORKASPACE' ) );
#123 = APPLICATION_CONTEXT ( 'automotive_design' ) ;
#124 = VERTEX_POINT ( 'NONE', #150 ) ;
#125 = SURFACE_STYLE_USAGE ( .BOTH. , #56 ) ;
#126 = PLANE ( 'NONE',  #91 ) ;
#127 =( LENGTH_UNIT ( ) NAMED_UNIT ( * ) SI_UNIT ( $, .METRE. ) );
#128 = CIRCLE ( 'NONE', #7, 0.1250000000000000278 ) ;
#129 = AXIS2_PLACEMENT_3D ( 'NONE', #272, #275, #246 ) ;
#130 = VERTEX_POINT ( 'NONE', #111 ) ;
#131 = DIRECTION ( 'NONE',  ( -0.000000000000000000, -1.000000000000000000, -0.000000000000000000 ) ) ;
#132 = DIRECTION ( 'NONE',  ( 1.000000000000000000, -3.768143997376471359E-17, 0.000000000000000000 ) ) ;
#133 = DIRECTION ( 'NONE',  ( -1.000000000000000000, 0.000000000000000000, 0.000000000000000000 ) ) ;
#134 =( GEOMETRIC_REPRESENTATION_CONTEXT ( 3 ) GLOBAL_UNCERTAINTY_ASSIGNED_CONTEXT ( ( #69 ) ) GLOBAL_UNIT_ASSIGNED_CONTEXT ( ( #207, #309, #85 ) ) REPRESENTATION_CONTEXT ( 'NONE', 'WORKASPACE' ) );
#135 = UNCERTAINTY_MEASURE_WITH_UNIT (LENGTH_MEASURE( 1.000000000000000082E-05 ), #295, 'distance_accuracy_value', 'NONE');
#136 = CIRCLE ( 'NONE', #8, 0.1250000000000000278 ) ;
#137 = LENGTH_MEASURE_WITH_UNIT ( LENGTH_MEASURE( 0.02539999999999999897 ), #127 );
#138 = DIMENSIONAL_EXPONENTS ( 1.000000000000000000, 0.000000000000000000, 0.000000000000000000, 0.000000000000000000, 0.000000000000000000, 0.000000000000000000, 0.000000000000000000 ) ;
#139 = VERTEX_POINT ( 'NONE', #211 ) ;
#140 = DIRECTION ( 'NONE',  ( -1.000000000000000000, 0.000000000000000000, 0.000000000000000000 ) ) ;
#141 = DIMENSIONAL_EXPONENTS ( 1.000000000000000000, 0.000000000000000000, 0.000000000000000000, 0.000000000000000000, 0.000000000000000000, 0.000000000000000000, 0.000000000000000000 ) ;
#142 = DIRECTION ( 'NONE',  ( 0.000000000000000000, 0.000000000000000000, -1.000000000000000000 ) ) ;
#143 = VECTOR ( 'NONE', #265, 39.37007874015748143 ) ;
#144 = EDGE_LOOP ( 'NONE', ( #74, #166, #59, #39 ) ) ;
#145 = PRESENTATION_STYLE_ASSIGNMENT (( #125 ) ) ;
#146 = CARTESIAN_POINT ( 'NONE',  ( 0.000000000000000000, 0.000000000000000000, 0.000000000000000000 ) ) ;
#147 = AXIS2_PLACEMENT_3D ( 'NONE', #298, #72, #140 ) ;
#148 = AXIS2_PLACEMENT_3D ( 'NONE', #61, #131, #238 ) ;
#149 = SURFACE_SIDE_STYLE ('',( #175 ) ) ;
#150 = CARTESIAN_POINT ( 'NONE',  ( 0.000000000000000000, 0.000000000000000000, -0.1250000000000000000 ) ) ;
#151 = DIRECTION ( 'NONE',  ( 0.000000000000000000, 0.000000000000000000, -1.000000000000000000 ) ) ;
#152 = PRESENTATION_STYLE_ASSIGNMENT (( #47 ) ) ;
#153 = FILL_AREA_STYLE ('',( #64 ) ) ;
#154 = DIRECTION ( 'NONE',  ( 3.768143997376471359E-17, 1.000000000000000000, -0.000000000000000000 ) ) ;
#155 = CARTESIAN_POINT ( 'NONE',  ( 0.000000000000000000, 0.000000000000000000, 0.000000000000000000 ) ) ;
#156 = APPLICATION_CONTEXT ( 'automotive_design' ) ;
#157 = CIRCLE ( 'NONE', #129, 0.1250000000000000000 ) ;
#158 = CYLINDRICAL_SURFACE ( 'NONE', #171, 0.1249999999999999861 ) ;
#159 = ADVANCED_FACE ( 'NONE', ( #241 ), #86, .T. ) ;
#160 = CARTESIAN_POINT ( 'NONE',  ( 6.123233995736766036E-17, 2.000000000000000000, 0.000000000000000000 ) ) ;
#161 = COLOUR_RGB ( '',0.7921568627450980005, 0.8196078431372548767, 0.9333333333333333481 ) ;
#162 = VECTOR ( 'NONE', #198, 39.37007874015748143 ) ;
#163 =( CONVERSION_BASED_UNIT ( 'INCH', #292 ) LENGTH_UNIT ( ) NAMED_UNIT ( #195 ) );
#164 = DIMENSIONAL_EXPONENTS ( 1.000000000000000000, 0.000000000000000000, 0.000000000000000000, 0.000000000000000000, 0.000000000000000000, 0.000000000000000000, 0.000000000000000000 ) ;
#165 = SURFACE_STYLE_USAGE ( .BOTH. , #149 ) ;
#166 = ORIENTED_EDGE ( 'NONE', *, *, #224, .T. ) ;
#167 = SURFACE_SIDE_STYLE ('',( #299 ) ) ;
#168 = CARTESIAN_POINT ( 'NONE',  ( 0.000000000000000000, 0.000000000000000000, -0.1250000000000000000 ) ) ;
#169 =( NAMED_UNIT ( * ) SI_UNIT ( $, .STERADIAN. ) SOLID_ANGLE_UNIT ( ) );
#170 = AXIS2_PLACEMENT_3D ( 'NONE', #280, #58, #142 ) ;
#171 = AXIS2_PLACEMENT_3D ( 'NONE', #160, #66, #31 ) ;
#172 = EDGE_CURVE ( 'NONE', #78, #262, #136, .T. ) ;
#173 = ORIENTED_EDGE ( 'NONE', *, *, #54, .T. ) ;
#174 = PRODUCT_RELATED_PRODUCT_CATEGORY ( 'part', '', ( #245 ) ) ;
#175 = SURFACE_STYLE_FILL_AREA ( #301 ) ;
#176 =( GEOMETRIC_REPRESENTATION_CONTEXT ( 3 ) GLOBAL_UNCERTAINTY_ASSIGNED_CONTEXT ( ( #189 ) ) GLOBAL_UNIT_ASSIGNED_CONTEXT ( ( #254, #225, #77 ) ) REPRESENTATION_CONTEXT ( 'NONE', 'WORKASPACE' ) );
#177 =( GEOMETRIC_REPRESENTATION_CONTEXT ( 3 ) GLOBAL_UNCERTAINTY_ASSIGNED_CONTEXT ( ( #52 ) ) GLOBAL_UNIT_ASSIGNED_CONTEXT ( ( #44, #82, #259 ) ) REPRESENTATION_CONTEXT ( 'NONE', 'WORKASPACE' ) );
#178 =( LENGTH_UNIT ( ) NAMED_UNIT ( * ) SI_UNIT ( $, .METRE. ) );
#179 = DIRECTION ( 'NONE',  ( 0.000000000000000000, -1.000000000000000000, -0.000000000000000000 ) ) ;
#180 =( LENGTH_UNIT ( ) NAMED_UNIT ( * ) SI_UNIT ( $, .METRE. ) );
#181 = CIRCLE ( 'NONE', #148, 0.1250000000000000278 ) ;
#182 = EDGE_CURVE ( 'NONE', #262, #78, #181, .T. ) ;
#183 = CLOSED_SHELL ( 'NONE', ( #234, #119, #197, #159 ) ) ;
#184 = FACE_OUTER_BOUND ( 'NONE', #144, .T. ) ;
#185 = ADVANCED_FACE ( 'NONE', ( #29 ), #114, .F. ) ;
#186 = DIRECTION ( 'NONE',  ( 0.000000000000000000, 0.000000000000000000, -1.000000000000000000 ) ) ;
#187 = CYLINDRICAL_SURFACE ( 'NONE', #112, 0.1249999999999999861 ) ;
#188 = AXIS2_PLACEMENT_3D ( 'NONE', #146, #232, #199 ) ;
#189 = UNCERTAINTY_MEASURE_WITH_UNIT (LENGTH_MEASURE( 1.000000000000000082E-05 ), #254, 'distance_accuracy_value', 'NONE');
#190 =( NAMED_UNIT ( * ) PLANE_ANGLE_UNIT ( ) SI_UNIT ( $, .RADIAN. ) );
#191 = DIMENSIONAL_EXPONENTS ( 1.000000000000000000, 0.000000000000000000, 0.000000000000000000, 0.000000000000000000, 0.000000000000000000, 0.000000000000000000, 0.000000000000000000 ) ;
#192 = DIRECTION ( 'NONE',  ( 3.768143997376471359E-17, 1.000000000000000000, -0.000000000000000000 ) ) ;
#193 = ORIENTED_EDGE ( 'NONE', *, *, #252, .F. ) ;
#194 = FACE_OUTER_BOUND ( 'NONE', #204, .T. ) ;
#195 = DIMENSIONAL_EXPONENTS ( 1.000000000000000000, 0.000000000000000000, 0.000000000000000000, 0.000000000000000000, 0.000000000000000000, 0.000000000000000000, 0.000000000000000000 ) ;
#196 = ORIENTED_EDGE ( 'NONE', *, *, #2, .T. ) ;
#197 = ADVANCED_FACE ( 'NONE', ( #117 ), #75, .T. ) ;
#198 = DIRECTION ( 'NONE',  ( 3.768143997376471359E-17, 1.000000000000000000, -0.000000000000000000 ) ) ;
#199 = DIRECTION ( 'NONE',  ( 0.000000000000000000, 0.000000000000000000, -1.000000000000000000 ) ) ;
#200 = COLOUR_RGB ( '',1.000000000000000000, 0.000000000000000000, 0.000000000000000000 ) ;
#201 = FILL_AREA_STYLE ('',( #102 ) ) ;
#202 = MANIFOLD_SOLID_BREP ( 'Revolve - Cutting Edge', #183 ) ;
#203 = LENGTH_MEASURE_WITH_UNIT ( LENGTH_MEASURE( 0.02539999999999999897 ), #80 );
#204 = EDGE_LOOP ( 'NONE', ( #255, #228, #42, #285 ) ) ;
#205 = LENGTH_MEASURE_WITH_UNIT ( LENGTH_MEASURE( 0.02539999999999999897 ), #26 );
#206 = VERTEX_POINT ( 'NONE', #223 ) ;
#207 =( CONVERSION_BASED_UNIT ( 'INCH', #1 ) LENGTH_UNIT ( ) NAMED_UNIT ( #93 ) );
#208 = COLOUR_RGB ( '',1.000000000000000000, 0.000000000000000000, 0.000000000000000000 ) ;
#209 = AXIS2_PLACEMENT_3D ( 'NONE', #263, #27, #87 ) ;
#210 = SURFACE_STYLE_FILL_AREA ( #50 ) ;
#211 = CARTESIAN_POINT ( 'NONE',  ( -0.1249999999999998751, 2.000000000000000000, 0.000000000000000000 ) ) ;
#212 = CARTESIAN_POINT ( 'NONE',  ( 0.1250000000000000278, 2.000000000000000000, 0.000000000000000000 ) ) ;
#213 = CARTESIAN_POINT ( 'NONE',  ( 0.000000000000000000, 0.3749999999999999445, 0.000000000000000000 ) ) ;
#214 = DIRECTION ( 'NONE',  ( 0.000000000000000000, 1.000000000000000000, 0.000000000000000000 ) ) ;
#215 = PRESENTATION_LAYER_ASSIGNMENT (  '', '', ( #296 ) ) ;
#216 = MECHANICAL_DESIGN_GEOMETRIC_PRESENTATION_REPRESENTATION (  '', ( #70 ), #20 ) ;
#217 = PRESENTATION_LAYER_ASSIGNMENT (  '', '', ( #248 ) ) ;
#218 = CLOSED_SHELL ( 'NONE', ( #268, #240, #308, #185 ) ) ;
#219 = ORIENTED_EDGE ( 'NONE', *, *, #57, .T. ) ;
#220 = SURFACE_STYLE_FILL_AREA ( #250 ) ;
#221 =( NAMED_UNIT ( * ) SI_UNIT ( $, .STERADIAN. ) SOLID_ANGLE_UNIT ( ) );
#222 = EDGE_LOOP ( 'NONE', ( #196, #121 ) ) ;
#223 = CARTESIAN_POINT ( 'NONE',  ( 1.530808498934191509E-17, 0.000000000000000000, 0.1250000000000000000 ) ) ;
#224 = EDGE_CURVE ( 'NONE', #130, #36, #48, .T. ) ;
#225 =( NAMED_UNIT ( * ) PLANE_ANGLE_UNIT ( ) SI_UNIT ( $, .RADIAN. ) );
#226 = ORIENTED_EDGE ( 'NONE', *, *, #113, .F. ) ;
#227 = APPLICATION_PROTOCOL_DEFINITION ( 'draft international standard', 'automotive_design', 1998, #156 ) ;
#228 = ORIENTED_EDGE ( 'NONE', *, *, #291, .T. ) ;
#229 = CIRCLE ( 'NONE', #116, 0.1249999999999999445 ) ;
#230 = AXIS2_PLACEMENT_3D ( 'NONE', #49, #118, #65 ) ;
#231 = CARTESIAN_POINT ( 'NONE',  ( 0.000000000000000000, 0.3750000000000000555, 0.000000000000000000 ) ) ;
#232 = DIRECTION ( 'NONE',  ( -0.000000000000000000, -1.000000000000000000, -0.000000000000000000 ) ) ;
#233 = PRESENTATION_STYLE_ASSIGNMENT (( #165 ) ) ;
#234 = ADVANCED_FACE ( 'NONE', ( #194 ), #73, .T. ) ;
#235 = SHAPE_DEFINITION_REPRESENTATION ( #264, #251 ) ;
#236 = VECTOR ( 'NONE', #107, 39.37007874015748143 ) ;
#237 =( GEOMETRIC_REPRESENTATION_CONTEXT ( 3 ) GLOBAL_UNCERTAINTY_ASSIGNED_CONTEXT ( ( #135 ) ) GLOBAL_UNIT_ASSIGNED_CONTEXT ( ( #295, #257, #97 ) ) REPRESENTATION_CONTEXT ( 'NONE', 'WORKASPACE' ) );
#238 = DIRECTION ( 'NONE',  ( 0.000000000000000000, 0.000000000000000000, -1.000000000000000000 ) ) ;
#239 = LINE ( 'NONE', #67, #249 ) ;
#240 = ADVANCED_FACE ( 'NONE', ( #293 ), #276, .F. ) ;
#241 = FACE_OUTER_BOUND ( 'NONE', #222, .T. ) ;
#242 = CARTESIAN_POINT ( 'NONE',  ( 1.530808498934191817E-17, 0.3750000000000000555, 0.1250000000000000278 ) ) ;
#243 = DIRECTION ( 'NONE',  ( -0.000000000000000000, -1.000000000000000000, -0.000000000000000000 ) ) ;
#244 = PRESENTATION_LAYER_ASSIGNMENT (  '', '', ( #70 ) ) ;
#245 = PRODUCT ( '01152', '01152', '', ( #43 ) ) ;
#246 = DIRECTION ( 'NONE',  ( 0.000000000000000000, 0.000000000000000000, -1.000000000000000000 ) ) ;
#247 = CARTESIAN_POINT ( 'NONE',  ( 0.000000000000000000, 0.000000000000000000, 0.000000000000000000 ) ) ;
#248 = STYLED_ITEM ( 'NONE', ( #17 ), #119 ) ;
#249 = VECTOR ( 'NONE', #243, 39.37007874015748143 ) ;
#250 = FILL_AREA_STYLE ('',( #278 ) ) ;
#251 = ADVANCED_BREP_SHAPE_REPRESENTATION ( '01152', ( #202, #94, #209 ), #177 ) ;
#252 = EDGE_CURVE ( 'NONE', #206, #124, #157, .T. ) ;
#253 = EDGE_LOOP ( 'NONE', ( #258, #300 ) ) ;
#254 =( CONVERSION_BASED_UNIT ( 'INCH', #205 ) LENGTH_UNIT ( ) NAMED_UNIT ( #51 ) );
#255 = ORIENTED_EDGE ( 'NONE', *, *, #182, .T. ) ;
#256 = COLOUR_RGB ( '',0.7921568627450980005, 0.8196078431372548767, 0.9333333333333333481 ) ;
#257 =( NAMED_UNIT ( * ) PLANE_ANGLE_UNIT ( ) SI_UNIT ( $, .RADIAN. ) );
#258 = ORIENTED_EDGE ( 'NONE', *, *, #57, .F. ) ;
#259 =( NAMED_UNIT ( * ) SI_UNIT ( $, .STERADIAN. ) SOLID_ANGLE_UNIT ( ) );
#260 = APPLICATION_PROTOCOL_DEFINITION ( 'draft international standard', 'automotive_design', 1998, #123 ) ;
#261 =( NAMED_UNIT ( * ) PLANE_ANGLE_UNIT ( ) SI_UNIT ( $, .RADIAN. ) );
#262 = VERTEX_POINT ( 'NONE', #46 ) ;
#263 = CARTESIAN_POINT ( 'NONE',  ( 0.000000000000000000, 0.000000000000000000, 0.000000000000000000 ) ) ;
#264 = PRODUCT_DEFINITION_SHAPE ( 'NONE', 'NONE',  #23 ) ;
#265 = DIRECTION ( 'NONE',  ( 3.768143997376471359E-17, 1.000000000000000000, -0.000000000000000000 ) ) ;
#266 = EDGE_CURVE ( 'NONE', #130, #99, #6, .T. ) ;
#267 = DIRECTION ( 'NONE',  ( -1.000000000000000000, 0.000000000000000000, 0.000000000000000000 ) ) ;
#268 = ADVANCED_FACE ( 'NONE', ( #286 ), #158, .T. ) ;
#269 = CIRCLE ( 'NONE', #147, 0.1249999999999999445 ) ;
#270 = DIRECTION ( 'NONE',  ( 0.000000000000000000, -0.000000000000000000, 1.000000000000000000 ) ) ;
#271 = DIRECTION ( 'NONE',  ( -0.000000000000000000, -1.000000000000000000, -0.000000000000000000 ) ) ;
#272 = CARTESIAN_POINT ( 'NONE',  ( 0.000000000000000000, 0.000000000000000000, 0.000000000000000000 ) ) ;
#273 = MECHANICAL_DESIGN_GEOMETRIC_PRESENTATION_REPRESENTATION (  '', ( #248 ), #176 ) ;
#274 =( LENGTH_UNIT ( ) NAMED_UNIT ( * ) SI_UNIT ( $, .METRE. ) );
#275 = DIRECTION ( 'NONE',  ( -0.000000000000000000, -1.000000000000000000, -0.000000000000000000 ) ) ;
#276 = PLANE ( 'NONE',  #230 ) ;
#277 = MECHANICAL_DESIGN_GEOMETRIC_PRESENTATION_REPRESENTATION (  '', ( #110 ), #237 ) ;
#278 = FILL_AREA_STYLE_COLOUR ( '', #256 ) ;
#279 =( NAMED_UNIT ( * ) PLANE_ANGLE_UNIT ( ) SI_UNIT ( $, .RADIAN. ) );
#280 = CARTESIAN_POINT ( 'NONE',  ( 0.000000000000000000, 0.000000000000000000, 0.000000000000000000 ) ) ;
#281 = CARTESIAN_POINT ( 'NONE',  ( 0.1250000000000000555, 2.000000000000000000, 1.530808498934191201E-17 ) ) ;
#282 = SURFACE_STYLE_FILL_AREA ( #201 ) ;
#283 = DIRECTION ( 'NONE',  ( -1.000000000000000000, 0.000000000000000000, 0.000000000000000000 ) ) ;
#284 = LINE ( 'NONE', #24, #143 ) ;
#285 = ORIENTED_EDGE ( 'NONE', *, *, #10, .F. ) ;
#286 = FACE_OUTER_BOUND ( 'NONE', #306, .T. ) ;
#287 = DIRECTION ( 'NONE',  ( 0.000000000000000000, 0.000000000000000000, -1.000000000000000000 ) ) ;
#288 = DIRECTION ( 'NONE',  ( 3.768143997376471359E-17, 1.000000000000000000, -0.000000000000000000 ) ) ;
#289 = SURFACE_SIDE_STYLE ('',( #210 ) ) ;
#290 =( NAMED_UNIT ( * ) SI_UNIT ( $, .STERADIAN. ) SOLID_ANGLE_UNIT ( ) );
#291 = EDGE_CURVE ( 'NONE', #78, #206, #239, .T. ) ;
#292 = LENGTH_MEASURE_WITH_UNIT ( LENGTH_MEASURE( 0.02539999999999999897 ), #274 );
#293 = FACE_OUTER_BOUND ( 'NONE', #253, .T. ) ;
#294 = PRODUCT_DEFINITION_CONTEXT ( 'detailed design', #123, 'design' ) ;
#295 =( CONVERSION_BASED_UNIT ( 'INCH', #79 ) LENGTH_UNIT ( ) NAMED_UNIT ( #138 ) );
#296 = STYLED_ITEM ( 'NONE', ( #233 ), #94 ) ;
#297 = AXIS2_PLACEMENT_3D ( 'NONE', #247, #35, #186 ) ;
#298 = CARTESIAN_POINT ( 'NONE',  ( 6.123233995736766036E-17, 2.000000000000000000, 0.000000000000000000 ) ) ;
#299 = SURFACE_STYLE_FILL_AREA ( #98 ) ;
#300 = ORIENTED_EDGE ( 'NONE', *, *, #224, .F. ) ;
#301 = FILL_AREA_STYLE ('',( #104 ) ) ;
#302 = ORIENTED_EDGE ( 'NONE', *, *, #182, .F. ) ;
#303 = PRESENTATION_LAYER_ASSIGNMENT (  '', '', ( #110 ) ) ;
#304 = PRESENTATION_STYLE_ASSIGNMENT (( #100 ) ) ;
#305 =( CONVERSION_BASED_UNIT ( 'INCH', #203 ) LENGTH_UNIT ( ) NAMED_UNIT ( #141 ) );
#306 = EDGE_LOOP ( 'NONE', ( #219, #13, #18, #226 ) ) ;
#307 = EDGE_LOOP ( 'NONE', ( #302, #21 ) ) ;
#308 = ADVANCED_FACE ( 'NONE', ( #184 ), #187, .T. ) ;
#309 =( NAMED_UNIT ( * ) PLANE_ANGLE_UNIT ( ) SI_UNIT ( $, .RADIAN. ) );
ENDSEC;
END-ISO-10303-21;
