ISO-10303-21;
HEADER;
FILE_DESCRIPTION (( 'STEP AP214' ),
    '1' );
FILE_NAME ('Micro_RMEM-011-2X.STEP',
    '2021-09-01T23:55:34',
    ( '' ),
    ( '' ),
    'SwSTEP 2.0',
    'SolidWorks 2020',
    '' );
FILE_SCHEMA (( 'AUTOMOTIVE_DESIGN' ));
ENDSEC;

DATA;
#1 = SURFACE_STYLE_USAGE ( .BOTH. , #174 ) ;
#2 = ORIENTED_EDGE ( 'NONE', *, *, #298, .T. ) ;
#3 =( NAMED_UNIT ( * ) PLANE_ANGLE_UNIT ( ) SI_UNIT ( $, .RADIAN. ) );
#4 = EDGE_CURVE ( 'NONE', #28, #236, #170, .T. ) ;
#5 = CIRCLE ( 'NONE', #50, 0.02163184649999999945 ) ;
#6 = FILL_AREA_STYLE ('',( #225 ) ) ;
#7 =( LENGTH_UNIT ( ) NAMED_UNIT ( * ) SI_UNIT ( $, .METRE. ) );
#8 =( CONVERSION_BASED_UNIT ( 'INCH', #206 ) LENGTH_UNIT ( ) NAMED_UNIT ( #208 ) );
#9 = ADVANCED_FACE ( 'NONE', ( #180 ), #181, .T. ) ;
#10 = MANIFOLD_SOLID_BREP ( 'Cut-Revolve1', #294 ) ;
#11 = CIRCLE ( 'NONE', #167, 0.05905500000000000332 ) ;
#12 = PRODUCT_DEFINITION ( 'UNKNOWN', '', #240, #250 ) ;
#13 = DIRECTION ( 'NONE',  ( -1.000000000000000000, 0.0000000000000000000, 1.224646799147353207E-16 ) ) ;
#14 = ADVANCED_FACE ( 'NONE', ( #195 ), #284, .T. ) ;
#15 = AXIS2_PLACEMENT_3D ( 'NONE', #25, #153, #99 ) ;
#16 = DIRECTION ( 'NONE',  ( -1.224646799147353207E-16, -0.0000000000000000000, -1.000000000000000000 ) ) ;
#17 = CARTESIAN_POINT ( 'NONE',  ( 0.0000000000000000000, 0.0000000000000000000, 1.496062999999999921 ) ) ;
#18 = FACE_OUTER_BOUND ( 'NONE', #42, .T. ) ;
#19 = FACE_OUTER_BOUND ( 'NONE', #189, .T. ) ;
#20 = DIRECTION ( 'NONE',  ( -1.224646799147353207E-16, -0.0000000000000000000, -1.000000000000000000 ) ) ;
#21 = ORIENTED_EDGE ( 'NONE', *, *, #263, .F. ) ;
#22 = DIRECTION ( 'NONE',  ( -1.000000000000000000, 0.0000000000000000000, 1.224646799147353207E-16 ) ) ;
#23 = ORIENTED_EDGE ( 'NONE', *, *, #86, .F. ) ;
#24 = CARTESIAN_POINT ( 'NONE',  ( 0.04405499999999973326, 5.395181473643630390E-18, 1.496062999999999921 ) ) ;
#25 = CARTESIAN_POINT ( 'NONE',  ( 0.0000000000000000000, 0.0000000000000000000, 1.496062999999999921 ) ) ;
#26 = AXIS2_PLACEMENT_3D ( 'NONE', #36, #139, #230 ) ;
#27 = LINE ( 'NONE', #234, #297 ) ;
#28 = VERTEX_POINT ( 'NONE', #73 ) ;
#29 = SHAPE_DEFINITION_REPRESENTATION ( #54, #156 ) ;
#30 = PRESENTATION_LAYER_ASSIGNMENT (  '', '', ( #56 ) ) ;
#31 = SURFACE_STYLE_USAGE ( .BOTH. , #135 ) ;
#32 = CIRCLE ( 'NONE', #224, 0.05905500000000000332 ) ;
#33 = ORIENTED_EDGE ( 'NONE', *, *, #231, .T. ) ;
#34 = CARTESIAN_POINT ( 'NONE',  ( 0.0000000000000000000, 0.0000000000000000000, 1.481062999999999574 ) ) ;
#35 = LINE ( 'NONE', #137, #228 ) ;
#36 = CARTESIAN_POINT ( 'NONE',  ( 0.0000000000000000000, 0.0000000000000000000, 1.496062999999999921 ) ) ;
#37 = VECTOR ( 'NONE', #141, 39.37007874015748143 ) ;
#38 = DIRECTION ( 'NONE',  ( 0.0000000000000000000, 0.0000000000000000000, 1.000000000000000000 ) ) ;
#39 = DIRECTION ( 'NONE',  ( -1.000000000000000000, 0.0000000000000000000, 1.224646799147353207E-16 ) ) ;
#40 = DIRECTION ( 'NONE',  ( 0.0000000000000000000, 0.0000000000000000000, -1.000000000000000000 ) ) ;
#41 = VECTOR ( 'NONE', #115, 39.37007874015748143 ) ;
#42 = EDGE_LOOP ( 'NONE', ( #147, #81, #102, #179 ) ) ;
#43 = LINE ( 'NONE', #169, #286 ) ;
#44 = VERTEX_POINT ( 'NONE', #106 ) ;
#45 = ORIENTED_EDGE ( 'NONE', *, *, #100, .T. ) ;
#46 = APPLICATION_CONTEXT ( 'automotive_design' ) ;
#47 = PRESENTATION_STYLE_ASSIGNMENT (( #31 ) ) ;
#48 = AXIS2_PLACEMENT_3D ( 'NONE', #233, #57, #251 ) ;
#49 = EDGE_CURVE ( 'NONE', #44, #93, #288, .T. ) ;
#50 = AXIS2_PLACEMENT_3D ( 'NONE', #295, #16, #182 ) ;
#51 = CARTESIAN_POINT ( 'NONE',  ( 0.0000000000000000000, 0.0000000000000000000, 0.0000000000000000000 ) ) ;
#52 = ORIENTED_EDGE ( 'NONE', *, *, #86, .T. ) ;
#53 = EDGE_CURVE ( 'NONE', #44, #186, #266, .T. ) ;
#54 = PRODUCT_DEFINITION_SHAPE ( 'NONE', 'NONE',  #12 ) ;
#55 = VERTEX_POINT ( 'NONE', #63 ) ;
#56 = STYLED_ITEM ( 'NONE', ( #165 ), #156 ) ;
#57 = DIRECTION ( 'NONE',  ( 0.0000000000000000000, 0.0000000000000000000, 1.000000000000000000 ) ) ;
#58 = FACE_OUTER_BOUND ( 'NONE', #134, .T. ) ;
#59 = ADVANCED_FACE ( 'NONE', ( #136 ), #151, .T. ) ;
#60 = CARTESIAN_POINT ( 'NONE',  ( -0.02163184649999998210, 2.649137157587187450E-18, 0.1299210000000000087 ) ) ;
#61 = CIRCLE ( 'NONE', #96, 0.02163184649999999945 ) ;
#62 = VECTOR ( 'NONE', #242, 39.37007874015748143 ) ;
#63 = CARTESIAN_POINT ( 'NONE',  ( -0.02163184649999999945, 0.0000000000000000000, 5.298274315174374899E-18 ) ) ;
#64 = ORIENTED_EDGE ( 'NONE', *, *, #69, .F. ) ;
#65 = DIRECTION ( 'NONE',  ( 1.000000000000000000, 0.0000000000000000000, 0.0000000000000000000 ) ) ;
#66 = EDGE_LOOP ( 'NONE', ( #255, #205, #71, #97 ) ) ;
#67 = DIRECTION ( 'NONE',  ( -0.0000000000000000000, -0.0000000000000000000, -1.000000000000000000 ) ) ;
#68 = MECHANICAL_DESIGN_GEOMETRIC_PRESENTATION_REPRESENTATION (  '', ( #111 ), #177 ) ;
#69 = EDGE_CURVE ( 'NONE', #55, #186, #108, .T. ) ;
#70 = ORIENTED_EDGE ( 'NONE', *, *, #199, .F. ) ;
#71 = ORIENTED_EDGE ( 'NONE', *, *, #199, .T. ) ;
#72 = CARTESIAN_POINT ( 'NONE',  ( -0.05905500000000000332, 0.0000000000000000000, 1.496062999999999921 ) ) ;
#73 = CARTESIAN_POINT ( 'NONE',  ( 0.04405499999999973326, 6.313666573004162521E-18, 1.496062999999999921 ) ) ;
#74 = ADVANCED_FACE ( 'NONE', ( #19 ), #275, .T. ) ;
#75 = FILL_AREA_STYLE_COLOUR ( '', #247 ) ;
#76 = ORIENTED_EDGE ( 'NONE', *, *, #4, .F. ) ;
#77 =( GEOMETRIC_REPRESENTATION_CONTEXT ( 3 ) GLOBAL_UNCERTAINTY_ASSIGNED_CONTEXT ( ( #89 ) ) GLOBAL_UNIT_ASSIGNED_CONTEXT ( ( #235, #3, #120 ) ) REPRESENTATION_CONTEXT ( 'NONE', 'WORKASPACE' ) );
#78 = PRESENTATION_LAYER_ASSIGNMENT (  '', '', ( #111 ) ) ;
#79 = EDGE_LOOP ( 'NONE', ( #23, #241, #281, #114 ) ) ;
#80 = SURFACE_STYLE_FILL_AREA ( #6 ) ;
#81 = ORIENTED_EDGE ( 'NONE', *, *, #49, .F. ) ;
#82 = AXIS2_PLACEMENT_3D ( 'NONE', #201, #173, #289 ) ;
#83 = DIRECTION ( 'NONE',  ( -1.000000000000000000, 0.0000000000000000000, 0.0000000000000000000 ) ) ;
#84 = PRODUCT ( 'Micro_RMEM-011-2X', 'Micro_RMEM-011-2X', '', ( #287 ) ) ;
#85 = DIRECTION ( 'NONE',  ( 1.224646799147353207E-16, 0.0000000000000000000, 1.000000000000000000 ) ) ;
#86 = EDGE_CURVE ( 'NONE', #93, #44, #61, .T. ) ;
#87 = DIRECTION ( 'NONE',  ( -1.224646799147353207E-16, -0.0000000000000000000, -1.000000000000000000 ) ) ;
#88 = ORIENTED_EDGE ( 'NONE', *, *, #257, .T. ) ;
#89 = UNCERTAINTY_MEASURE_WITH_UNIT (LENGTH_MEASURE( 1.000000000000000082E-05 ), #235, 'distance_accuracy_value', 'NONE');
#90 = LINE ( 'NONE', #60, #175 ) ;
#91 = ORIENTED_EDGE ( 'NONE', *, *, #178, .F. ) ;
#92 = DIRECTION ( 'NONE',  ( 0.0000000000000000000, 0.0000000000000000000, 1.000000000000000000 ) ) ;
#93 = VERTEX_POINT ( 'NONE', #211 ) ;
#94 = FACE_OUTER_BOUND ( 'NONE', #128, .T. ) ;
#95 = CARTESIAN_POINT ( 'NONE',  ( 0.05905500000000000332, 7.232151672364695422E-18, 1.481062999999999574 ) ) ;
#96 = AXIS2_PLACEMENT_3D ( 'NONE', #142, #273, #274 ) ;
#97 = ORIENTED_EDGE ( 'NONE', *, *, #257, .F. ) ;
#98 = CYLINDRICAL_SURFACE ( 'NONE', #243, 0.02163184649999999945 ) ;
#99 = DIRECTION ( 'NONE',  ( -1.000000000000000000, 0.0000000000000000000, 0.0000000000000000000 ) ) ;
#100 = EDGE_CURVE ( 'NONE', #154, #262, #119, .T. ) ;
#101 = DIRECTION ( 'NONE',  ( 1.000000000000000000, 0.0000000000000000000, 0.0000000000000000000 ) ) ;
#102 = ORIENTED_EDGE ( 'NONE', *, *, #290, .T. ) ;
#103 = LENGTH_MEASURE_WITH_UNIT ( LENGTH_MEASURE( 0.02539999999999999897 ), #129 );
#104 = MECHANICAL_DESIGN_GEOMETRIC_PRESENTATION_REPRESENTATION (  '', ( #56 ), #229 ) ;
#105 = DIRECTION ( 'NONE',  ( 0.0000000000000000000, 0.0000000000000000000, 1.000000000000000000 ) ) ;
#106 = CARTESIAN_POINT ( 'NONE',  ( 0.02163184650000001680, 0.0000000000000000000, 0.1299210000000000087 ) ) ;
#107 = DIMENSIONAL_EXPONENTS ( 1.000000000000000000, 0.0000000000000000000, 0.0000000000000000000, 0.0000000000000000000, 0.0000000000000000000, 0.0000000000000000000, 0.0000000000000000000 ) ;
#108 = CIRCLE ( 'NONE', #138, 0.02163184649999999945 ) ;
#109 =( NAMED_UNIT ( * ) SI_UNIT ( $, .STERADIAN. ) SOLID_ANGLE_UNIT ( ) );
#110 = CARTESIAN_POINT ( 'NONE',  ( 3.244257340541466344E-34, 0.0000000000000000000, 2.649137157587187450E-18 ) ) ;
#111 = STYLED_ITEM ( 'NONE', ( #47 ), #10 ) ;
#112 = DIRECTION ( 'NONE',  ( 1.000000000000000000, 0.0000000000000000000, -0.0000000000000000000 ) ) ;
#113 = CARTESIAN_POINT ( 'NONE',  ( 1.591073367920233116E-17, 0.0000000000000000000, 0.1299210000000000087 ) ) ;
#114 = ORIENTED_EDGE ( 'NONE', *, *, #290, .F. ) ;
#115 = DIRECTION ( 'NONE',  ( -0.7071067811865482389, 0.0000000000000000000, -0.7071067811865469066 ) ) ;
#116 = ORIENTED_EDGE ( 'NONE', *, *, #53, .F. ) ;
#117 = UNCERTAINTY_MEASURE_WITH_UNIT (LENGTH_MEASURE( 1.000000000000000082E-05 ), #198, 'distance_accuracy_value', 'NONE');
#118 = PLANE ( 'NONE',  #259 ) ;
#119 = CIRCLE ( 'NONE', #144, 0.05905500000000000332 ) ;
#120 =( NAMED_UNIT ( * ) SI_UNIT ( $, .STERADIAN. ) SOLID_ANGLE_UNIT ( ) );
#121 = EDGE_LOOP ( 'NONE', ( #52, #213, #64, #21 ) ) ;
#122 = CARTESIAN_POINT ( 'NONE',  ( -0.05905499999999996169, 0.0000000000000000000, 0.3421582500773117097 ) ) ;
#123 = CARTESIAN_POINT ( 'NONE',  ( 0.05905500000000004496, 7.232151672364700045E-18, 0.3421582500773117097 ) ) ;
#124 = EDGE_CURVE ( 'NONE', #236, #28, #161, .T. ) ;
#125 = COLOUR_RGB ( '',0.7921568627450980005, 0.8196078431372548767, 0.9333333333333333481 ) ;
#126 = DIRECTION ( 'NONE',  ( 0.0000000000000000000, 0.0000000000000000000, 1.000000000000000000 ) ) ;
#127 = CARTESIAN_POINT ( 'NONE',  ( 0.0000000000000000000, 0.0000000000000000000, 0.0000000000000000000 ) ) ;
#128 = EDGE_LOOP ( 'NONE', ( #116, #171, #221, #223 ) ) ;
#129 =( LENGTH_UNIT ( ) NAMED_UNIT ( * ) SI_UNIT ( $, .METRE. ) );
#130 = CARTESIAN_POINT ( 'NONE',  ( 0.0000000000000000000, 0.0000000000000000000, 0.0000000000000000000 ) ) ;
#131 = AXIS2_PLACEMENT_3D ( 'NONE', #207, #87, #277 ) ;
#132 = APPLICATION_PROTOCOL_DEFINITION ( 'draft international standard', 'automotive_design', 1998, #46 ) ;
#133 = DIRECTION ( 'NONE',  ( -1.224646799147353207E-16, -0.0000000000000000000, -1.000000000000000000 ) ) ;
#134 = EDGE_LOOP ( 'NONE', ( #45, #291, #91, #196 ) ) ;
#135 = SURFACE_SIDE_STYLE ('',( #80 ) ) ;
#136 = FACE_OUTER_BOUND ( 'NONE', #79, .T. ) ;
#137 = CARTESIAN_POINT ( 'NONE',  ( 0.05905500000000000332, 7.232151672364695422E-18, 1.496062999999999921 ) ) ;
#138 = AXIS2_PLACEMENT_3D ( 'NONE', #110, #20, #39 ) ;
#139 = DIRECTION ( 'NONE',  ( -0.0000000000000000000, -0.0000000000000000000, -1.000000000000000000 ) ) ;
#140 = UNCERTAINTY_MEASURE_WITH_UNIT (LENGTH_MEASURE( 1.000000000000000082E-05 ), #8, 'distance_accuracy_value', 'NONE');
#141 = DIRECTION ( 'NONE',  ( -1.224646799147353207E-16, -0.0000000000000000000, -1.000000000000000000 ) ) ;
#142 = CARTESIAN_POINT ( 'NONE',  ( 1.591073367920233116E-17, 0.0000000000000000000, 0.1299210000000000087 ) ) ;
#143 = DIRECTION ( 'NONE',  ( -1.224646799147353207E-16, -0.0000000000000000000, -1.000000000000000000 ) ) ;
#144 = AXIS2_PLACEMENT_3D ( 'NONE', #34, #164, #256 ) ;
#145 = ORIENTED_EDGE ( 'NONE', *, *, #270, .T. ) ;
#146 = SURFACE_STYLE_FILL_AREA ( #216 ) ;
#147 = ORIENTED_EDGE ( 'NONE', *, *, #185, .F. ) ;
#148 = DIRECTION ( 'NONE',  ( -1.000000000000000000, 0.0000000000000000000, 0.0000000000000000000 ) ) ;
#149 =( NAMED_UNIT ( * ) PLANE_ANGLE_UNIT ( ) SI_UNIT ( $, .RADIAN. ) );
#150 = DIRECTION ( 'NONE',  ( 1.000000000000000000, 0.0000000000000000000, 0.0000000000000000000 ) ) ;
#151 = CONICAL_SURFACE ( 'NONE', #272, 0.02163184649999999945, 0.1745329251994339192 ) ;
#152 =( LENGTH_UNIT ( ) NAMED_UNIT ( * ) SI_UNIT ( $, .METRE. ) );
#153 = DIRECTION ( 'NONE',  ( 0.0000000000000000000, 0.0000000000000000000, -1.000000000000000000 ) ) ;
#154 = VERTEX_POINT ( 'NONE', #299 ) ;
#155 = AXIS2_PLACEMENT_3D ( 'NONE', #113, #212, #283 ) ;
#156 = ADVANCED_BREP_SHAPE_REPRESENTATION ( 'Micro_RMEM-011-2X', ( #10, #210 ), #77 ) ;
#157 = ORIENTED_EDGE ( 'NONE', *, *, #4, .T. ) ;
#158 = CARTESIAN_POINT ( 'NONE',  ( -0.04405499999999973326, 0.0000000000000000000, 1.496062999999999921 ) ) ;
#159 = CYLINDRICAL_SURFACE ( 'NONE', #26, 0.05905500000000000332 ) ;
#160 = AXIS2_PLACEMENT_3D ( 'NONE', #176, #126, #246 ) ;
#161 = CIRCLE ( 'NONE', #48, 0.04405499999999973326 ) ;
#162 = FACE_OUTER_BOUND ( 'NONE', #278, .T. ) ;
#163 = APPLICATION_CONTEXT ( 'automotive_design' ) ;
#164 = DIRECTION ( 'NONE',  ( 0.0000000000000000000, 0.0000000000000000000, -1.000000000000000000 ) ) ;
#165 = PRESENTATION_STYLE_ASSIGNMENT (( #1 ) ) ;
#166 = DIRECTION ( 'NONE',  ( -1.224646799147353207E-16, -0.0000000000000000000, -1.000000000000000000 ) ) ;
#167 = AXIS2_PLACEMENT_3D ( 'NONE', #188, #279, #65 ) ;
#168 = ORIENTED_EDGE ( 'NONE', *, *, #100, .F. ) ;
#169 = CARTESIAN_POINT ( 'NONE',  ( 0.02163184650000001680, 0.0000000000000000000, 0.1299210000000000087 ) ) ;
#170 = CIRCLE ( 'NONE', #160, 0.04405499999999973326 ) ;
#171 = ORIENTED_EDGE ( 'NONE', *, *, #49, .T. ) ;
#172 = FACE_OUTER_BOUND ( 'NONE', #217, .T. ) ;
#173 = DIRECTION ( 'NONE',  ( -1.224646799147353207E-16, -0.0000000000000000000, -1.000000000000000000 ) ) ;
#174 = SURFACE_SIDE_STYLE ('',( #146 ) ) ;
#175 = VECTOR ( 'NONE', #227, 39.37007874015747433 ) ;
#176 = CARTESIAN_POINT ( 'NONE',  ( 0.0000000000000000000, 0.0000000000000000000, 1.496062999999999921 ) ) ;
#177 =( GEOMETRIC_REPRESENTATION_CONTEXT ( 3 ) GLOBAL_UNCERTAINTY_ASSIGNED_CONTEXT ( ( #140 ) ) GLOBAL_UNIT_ASSIGNED_CONTEXT ( ( #8, #220, #109 ) ) REPRESENTATION_CONTEXT ( 'NONE', 'WORKASPACE' ) );
#178 = EDGE_CURVE ( 'NONE', #268, #258, #209, .T. ) ;
#179 = ORIENTED_EDGE ( 'NONE', *, *, #197, .T. ) ;
#180 = FACE_OUTER_BOUND ( 'NONE', #66, .T. ) ;
#181 = CONICAL_SURFACE ( 'NONE', #15, 0.04405499999999973326, 0.7853981633974491672 ) ;
#182 = DIRECTION ( 'NONE',  ( -1.000000000000000000, 0.0000000000000000000, 1.224646799147353207E-16 ) ) ;
#183 = DIRECTION ( 'NONE',  ( 1.000000000000000000, 0.0000000000000000000, 0.0000000000000000000 ) ) ;
#184 = CARTESIAN_POINT ( 'NONE',  ( 1.591073367920233116E-17, 0.0000000000000000000, 0.1299210000000000087 ) ) ;
#185 = EDGE_CURVE ( 'NONE', #93, #268, #90, .T. ) ;
#186 = VERTEX_POINT ( 'NONE', #215 ) ;
#187 = AXIS2_PLACEMENT_3D ( 'NONE', #17, #92, #112 ) ;
#188 = CARTESIAN_POINT ( 'NONE',  ( 4.190230057590394034E-17, 0.0000000000000000000, 0.3421582500773117097 ) ) ;
#189 = EDGE_LOOP ( 'NONE', ( #269, #157 ) ) ;
#190 = DIRECTION ( 'NONE',  ( 1.000000000000000000, 0.0000000000000000000, -0.0000000000000000000 ) ) ;
#191 = APPLICATION_PROTOCOL_DEFINITION ( 'draft international standard', 'automotive_design', 1998, #163 ) ;
#192 = CARTESIAN_POINT ( 'NONE',  ( 0.0000000000000000000, 0.0000000000000000000, 1.496062999999999921 ) ) ;
#193 = ADVANCED_FACE ( 'NONE', ( #162 ), #118, .F. ) ;
#194 = EDGE_LOOP ( 'NONE', ( #271, #88, #145, #285 ) ) ;
#195 = FACE_OUTER_BOUND ( 'NONE', #121, .T. ) ;
#196 = ORIENTED_EDGE ( 'NONE', *, *, #270, .F. ) ;
#197 = EDGE_CURVE ( 'NONE', #258, #268, #11, .T. ) ;
#198 =( CONVERSION_BASED_UNIT ( 'INCH', #103 ) LENGTH_UNIT ( ) NAMED_UNIT ( #200 ) );
#199 = EDGE_CURVE ( 'NONE', #236, #154, #214, .T. ) ;
#200 = DIMENSIONAL_EXPONENTS ( 1.000000000000000000, 0.0000000000000000000, 0.0000000000000000000, 0.0000000000000000000, 0.0000000000000000000, 0.0000000000000000000, 0.0000000000000000000 ) ;
#201 = CARTESIAN_POINT ( 'NONE',  ( 1.591073367920233116E-17, 0.0000000000000000000, 0.1299210000000000087 ) ) ;
#202 = CONICAL_SURFACE ( 'NONE', #267, 0.04405499999999973326, 0.7853981633974491672 ) ;
#203 = CONICAL_SURFACE ( 'NONE', #155, 0.02163184649999999945, 0.1745329251994339192 ) ;
#204 =( NAMED_UNIT ( * ) SI_UNIT ( $, .STERADIAN. ) SOLID_ANGLE_UNIT ( ) );
#205 = ORIENTED_EDGE ( 'NONE', *, *, #124, .F. ) ;
#206 = LENGTH_MEASURE_WITH_UNIT ( LENGTH_MEASURE( 0.02539999999999999897 ), #152 );
#207 = CARTESIAN_POINT ( 'NONE',  ( 4.190230057590394034E-17, 0.0000000000000000000, 0.3421582500773117097 ) ) ;
#208 = DIMENSIONAL_EXPONENTS ( 1.000000000000000000, 0.0000000000000000000, 0.0000000000000000000, 0.0000000000000000000, 0.0000000000000000000, 0.0000000000000000000, 0.0000000000000000000 ) ;
#209 = CIRCLE ( 'NONE', #131, 0.05905500000000000332 ) ;
#210 = AXIS2_PLACEMENT_3D ( 'NONE', #130, #105, #150 ) ;
#211 = CARTESIAN_POINT ( 'NONE',  ( -0.02163184649999998210, 4.940644414975941051E-18, 0.1299210000000000087 ) ) ;
#212 = DIRECTION ( 'NONE',  ( 1.224646799147353207E-16, 0.0000000000000000000, 1.000000000000000000 ) ) ;
#213 = ORIENTED_EDGE ( 'NONE', *, *, #53, .T. ) ;
#214 = LINE ( 'NONE', #232, #41 ) ;
#215 = CARTESIAN_POINT ( 'NONE',  ( 0.02163184649999999945, 2.649137157587187450E-18, 0.0000000000000000000 ) ) ;
#216 = FILL_AREA_STYLE ('',( #75 ) ) ;
#217 = EDGE_LOOP ( 'NONE', ( #76, #2, #168, #70 ) ) ;
#218 = LINE ( 'NONE', #72, #219 ) ;
#219 = VECTOR ( 'NONE', #67, 39.37007874015748143 ) ;
#220 =( NAMED_UNIT ( * ) PLANE_ANGLE_UNIT ( ) SI_UNIT ( $, .RADIAN. ) );
#221 = ORIENTED_EDGE ( 'NONE', *, *, #263, .T. ) ;
#222 = ADVANCED_FACE ( 'NONE', ( #296 ), #249, .T. ) ;
#223 = ORIENTED_EDGE ( 'NONE', *, *, #231, .F. ) ;
#224 = AXIS2_PLACEMENT_3D ( 'NONE', #260, #40, #101 ) ;
#225 = FILL_AREA_STYLE_COLOUR ( '', #125 ) ;
#226 = CARTESIAN_POINT ( 'NONE',  ( 0.0000000000000000000, 0.0000000000000000000, 1.496062999999999921 ) ) ;
#227 = DIRECTION ( 'NONE',  ( -0.1736481776669312194, 2.126576849575783625E-17, 0.9848077530122080203 ) ) ;
#228 = VECTOR ( 'NONE', #293, 39.37007874015748143 ) ;
#229 =( GEOMETRIC_REPRESENTATION_CONTEXT ( 3 ) GLOBAL_UNCERTAINTY_ASSIGNED_CONTEXT ( ( #117 ) ) GLOBAL_UNIT_ASSIGNED_CONTEXT ( ( #198, #149, #204 ) ) REPRESENTATION_CONTEXT ( 'NONE', 'WORKASPACE' ) );
#230 = DIRECTION ( 'NONE',  ( -1.000000000000000000, 0.0000000000000000000, 0.0000000000000000000 ) ) ;
#231 = EDGE_CURVE ( 'NONE', #186, #55, #5, .T. ) ;
#232 = CARTESIAN_POINT ( 'NONE',  ( -0.04405499999999973326, 0.0000000000000000000, 1.496062999999999921 ) ) ;
#233 = CARTESIAN_POINT ( 'NONE',  ( 0.0000000000000000000, 0.0000000000000000000, 1.496062999999999921 ) ) ;
#234 = CARTESIAN_POINT ( 'NONE',  ( -0.02163184649999999945, 0.0000000000000000000, 2.649137157587187450E-18 ) ) ;
#235 =( CONVERSION_BASED_UNIT ( 'INCH', #282 ) LENGTH_UNIT ( ) NAMED_UNIT ( #107 ) );
#236 = VERTEX_POINT ( 'NONE', #158 ) ;
#237 = AXIS2_PLACEMENT_3D ( 'NONE', #51, #133, #13 ) ;
#238 = DIRECTION ( 'NONE',  ( 0.0000000000000000000, 0.0000000000000000000, -1.000000000000000000 ) ) ;
#239 = EDGE_CURVE ( 'NONE', #262, #258, #35, .T. ) ;
#240 = PRODUCT_DEFINITION_FORMATION_WITH_SPECIFIED_SOURCE ( 'ANY', '', #84, .NOT_KNOWN. ) ;
#241 = ORIENTED_EDGE ( 'NONE', *, *, #185, .T. ) ;
#242 = DIRECTION ( 'NONE',  ( 0.7071067811865482389, 8.659560562354941486E-17, -0.7071067811865469066 ) ) ;
#243 = AXIS2_PLACEMENT_3D ( 'NONE', #127, #143, #22 ) ;
#244 = ADVANCED_FACE ( 'NONE', ( #58 ), #159, .T. ) ;
#245 = ORIENTED_EDGE ( 'NONE', *, *, #69, .T. ) ;
#246 = DIRECTION ( 'NONE',  ( 1.000000000000000000, 0.0000000000000000000, 0.0000000000000000000 ) ) ;
#247 = COLOUR_RGB ( '',0.7921568627450980005, 0.8196078431372548767, 0.9333333333333333481 ) ;
#248 = PRODUCT_RELATED_PRODUCT_CATEGORY ( 'part', '', ( #84 ) ) ;
#249 = CYLINDRICAL_SURFACE ( 'NONE', #276, 0.05905500000000000332 ) ;
#250 = PRODUCT_DEFINITION_CONTEXT ( 'detailed design', #46, 'design' ) ;
#251 = DIRECTION ( 'NONE',  ( 1.000000000000000000, 0.0000000000000000000, 0.0000000000000000000 ) ) ;
#252 = ADVANCED_FACE ( 'NONE', ( #18 ), #203, .T. ) ;
#253 = CARTESIAN_POINT ( 'NONE',  ( 0.02163184649999999945, 2.649137157587187450E-18, -2.649137157587187450E-18 ) ) ;
#254 = CARTESIAN_POINT ( 'NONE',  ( 0.0000000000000000000, 0.0000000000000000000, 0.0000000000000000000 ) ) ;
#255 = ORIENTED_EDGE ( 'NONE', *, *, #298, .F. ) ;
#256 = DIRECTION ( 'NONE',  ( 1.000000000000000000, 0.0000000000000000000, 0.0000000000000000000 ) ) ;
#257 = EDGE_CURVE ( 'NONE', #262, #154, #32, .T. ) ;
#258 = VERTEX_POINT ( 'NONE', #123 ) ;
#259 = AXIS2_PLACEMENT_3D ( 'NONE', #254, #38, #190 ) ;
#260 = CARTESIAN_POINT ( 'NONE',  ( 0.0000000000000000000, 0.0000000000000000000, 1.481062999999999574 ) ) ;
#261 = DIRECTION ( 'NONE',  ( 0.1736481776669314137, 0.0000000000000000000, 0.9848077530122077983 ) ) ;
#262 = VERTEX_POINT ( 'NONE', #95 ) ;
#263 = EDGE_CURVE ( 'NONE', #93, #55, #27, .T. ) ;
#264 = ADVANCED_FACE ( 'NONE', ( #94 ), #98, .T. ) ;
#265 = LINE ( 'NONE', #24, #62 ) ;
#266 = LINE ( 'NONE', #253, #37 ) ;
#267 = AXIS2_PLACEMENT_3D ( 'NONE', #192, #238, #148 ) ;
#268 = VERTEX_POINT ( 'NONE', #122 ) ;
#269 = ORIENTED_EDGE ( 'NONE', *, *, #124, .T. ) ;
#270 = EDGE_CURVE ( 'NONE', #154, #268, #218, .T. ) ;
#271 = ORIENTED_EDGE ( 'NONE', *, *, #239, .F. ) ;
#272 = AXIS2_PLACEMENT_3D ( 'NONE', #184, #85, #183 ) ;
#273 = DIRECTION ( 'NONE',  ( -1.224646799147353207E-16, -0.0000000000000000000, -1.000000000000000000 ) ) ;
#274 = DIRECTION ( 'NONE',  ( -1.000000000000000000, 0.0000000000000000000, 0.0000000000000000000 ) ) ;
#275 = PLANE ( 'NONE',  #187 ) ;
#276 = AXIS2_PLACEMENT_3D ( 'NONE', #226, #292, #83 ) ;
#277 = DIRECTION ( 'NONE',  ( 1.000000000000000000, 0.0000000000000000000, 0.0000000000000000000 ) ) ;
#278 = EDGE_LOOP ( 'NONE', ( #245, #33 ) ) ;
#279 = DIRECTION ( 'NONE',  ( -1.224646799147353207E-16, -0.0000000000000000000, -1.000000000000000000 ) ) ;
#280 = ADVANCED_FACE ( 'NONE', ( #172 ), #202, .T. ) ;
#281 = ORIENTED_EDGE ( 'NONE', *, *, #178, .T. ) ;
#282 = LENGTH_MEASURE_WITH_UNIT ( LENGTH_MEASURE( 0.02539999999999999897 ), #7 );
#283 = DIRECTION ( 'NONE',  ( 1.000000000000000000, 0.0000000000000000000, 0.0000000000000000000 ) ) ;
#284 = CYLINDRICAL_SURFACE ( 'NONE', #237, 0.02163184649999999945 ) ;
#285 = ORIENTED_EDGE ( 'NONE', *, *, #197, .F. ) ;
#286 = VECTOR ( 'NONE', #261, 39.37007874015748143 ) ;
#287 = PRODUCT_CONTEXT ( 'NONE', #163, 'mechanical' ) ;
#288 = CIRCLE ( 'NONE', #82, 0.02163184649999999945 ) ;
#289 = DIRECTION ( 'NONE',  ( -1.000000000000000000, 0.0000000000000000000, 0.0000000000000000000 ) ) ;
#290 = EDGE_CURVE ( 'NONE', #44, #258, #43, .T. ) ;
#291 = ORIENTED_EDGE ( 'NONE', *, *, #239, .T. ) ;
#292 = DIRECTION ( 'NONE',  ( -0.0000000000000000000, -0.0000000000000000000, -1.000000000000000000 ) ) ;
#293 = DIRECTION ( 'NONE',  ( -0.0000000000000000000, -0.0000000000000000000, -1.000000000000000000 ) ) ;
#294 = CLOSED_SHELL ( 'NONE', ( #14, #59, #280, #244, #222, #74, #9, #252, #264, #193 ) ) ;
#295 = CARTESIAN_POINT ( 'NONE',  ( 3.244257340541466344E-34, 0.0000000000000000000, 2.649137157587187450E-18 ) ) ;
#296 = FACE_OUTER_BOUND ( 'NONE', #194, .T. ) ;
#297 = VECTOR ( 'NONE', #166, 39.37007874015748143 ) ;
#298 = EDGE_CURVE ( 'NONE', #28, #262, #265, .T. ) ;
#299 = CARTESIAN_POINT ( 'NONE',  ( -0.05905500000000000332, 0.0000000000000000000, 1.481062999999999574 ) ) ;
ENDSEC;
END-ISO-10303-21;
