ISO-10303-21;
HEADER;
FILE_DESCRIPTION (( 'STEP AP214' ),
    '1' );
FILE_NAME ('23080.STEP',
    '2023-06-22T16:32:05',
    ( '' ),
    ( '' ),
    'SwSTEP 2.0',
    'SolidWorks 2023',
    '' );
FILE_SCHEMA (( 'AUTOMOTIVE_DESIGN' ));
ENDSEC;

DATA;
#1 = LENGTH_MEASURE_WITH_UNIT ( LENGTH_MEASURE( 0.02539999999999999897 ), #217 );
#2 = ADVANCED_FACE ( 'NONE', ( #18 ), #68, .T. ) ;
#3 = CARTESIAN_POINT ( 'NONE',  ( 1.530808498934191201E-17, 0.5000000000000000000, 0.1249999999999999861 ) ) ;
#4 = AXIS2_PLACEMENT_3D ( 'NONE', #17, #94, #135 ) ;
#5 = SURFACE_STYLE_FILL_AREA ( #38 ) ;
#6 = FILL_AREA_STYLE_COLOUR ( '', #144 ) ;
#7 = CYLINDRICAL_SURFACE ( 'NONE', #92, 0.1250000000000000000 ) ;
#8 = ORIENTED_EDGE ( 'NONE', *, *, #113, .T. ) ;
#9 = STYLED_ITEM ( 'NONE', ( #154 ), #264 ) ;
#10 = SURFACE_SIDE_STYLE ('',( #296 ) ) ;
#11 = EDGE_LOOP ( 'NONE', ( #44, #24, #55, #151 ) ) ;
#12 =( LENGTH_UNIT ( ) NAMED_UNIT ( * ) SI_UNIT ( $, .METRE. ) );
#13 =( LENGTH_UNIT ( ) NAMED_UNIT ( * ) SI_UNIT ( $, .METRE. ) );
#14 = UNCERTAINTY_MEASURE_WITH_UNIT (LENGTH_MEASURE( 1.000000000000000082E-05 ), #58, 'distance_accuracy_value', 'NONE');
#15 = MECHANICAL_DESIGN_GEOMETRIC_PRESENTATION_REPRESENTATION (  '', ( #9 ), #175 ) ;
#16 = CARTESIAN_POINT ( 'NONE',  ( 0.000000000000000000, 0.5000000000000000000, -0.1249999999999999861 ) ) ;
#17 = CARTESIAN_POINT ( 'NONE',  ( -6.123233995736766036E-17, 2.500000000000000000, 0.000000000000000000 ) ) ;
#18 = FACE_OUTER_BOUND ( 'NONE', #281, .T. ) ;
#19 = DIRECTION ( 'NONE',  ( -3.061616997868383018E-17, 1.000000000000000000, -0.000000000000000000 ) ) ;
#20 = MECHANICAL_DESIGN_GEOMETRIC_PRESENTATION_REPRESENTATION (  '', ( #241 ), #195 ) ;
#21 = EDGE_LOOP ( 'NONE', ( #208, #252, #164, #130 ) ) ;
#22 = EDGE_CURVE ( 'NONE', #42, #256, #155, .T. ) ;
#23 = PRODUCT_DEFINITION ( 'UNKNOWN', '', #110, #235 ) ;
#24 = ORIENTED_EDGE ( 'NONE', *, *, #295, .T. ) ;
#25 = PRODUCT_CONTEXT ( 'NONE', #233, 'mechanical' ) ;
#26 = DIRECTION ( 'NONE',  ( -0.000000000000000000, -1.000000000000000000, -0.000000000000000000 ) ) ;
#27 = CARTESIAN_POINT ( 'NONE',  ( 0.000000000000000000, 0.000000000000000000, 0.000000000000000000 ) ) ;
#28 = AXIS2_PLACEMENT_3D ( 'NONE', #309, #103, #216 ) ;
#29 = CIRCLE ( 'NONE', #294, 0.1249999999999999861 ) ;
#30 = DIRECTION ( 'NONE',  ( -0.000000000000000000, -1.000000000000000000, -0.000000000000000000 ) ) ;
#31 = FACE_OUTER_BOUND ( 'NONE', #212, .T. ) ;
#32 = CIRCLE ( 'NONE', #28, 0.1249999999999999861 ) ;
#33 = EDGE_CURVE ( 'NONE', #47, #131, #230, .T. ) ;
#34 =( NAMED_UNIT ( * ) SI_UNIT ( $, .STERADIAN. ) SOLID_ANGLE_UNIT ( ) );
#35 = ORIENTED_EDGE ( 'NONE', *, *, #80, .T. ) ;
#36 = VECTOR ( 'NONE', #132, 39.37007874015748143 ) ;
#37 = VERTEX_POINT ( 'NONE', #227 ) ;
#38 = FILL_AREA_STYLE ('',( #107 ) ) ;
#39 = CARTESIAN_POINT ( 'NONE',  ( 0.1249999999999999445, 2.500000000000000000, 1.530808498934191817E-17 ) ) ;
#40 = PRESENTATION_LAYER_ASSIGNMENT (  '', '', ( #9 ) ) ;
#41 = CIRCLE ( 'NONE', #178, 0.1250000000000000000 ) ;
#42 = VERTEX_POINT ( 'NONE', #16 ) ;
#43 = DIRECTION ( 'NONE',  ( -3.061616997868383018E-17, 1.000000000000000000, -0.000000000000000000 ) ) ;
#44 = ORIENTED_EDGE ( 'NONE', *, *, #184, .T. ) ;
#45 = UNCERTAINTY_MEASURE_WITH_UNIT (LENGTH_MEASURE( 1.000000000000000082E-05 ), #231, 'distance_accuracy_value', 'NONE');
#46 = CIRCLE ( 'NONE', #148, 0.1250000000000000555 ) ;
#47 = VERTEX_POINT ( 'NONE', #205 ) ;
#48 = FACE_OUTER_BOUND ( 'NONE', #11, .T. ) ;
#49 = CARTESIAN_POINT ( 'NONE',  ( 5.858436651022881281E-35, 0.5000000000000000000, 0.000000000000000000 ) ) ;
#50 = CARTESIAN_POINT ( 'NONE',  ( 0.000000000000000000, 0.5000000000000001110, 0.000000000000000000 ) ) ;
#51 = DIRECTION ( 'NONE',  ( -1.000000000000000000, 0.000000000000000000, 0.000000000000000000 ) ) ;
#52 = VECTOR ( 'NONE', #308, 39.37007874015748143 ) ;
#53 = DIMENSIONAL_EXPONENTS ( 1.000000000000000000, 0.000000000000000000, 0.000000000000000000, 0.000000000000000000, 0.000000000000000000, 0.000000000000000000, 0.000000000000000000 ) ;
#54 = DIRECTION ( 'NONE',  ( -1.000000000000000000, 0.000000000000000000, 0.000000000000000000 ) ) ;
#55 = ORIENTED_EDGE ( 'NONE', *, *, #113, .F. ) ;
#56 = DIRECTION ( 'NONE',  ( 0.000000000000000000, 0.000000000000000000, -1.000000000000000000 ) ) ;
#57 = ORIENTED_EDGE ( 'NONE', *, *, #275, .F. ) ;
#58 =( CONVERSION_BASED_UNIT ( 'INCH', #85 ) LENGTH_UNIT ( ) NAMED_UNIT ( #221 ) );
#59 = AXIS2_PLACEMENT_3D ( 'NONE', #27, #26, #245 ) ;
#60 = COLOUR_RGB ( '',0.7921568627450980005, 0.8196078431372548767, 0.9333333333333333481 ) ;
#61 =( NAMED_UNIT ( * ) PLANE_ANGLE_UNIT ( ) SI_UNIT ( $, .RADIAN. ) );
#62 = CARTESIAN_POINT ( 'NONE',  ( 0.000000000000000000, 0.000000000000000000, 0.000000000000000000 ) ) ;
#63 = APPLICATION_CONTEXT ( 'automotive_design' ) ;
#64 = PRESENTATION_STYLE_ASSIGNMENT (( #182 ) ) ;
#65 = EDGE_LOOP ( 'NONE', ( #232, #97, #120, #250 ) ) ;
#66 = COLOUR_RGB ( '',0.7921568627450980005, 0.8196078431372548767, 0.9333333333333333481 ) ;
#67 = CARTESIAN_POINT ( 'NONE',  ( 0.000000000000000000, 0.5000000000000000000, 0.000000000000000000 ) ) ;
#68 = PLANE ( 'NONE',  #289 ) ;
#69 = DIRECTION ( 'NONE',  ( 0.000000000000000000, 0.000000000000000000, -1.000000000000000000 ) ) ;
#70 = VERTEX_POINT ( 'NONE', #303 ) ;
#71 = FACE_OUTER_BOUND ( 'NONE', #21, .T. ) ;
#72 = FILL_AREA_STYLE ('',( #258 ) ) ;
#73 = AXIS2_PLACEMENT_3D ( 'NONE', #271, #192, #265 ) ;
#74 =( CONVERSION_BASED_UNIT ( 'INCH', #1 ) LENGTH_UNIT ( ) NAMED_UNIT ( #199 ) );
#75 = PLANE ( 'NONE',  #108 ) ;
#76 = SURFACE_STYLE_FILL_AREA ( #266 ) ;
#77 = VECTOR ( 'NONE', #19, 39.37007874015748143 ) ;
#78 =( GEOMETRIC_REPRESENTATION_CONTEXT ( 3 ) GLOBAL_UNCERTAINTY_ASSIGNED_CONTEXT ( ( #162 ) ) GLOBAL_UNIT_ASSIGNED_CONTEXT ( ( #87, #280, #304 ) ) REPRESENTATION_CONTEXT ( 'NONE', 'WORKASPACE' ) );
#79 = FILL_AREA_STYLE_COLOUR ( '', #204 ) ;
#80 = EDGE_CURVE ( 'NONE', #131, #37, #191, .T. ) ;
#81 = CARTESIAN_POINT ( 'NONE',  ( 0.000000000000000000, 0.000000000000000000, -0.1250000000000000000 ) ) ;
#82 = STYLED_ITEM ( 'NONE', ( #277 ), #2 ) ;
#83 = PRESENTATION_STYLE_ASSIGNMENT (( #249 ) ) ;
#84 = PRODUCT_DEFINITION_SHAPE ( 'NONE', 'NONE',  #23 ) ;
#85 = LENGTH_MEASURE_WITH_UNIT ( LENGTH_MEASURE( 0.02539999999999999897 ), #12 );
#86 = AXIS2_PLACEMENT_3D ( 'NONE', #147, #99, #51 ) ;
#87 =( CONVERSION_BASED_UNIT ( 'INCH', #305 ) LENGTH_UNIT ( ) NAMED_UNIT ( #106 ) );
#88 = EDGE_CURVE ( 'NONE', #47, #139, #209, .T. ) ;
#89 = ADVANCED_FACE ( 'NONE', ( #31 ), #75, .F. ) ;
#90 = ORIENTED_EDGE ( 'NONE', *, *, #22, .T. ) ;
#91 =( NAMED_UNIT ( * ) SI_UNIT ( $, .STERADIAN. ) SOLID_ANGLE_UNIT ( ) );
#92 = AXIS2_PLACEMENT_3D ( 'NONE', #149, #248, #111 ) ;
#93 =( GEOMETRIC_REPRESENTATION_CONTEXT ( 3 ) GLOBAL_UNCERTAINTY_ASSIGNED_CONTEXT ( ( #141 ) ) GLOBAL_UNIT_ASSIGNED_CONTEXT ( ( #185, #189, #96 ) ) REPRESENTATION_CONTEXT ( 'NONE', 'WORKASPACE' ) );
#94 = DIRECTION ( 'NONE',  ( -3.061616997868383018E-17, 1.000000000000000000, -0.000000000000000000 ) ) ;
#95 = DIRECTION ( 'NONE',  ( 0.000000000000000000, -1.000000000000000000, -0.000000000000000000 ) ) ;
#96 =( NAMED_UNIT ( * ) SI_UNIT ( $, .STERADIAN. ) SOLID_ANGLE_UNIT ( ) );
#97 = ORIENTED_EDGE ( 'NONE', *, *, #33, .T. ) ;
#98 = DIRECTION ( 'NONE',  ( 0.000000000000000000, 0.000000000000000000, -1.000000000000000000 ) ) ;
#99 = DIRECTION ( 'NONE',  ( -3.061616997868383018E-17, 1.000000000000000000, -0.000000000000000000 ) ) ;
#100 = DIRECTION ( 'NONE',  ( -1.000000000000000000, 0.000000000000000000, 0.000000000000000000 ) ) ;
#101 = CARTESIAN_POINT ( 'NONE',  ( 0.000000000000000000, 0.5000000000000000000, 0.000000000000000000 ) ) ;
#102 = PRODUCT_RELATED_PRODUCT_CATEGORY ( 'part', '', ( #179 ) ) ;
#103 = DIRECTION ( 'NONE',  ( -0.000000000000000000, -1.000000000000000000, -0.000000000000000000 ) ) ;
#104 = PRESENTATION_STYLE_ASSIGNMENT (( #291 ) ) ;
#105 = SURFACE_SIDE_STYLE ('',( #5 ) ) ;
#106 = DIMENSIONAL_EXPONENTS ( 1.000000000000000000, 0.000000000000000000, 0.000000000000000000, 0.000000000000000000, 0.000000000000000000, 0.000000000000000000, 0.000000000000000000 ) ;
#107 = FILL_AREA_STYLE_COLOUR ( '', #222 ) ;
#108 = AXIS2_PLACEMENT_3D ( 'NONE', #49, #169, #121 ) ;
#109 = STYLED_ITEM ( 'NONE', ( #64 ), #302 ) ;
#110 = PRODUCT_DEFINITION_FORMATION_WITH_SPECIFIED_SOURCE ( 'ANY', '', #179, .NOT_KNOWN. ) ;
#111 = DIRECTION ( 'NONE',  ( 0.000000000000000000, 0.000000000000000000, -1.000000000000000000 ) ) ;
#112 =( NAMED_UNIT ( * ) SI_UNIT ( $, .STERADIAN. ) SOLID_ANGLE_UNIT ( ) );
#113 = EDGE_CURVE ( 'NONE', #256, #70, #255, .T. ) ;
#114 = PRESENTATION_LAYER_ASSIGNMENT (  '', '', ( #82 ) ) ;
#115 =( NAMED_UNIT ( * ) SI_UNIT ( $, .STERADIAN. ) SOLID_ANGLE_UNIT ( ) );
#116 = ORIENTED_EDGE ( 'NONE', *, *, #239, .F. ) ;
#117 = LINE ( 'NONE', #206, #299 ) ;
#118 = EDGE_LOOP ( 'NONE', ( #161, #35 ) ) ;
#119 = CIRCLE ( 'NONE', #278, 0.1249999999999999861 ) ;
#120 = ORIENTED_EDGE ( 'NONE', *, *, #253, .F. ) ;
#121 = DIRECTION ( 'NONE',  ( -1.000000000000000000, -3.061616997868383018E-17, 0.000000000000000000 ) ) ;
#122 = CYLINDRICAL_SURFACE ( 'NONE', #242, 0.1250000000000000278 ) ;
#123 = CARTESIAN_POINT ( 'NONE',  ( 0.1250000000000000000, 2.500000000000000000, 1.530808498934192125E-17 ) ) ;
#124 = CLOSED_SHELL ( 'NONE', ( #197, #89, #292, #188 ) ) ;
#125 = LENGTH_MEASURE_WITH_UNIT ( LENGTH_MEASURE( 0.02539999999999999897 ), #152 );
#126 = DIMENSIONAL_EXPONENTS ( 1.000000000000000000, 0.000000000000000000, 0.000000000000000000, 0.000000000000000000, 0.000000000000000000, 0.000000000000000000, 0.000000000000000000 ) ;
#127 =( NAMED_UNIT ( * ) PLANE_ANGLE_UNIT ( ) SI_UNIT ( $, .RADIAN. ) );
#128 = PRESENTATION_LAYER_ASSIGNMENT (  '', '', ( #267 ) ) ;
#129 = FACE_OUTER_BOUND ( 'NONE', #190, .T. ) ;
#130 = ORIENTED_EDGE ( 'NONE', *, *, #80, .F. ) ;
#131 = VERTEX_POINT ( 'NONE', #123 ) ;
#132 = DIRECTION ( 'NONE',  ( -0.000000000000000000, -1.000000000000000000, -0.000000000000000000 ) ) ;
#133 =( LENGTH_UNIT ( ) NAMED_UNIT ( * ) SI_UNIT ( $, .METRE. ) );
#134 =( CONVERSION_BASED_UNIT ( 'INCH', #136 ) LENGTH_UNIT ( ) NAMED_UNIT ( #173 ) );
#135 = DIRECTION ( 'NONE',  ( -1.000000000000000000, 0.000000000000000000, 0.000000000000000000 ) ) ;
#136 = LENGTH_MEASURE_WITH_UNIT ( LENGTH_MEASURE( 0.02539999999999999897 ), #181 );
#137 = LENGTH_MEASURE_WITH_UNIT ( LENGTH_MEASURE( 0.02539999999999999897 ), #133 );
#138 = UNCERTAINTY_MEASURE_WITH_UNIT (LENGTH_MEASURE( 1.000000000000000082E-05 ), #134, 'distance_accuracy_value', 'NONE');
#139 = VERTEX_POINT ( 'NONE', #284 ) ;
#140 = CARTESIAN_POINT ( 'NONE',  ( 0.000000000000000000, 0.000000000000000000, 0.000000000000000000 ) ) ;
#141 = UNCERTAINTY_MEASURE_WITH_UNIT (LENGTH_MEASURE( 1.000000000000000082E-05 ), #185, 'distance_accuracy_value', 'NONE');
#142 =( NAMED_UNIT ( * ) PLANE_ANGLE_UNIT ( ) SI_UNIT ( $, .RADIAN. ) );
#143 = FACE_OUTER_BOUND ( 'NONE', #65, .T. ) ;
#144 = COLOUR_RGB ( '',1.000000000000000000, 0.000000000000000000, 0.000000000000000000 ) ;
#145 = CARTESIAN_POINT ( 'NONE',  ( 0.000000000000000000, 0.000000000000000000, 0.000000000000000000 ) ) ;
#146 = DIMENSIONAL_EXPONENTS ( 1.000000000000000000, 0.000000000000000000, 0.000000000000000000, 0.000000000000000000, 0.000000000000000000, 0.000000000000000000, 0.000000000000000000 ) ;
#147 = CARTESIAN_POINT ( 'NONE',  ( -6.123233995736766036E-17, 2.500000000000000000, 0.000000000000000000 ) ) ;
#148 = AXIS2_PLACEMENT_3D ( 'NONE', #219, #220, #54 ) ;
#149 = CARTESIAN_POINT ( 'NONE',  ( 0.000000000000000000, 0.000000000000000000, 0.000000000000000000 ) ) ;
#150 =( NAMED_UNIT ( * ) PLANE_ANGLE_UNIT ( ) SI_UNIT ( $, .RADIAN. ) );
#151 = ORIENTED_EDGE ( 'NONE', *, *, #22, .F. ) ;
#152 =( LENGTH_UNIT ( ) NAMED_UNIT ( * ) SI_UNIT ( $, .METRE. ) );
#153 = EDGE_CURVE ( 'NONE', #139, #37, #263, .T. ) ;
#154 = PRESENTATION_STYLE_ASSIGNMENT (( #177 ) ) ;
#155 = LINE ( 'NONE', #254, #36 ) ;
#156 = ORIENTED_EDGE ( 'NONE', *, *, #275, .T. ) ;
#157 =( GEOMETRIC_REPRESENTATION_CONTEXT ( 3 ) GLOBAL_UNCERTAINTY_ASSIGNED_CONTEXT ( ( #301 ) ) GLOBAL_UNIT_ASSIGNED_CONTEXT ( ( #74, #142, #290 ) ) REPRESENTATION_CONTEXT ( 'NONE', 'WORKASPACE' ) );
#158 = DIRECTION ( 'NONE',  ( 0.000000000000000000, -0.000000000000000000, 1.000000000000000000 ) ) ;
#159 = DIRECTION ( 'NONE',  ( 0.000000000000000000, 0.000000000000000000, -1.000000000000000000 ) ) ;
#160 = CYLINDRICAL_SURFACE ( 'NONE', #4, 0.1250000000000000278 ) ;
#161 = ORIENTED_EDGE ( 'NONE', *, *, #253, .T. ) ;
#162 = UNCERTAINTY_MEASURE_WITH_UNIT (LENGTH_MEASURE( 1.000000000000000082E-05 ), #87, 'distance_accuracy_value', 'NONE');
#163 = ADVANCED_FACE ( 'NONE', ( #48 ), #238, .T. ) ;
#164 = ORIENTED_EDGE ( 'NONE', *, *, #153, .T. ) ;
#165 = PRESENTATION_LAYER_ASSIGNMENT (  '', '', ( #297 ) ) ;
#166 = AXIS2_PLACEMENT_3D ( 'NONE', #67, #257, #158 ) ;
#167 = DIRECTION ( 'NONE',  ( -3.061616997868383018E-17, 1.000000000000000000, -0.000000000000000000 ) ) ;
#168 = SURFACE_STYLE_USAGE ( .BOTH. , #287 ) ;
#169 = DIRECTION ( 'NONE',  ( -3.061616997868383018E-17, 1.000000000000000000, 0.000000000000000000 ) ) ;
#170 = ADVANCED_BREP_SHAPE_REPRESENTATION ( '23080', ( #200, #302, #243 ), #251 ) ;
#171 = AXIS2_PLACEMENT_3D ( 'NONE', #50, #167, #246 ) ;
#172 = CARTESIAN_POINT ( 'NONE',  ( -6.123233995736766036E-17, 2.500000000000000000, 0.000000000000000000 ) ) ;
#173 = DIMENSIONAL_EXPONENTS ( 1.000000000000000000, 0.000000000000000000, 0.000000000000000000, 0.000000000000000000, 0.000000000000000000, 0.000000000000000000, 0.000000000000000000 ) ;
#174 = SURFACE_SIDE_STYLE ('',( #270 ) ) ;
#175 =( GEOMETRIC_REPRESENTATION_CONTEXT ( 3 ) GLOBAL_UNCERTAINTY_ASSIGNED_CONTEXT ( ( #262 ) ) GLOBAL_UNIT_ASSIGNED_CONTEXT ( ( #176, #150, #34 ) ) REPRESENTATION_CONTEXT ( 'NONE', 'WORKASPACE' ) );
#176 =( CONVERSION_BASED_UNIT ( 'INCH', #125 ) LENGTH_UNIT ( ) NAMED_UNIT ( #53 ) );
#177 = SURFACE_STYLE_USAGE ( .BOTH. , #10 ) ;
#178 = AXIS2_PLACEMENT_3D ( 'NONE', #211, #298, #69 ) ;
#179 = PRODUCT ( '23080', '23080', '', ( #25 ) ) ;
#180 = DIRECTION ( 'NONE',  ( -0.000000000000000000, -1.000000000000000000, -0.000000000000000000 ) ) ;
#181 =( LENGTH_UNIT ( ) NAMED_UNIT ( * ) SI_UNIT ( $, .METRE. ) );
#182 = SURFACE_STYLE_USAGE ( .BOTH. , #300 ) ;
#183 = SURFACE_SIDE_STYLE ('',( #236 ) ) ;
#184 = EDGE_CURVE ( 'NONE', #42, #186, #32, .T. ) ;
#185 =( CONVERSION_BASED_UNIT ( 'INCH', #276 ) LENGTH_UNIT ( ) NAMED_UNIT ( #146 ) );
#186 = VERTEX_POINT ( 'NONE', #3 ) ;
#187 = SURFACE_STYLE_FILL_AREA ( #226 ) ;
#188 = ADVANCED_FACE ( 'NONE', ( #196 ), #193, .F. ) ;
#189 =( NAMED_UNIT ( * ) PLANE_ANGLE_UNIT ( ) SI_UNIT ( $, .RADIAN. ) );
#190 = EDGE_LOOP ( 'NONE', ( #225, #116 ) ) ;
#191 = CIRCLE ( 'NONE', #86, 0.1250000000000000555 ) ;
#192 = DIRECTION ( 'NONE',  ( 3.061616997868383018E-17, -1.000000000000000000, 0.000000000000000000 ) ) ;
#193 = PLANE ( 'NONE',  #73 ) ;
#194 = FILL_AREA_STYLE_COLOUR ( '', #66 ) ;
#195 =( GEOMETRIC_REPRESENTATION_CONTEXT ( 3 ) GLOBAL_UNCERTAINTY_ASSIGNED_CONTEXT ( ( #14 ) ) GLOBAL_UNIT_ASSIGNED_CONTEXT ( ( #58, #127, #112 ) ) REPRESENTATION_CONTEXT ( 'NONE', 'WORKASPACE' ) );
#196 = FACE_OUTER_BOUND ( 'NONE', #118, .T. ) ;
#197 = ADVANCED_FACE ( 'NONE', ( #143 ), #122, .T. ) ;
#198 = FILL_AREA_STYLE ('',( #6 ) ) ;
#199 = DIMENSIONAL_EXPONENTS ( 1.000000000000000000, 0.000000000000000000, 0.000000000000000000, 0.000000000000000000, 0.000000000000000000, 0.000000000000000000, 0.000000000000000000 ) ;
#200 = MANIFOLD_SOLID_BREP ( 'Revolve - Cutting Edge', #234 ) ;
#201 =( LENGTH_UNIT ( ) NAMED_UNIT ( * ) SI_UNIT ( $, .METRE. ) );
#202 = PRESENTATION_LAYER_ASSIGNMENT (  '', '', ( #109 ) ) ;
#203 = ORIENTED_EDGE ( 'NONE', *, *, #283, .F. ) ;
#204 = COLOUR_RGB ( '',1.000000000000000000, 0.000000000000000000, 0.000000000000000000 ) ;
#205 = CARTESIAN_POINT ( 'NONE',  ( 0.1250000000000000000, 0.5000000000000001110, 1.530808498934192125E-17 ) ) ;
#206 = CARTESIAN_POINT ( 'NONE',  ( 1.530808498934191509E-17, 0.000000000000000000, 0.1250000000000000000 ) ) ;
#207 = DIRECTION ( 'NONE',  ( -1.000000000000000000, 0.000000000000000000, 0.000000000000000000 ) ) ;
#208 = ORIENTED_EDGE ( 'NONE', *, *, #33, .F. ) ;
#209 = CIRCLE ( 'NONE', #171, 0.1249999999999999861 ) ;
#210 = MECHANICAL_DESIGN_GEOMETRIC_PRESENTATION_REPRESENTATION (  '', ( #109 ), #78 ) ;
#211 = CARTESIAN_POINT ( 'NONE',  ( 0.000000000000000000, 0.000000000000000000, 0.000000000000000000 ) ) ;
#212 = EDGE_LOOP ( 'NONE', ( #203, #273 ) ) ;
#213 = SHAPE_DEFINITION_REPRESENTATION ( #84, #170 ) ;
#214 = PRESENTATION_STYLE_ASSIGNMENT (( #168 ) ) ;
#215 = DIRECTION ( 'NONE',  ( -3.061616997868383018E-17, 1.000000000000000000, -0.000000000000000000 ) ) ;
#216 = DIRECTION ( 'NONE',  ( 0.000000000000000000, 0.000000000000000000, -1.000000000000000000 ) ) ;
#217 =( LENGTH_UNIT ( ) NAMED_UNIT ( * ) SI_UNIT ( $, .METRE. ) );
#218 = MECHANICAL_DESIGN_GEOMETRIC_PRESENTATION_REPRESENTATION (  '', ( #82 ), #261 ) ;
#219 = CARTESIAN_POINT ( 'NONE',  ( -6.123233995736766036E-17, 2.500000000000000000, 0.000000000000000000 ) ) ;
#220 = DIRECTION ( 'NONE',  ( -3.061616997868383018E-17, 1.000000000000000000, -0.000000000000000000 ) ) ;
#221 = DIMENSIONAL_EXPONENTS ( 1.000000000000000000, 0.000000000000000000, 0.000000000000000000, 0.000000000000000000, 0.000000000000000000, 0.000000000000000000, 0.000000000000000000 ) ;
#222 = COLOUR_RGB ( '',1.000000000000000000, 0.000000000000000000, 0.000000000000000000 ) ;
#223 = FACE_OUTER_BOUND ( 'NONE', #279, .T. ) ;
#224 = PLANE ( 'NONE',  #166 ) ;
#225 = ORIENTED_EDGE ( 'NONE', *, *, #184, .F. ) ;
#226 = FILL_AREA_STYLE ('',( #229 ) ) ;
#227 = CARTESIAN_POINT ( 'NONE',  ( -0.1250000000000001110, 2.500000000000000000, 0.000000000000000000 ) ) ;
#228 =( NAMED_UNIT ( * ) PLANE_ANGLE_UNIT ( ) SI_UNIT ( $, .RADIAN. ) );
#229 = FILL_AREA_STYLE_COLOUR ( '', #60 ) ;
#230 = LINE ( 'NONE', #39, #77 ) ;
#231 =( CONVERSION_BASED_UNIT ( 'INCH', #137 ) LENGTH_UNIT ( ) NAMED_UNIT ( #126 ) );
#232 = ORIENTED_EDGE ( 'NONE', *, *, #283, .T. ) ;
#233 = APPLICATION_CONTEXT ( 'automotive_design' ) ;
#234 = CLOSED_SHELL ( 'NONE', ( #163, #269, #264, #2 ) ) ;
#235 = PRODUCT_DEFINITION_CONTEXT ( 'detailed design', #63, 'design' ) ;
#236 = SURFACE_STYLE_FILL_AREA ( #72 ) ;
#237 = DIRECTION ( 'NONE',  ( 0.000000000000000000, 0.000000000000000000, 1.000000000000000000 ) ) ;
#238 = CYLINDRICAL_SURFACE ( 'NONE', #59, 0.1250000000000000000 ) ;
#239 = EDGE_CURVE ( 'NONE', #186, #42, #119, .T. ) ;
#240 = APPLICATION_PROTOCOL_DEFINITION ( 'draft international standard', 'automotive_design', 1998, #63 ) ;
#241 = STYLED_ITEM ( 'NONE', ( #83 ), #200 ) ;
#242 = AXIS2_PLACEMENT_3D ( 'NONE', #172, #215, #100 ) ;
#243 = AXIS2_PLACEMENT_3D ( 'NONE', #140, #237, #244 ) ;
#244 = DIRECTION ( 'NONE',  ( 1.000000000000000000, 0.000000000000000000, 0.000000000000000000 ) ) ;
#245 = DIRECTION ( 'NONE',  ( 0.000000000000000000, 0.000000000000000000, -1.000000000000000000 ) ) ;
#246 = DIRECTION ( 'NONE',  ( -1.000000000000000000, 0.000000000000000000, 0.000000000000000000 ) ) ;
#247 = COLOUR_RGB ( '',1.000000000000000000, 0.000000000000000000, 0.000000000000000000 ) ;
#248 = DIRECTION ( 'NONE',  ( -0.000000000000000000, -1.000000000000000000, -0.000000000000000000 ) ) ;
#249 = SURFACE_STYLE_USAGE ( .BOTH. , #174 ) ;
#250 = ORIENTED_EDGE ( 'NONE', *, *, #153, .F. ) ;
#251 =( GEOMETRIC_REPRESENTATION_CONTEXT ( 3 ) GLOBAL_UNCERTAINTY_ASSIGNED_CONTEXT ( ( #45 ) ) GLOBAL_UNIT_ASSIGNED_CONTEXT ( ( #231, #61, #115 ) ) REPRESENTATION_CONTEXT ( 'NONE', 'WORKASPACE' ) );
#252 = ORIENTED_EDGE ( 'NONE', *, *, #88, .T. ) ;
#253 = EDGE_CURVE ( 'NONE', #37, #131, #46, .T. ) ;
#254 = CARTESIAN_POINT ( 'NONE',  ( 0.000000000000000000, 0.000000000000000000, -0.1250000000000000000 ) ) ;
#255 = CIRCLE ( 'NONE', #285, 0.1250000000000000000 ) ;
#256 = VERTEX_POINT ( 'NONE', #81 ) ;
#257 = DIRECTION ( 'NONE',  ( 0.000000000000000000, 1.000000000000000000, 0.000000000000000000 ) ) ;
#258 = FILL_AREA_STYLE_COLOUR ( '', #247 ) ;
#259 = ORIENTED_EDGE ( 'NONE', *, *, #295, .F. ) ;
#260 = CARTESIAN_POINT ( 'NONE',  ( 0.000000000000000000, 0.5000000000000001110, 0.000000000000000000 ) ) ;
#261 =( GEOMETRIC_REPRESENTATION_CONTEXT ( 3 ) GLOBAL_UNCERTAINTY_ASSIGNED_CONTEXT ( ( #138 ) ) GLOBAL_UNIT_ASSIGNED_CONTEXT ( ( #134, #228, #91 ) ) REPRESENTATION_CONTEXT ( 'NONE', 'WORKASPACE' ) );
#262 = UNCERTAINTY_MEASURE_WITH_UNIT (LENGTH_MEASURE( 1.000000000000000082E-05 ), #176, 'distance_accuracy_value', 'NONE');
#263 = LINE ( 'NONE', #286, #52 ) ;
#264 = ADVANCED_FACE ( 'NONE', ( #223 ), #7, .T. ) ;
#265 = DIRECTION ( 'NONE',  ( 1.000000000000000000, 3.061616997868383018E-17, 0.000000000000000000 ) ) ;
#266 = FILL_AREA_STYLE ('',( #79 ) ) ;
#267 = STYLED_ITEM ( 'NONE', ( #104 ), #269 ) ;
#268 = APPLICATION_PROTOCOL_DEFINITION ( 'draft international standard', 'automotive_design', 1998, #233 ) ;
#269 = ADVANCED_FACE ( 'NONE', ( #129 ), #224, .T. ) ;
#270 = SURFACE_STYLE_FILL_AREA ( #288 ) ;
#271 = CARTESIAN_POINT ( 'NONE',  ( 0.1249999999999999861, 2.500000000000000000, 0.000000000000000000 ) ) ;
#272 = DIRECTION ( 'NONE',  ( -0.000000000000000000, -1.000000000000000000, -0.000000000000000000 ) ) ;
#273 = ORIENTED_EDGE ( 'NONE', *, *, #88, .F. ) ;
#274 = PRESENTATION_LAYER_ASSIGNMENT (  '', '', ( #241 ) ) ;
#275 = EDGE_CURVE ( 'NONE', #70, #256, #41, .T. ) ;
#276 = LENGTH_MEASURE_WITH_UNIT ( LENGTH_MEASURE( 0.02539999999999999897 ), #201 );
#277 = PRESENTATION_STYLE_ASSIGNMENT (( #282 ) ) ;
#278 = AXIS2_PLACEMENT_3D ( 'NONE', #101, #272, #56 ) ;
#279 = EDGE_LOOP ( 'NONE', ( #259, #307, #90, #57 ) ) ;
#280 =( NAMED_UNIT ( * ) PLANE_ANGLE_UNIT ( ) SI_UNIT ( $, .RADIAN. ) );
#281 = EDGE_LOOP ( 'NONE', ( #8, #156 ) ) ;
#282 = SURFACE_STYLE_USAGE ( .BOTH. , #183 ) ;
#283 = EDGE_CURVE ( 'NONE', #139, #47, #29, .T. ) ;
#284 = CARTESIAN_POINT ( 'NONE',  ( -0.1249999999999999861, 0.5000000000000001110, 0.000000000000000000 ) ) ;
#285 = AXIS2_PLACEMENT_3D ( 'NONE', #145, #30, #98 ) ;
#286 = CARTESIAN_POINT ( 'NONE',  ( -0.1250000000000000833, 2.500000000000000000, 0.000000000000000000 ) ) ;
#287 = SURFACE_SIDE_STYLE ('',( #76 ) ) ;
#288 = FILL_AREA_STYLE ('',( #194 ) ) ;
#289 = AXIS2_PLACEMENT_3D ( 'NONE', #62, #95, #159 ) ;
#290 =( NAMED_UNIT ( * ) SI_UNIT ( $, .STERADIAN. ) SOLID_ANGLE_UNIT ( ) );
#291 = SURFACE_STYLE_USAGE ( .BOTH. , #105 ) ;
#292 = ADVANCED_FACE ( 'NONE', ( #71 ), #160, .T. ) ;
#293 = MECHANICAL_DESIGN_GEOMETRIC_PRESENTATION_REPRESENTATION (  '', ( #297 ), #157 ) ;
#294 = AXIS2_PLACEMENT_3D ( 'NONE', #260, #43, #207 ) ;
#295 = EDGE_CURVE ( 'NONE', #186, #70, #117, .T. ) ;
#296 = SURFACE_STYLE_FILL_AREA ( #198 ) ;
#297 = STYLED_ITEM ( 'NONE', ( #214 ), #163 ) ;
#298 = DIRECTION ( 'NONE',  ( -0.000000000000000000, -1.000000000000000000, -0.000000000000000000 ) ) ;
#299 = VECTOR ( 'NONE', #180, 39.37007874015748143 ) ;
#300 = SURFACE_SIDE_STYLE ('',( #187 ) ) ;
#301 = UNCERTAINTY_MEASURE_WITH_UNIT (LENGTH_MEASURE( 1.000000000000000082E-05 ), #74, 'distance_accuracy_value', 'NONE');
#302 = MANIFOLD_SOLID_BREP ( 'Revolve - Tool Body (Straight Shanked)', #124 ) ;
#303 = CARTESIAN_POINT ( 'NONE',  ( 1.530808498934191509E-17, 0.000000000000000000, 0.1250000000000000000 ) ) ;
#304 =( NAMED_UNIT ( * ) SI_UNIT ( $, .STERADIAN. ) SOLID_ANGLE_UNIT ( ) );
#305 = LENGTH_MEASURE_WITH_UNIT ( LENGTH_MEASURE( 0.02539999999999999897 ), #13 );
#306 = MECHANICAL_DESIGN_GEOMETRIC_PRESENTATION_REPRESENTATION (  '', ( #267 ), #93 ) ;
#307 = ORIENTED_EDGE ( 'NONE', *, *, #239, .T. ) ;
#308 = DIRECTION ( 'NONE',  ( -3.061616997868383018E-17, 1.000000000000000000, -0.000000000000000000 ) ) ;
#309 = CARTESIAN_POINT ( 'NONE',  ( 0.000000000000000000, 0.5000000000000000000, 0.000000000000000000 ) ) ;
ENDSEC;
END-ISO-10303-21;
