ISO-10303-21;
HEADER;
FILE_DESCRIPTION (( 'STEP AP214' ),
    '1' );
FILE_NAME ('Micro_BMSM-016-2X.STEP',
    '2021-09-03T15:50:06',
    ( '' ),
    ( '' ),
    'SwSTEP 2.0',
    'SolidWorks 2020',
    '' );
FILE_SCHEMA (( 'AUTOMOTIVE_DESIGN' ));
ENDSEC;

DATA;
#1 = FILL_AREA_STYLE ('',( #216 ) ) ;
#2 = CARTESIAN_POINT ( 'NONE',  ( 0.04405499999999973326, 5.395181473643630390E-18, 1.496062999999999921 ) ) ;
#3 =( NAMED_UNIT ( * ) SI_UNIT ( $, .STERADIAN. ) SOLID_ANGLE_UNIT ( ) );
#4 = ORIENTED_EDGE ( 'NONE', *, *, #270, .F. ) ;
#5 = VECTOR ( 'NONE', #287, 39.37007874015748143 ) ;
#6 = ORIENTED_EDGE ( 'NONE', *, *, #227, .F. ) ;
#7 =( NAMED_UNIT ( * ) PLANE_ANGLE_UNIT ( ) SI_UNIT ( $, .RADIAN. ) );
#8 = ADVANCED_FACE ( 'NONE', ( #67 ), #16, .T. ) ;
#9 = CARTESIAN_POINT ( 'NONE',  ( 0.0000000000000000000, 0.0000000000000000000, 0.0000000000000000000 ) ) ;
#10 = EDGE_LOOP ( 'NONE', ( #176, #139 ) ) ;
#11 = VECTOR ( 'NONE', #39, 39.37007874015748143 ) ;
#12 =( GEOMETRIC_REPRESENTATION_CONTEXT ( 3 ) GLOBAL_UNCERTAINTY_ASSIGNED_CONTEXT ( ( #49 ) ) GLOBAL_UNIT_ASSIGNED_CONTEXT ( ( #104, #7, #107 ) ) REPRESENTATION_CONTEXT ( 'NONE', 'WORKASPACE' ) );
#13 = VERTEX_POINT ( 'NONE', #237 ) ;
#14 = DIRECTION ( 'NONE',  ( 0.0000000000000000000, 0.0000000000000000000, -1.000000000000000000 ) ) ;
#15 = CIRCLE ( 'NONE', #119, 0.03146450399999999731 ) ;
#16 = CYLINDRICAL_SURFACE ( 'NONE', #155, 0.05905500000000000332 ) ;
#17 = SURFACE_STYLE_USAGE ( .BOTH. , #84 ) ;
#18 = LINE ( 'NONE', #116, #109 ) ;
#19 =( NAMED_UNIT ( * ) PLANE_ANGLE_UNIT ( ) SI_UNIT ( $, .RADIAN. ) );
#20 = DIRECTION ( 'NONE',  ( -0.0000000000000000000, -0.0000000000000000000, -1.000000000000000000 ) ) ;
#21 = CARTESIAN_POINT ( 'NONE',  ( -0.03146450399999999731, 0.0000000000000000000, 3.853290411035908808E-18 ) ) ;
#22 = DIRECTION ( 'NONE',  ( -1.224646799147353207E-16, -0.0000000000000000000, -1.000000000000000000 ) ) ;
#23 = CARTESIAN_POINT ( 'NONE',  ( 0.0000000000000000000, 0.0000000000000000000, 1.481062999999999574 ) ) ;
#24 = CIRCLE ( 'NONE', #304, 0.04405499999999973326 ) ;
#25 = DIRECTION ( 'NONE',  ( -1.000000000000000000, 1.224646799147353207E-16, 0.0000000000000000000 ) ) ;
#26 = DIRECTION ( 'NONE',  ( 0.0000000000000000000, 1.000000000000000000, 0.0000000000000000000 ) ) ;
#27 = LENGTH_MEASURE_WITH_UNIT ( LENGTH_MEASURE( 0.02539999999999999897 ), #247 );
#28 = CARTESIAN_POINT ( 'NONE',  ( 3.853290411035908808E-18, 0.0000000000000000000, 0.03146450399999999731 ) ) ;
#29 = AXIS2_PLACEMENT_3D ( 'NONE', #83, #174, #295 ) ;
#30 = AXIS2_PLACEMENT_3D ( 'NONE', #74, #167, #262 ) ;
#31 = PRODUCT_DEFINITION_SHAPE ( 'NONE', 'NONE',  #178 ) ;
#32 = EDGE_LOOP ( 'NONE', ( #233, #35, #92, #250 ) ) ;
#33 = PRESENTATION_LAYER_ASSIGNMENT (  '', '', ( #170 ) ) ;
#34 = EDGE_CURVE ( 'NONE', #57, #86, #18, .T. ) ;
#35 = ORIENTED_EDGE ( 'NONE', *, *, #212, .F. ) ;
#36 = ORIENTED_EDGE ( 'NONE', *, *, #88, .F. ) ;
#37 = ORIENTED_EDGE ( 'NONE', *, *, #34, .F. ) ;
#38 = AXIS2_PLACEMENT_3D ( 'NONE', #271, #191, #272 ) ;
#39 = DIRECTION ( 'NONE',  ( -1.224646799147353207E-16, -0.0000000000000000000, -1.000000000000000000 ) ) ;
#40 = PRESENTATION_STYLE_ASSIGNMENT (( #17 ) ) ;
#41 =( CONVERSION_BASED_UNIT ( 'INCH', #283 ) LENGTH_UNIT ( ) NAMED_UNIT ( #125 ) );
#42 = FACE_OUTER_BOUND ( 'NONE', #32, .T. ) ;
#43 = DIRECTION ( 'NONE',  ( -1.000000000000000000, 0.0000000000000000000, 1.224646799147353207E-16 ) ) ;
#44 = DIRECTION ( 'NONE',  ( 1.000000000000000000, 0.0000000000000000000, 0.0000000000000000000 ) ) ;
#45 = ADVANCED_FACE ( 'NONE', ( #294 ), #300, .T. ) ;
#46 = LINE ( 'NONE', #2, #244 ) ;
#47 = DIRECTION ( 'NONE',  ( 1.000000000000000000, 0.0000000000000000000, 0.0000000000000000000 ) ) ;
#48 = DIRECTION ( 'NONE',  ( -1.000000000000000000, 0.0000000000000000000, 1.224646799147353207E-16 ) ) ;
#49 = UNCERTAINTY_MEASURE_WITH_UNIT (LENGTH_MEASURE( 1.000000000000000082E-05 ), #104, 'distance_accuracy_value', 'NONE');
#50 = FACE_OUTER_BOUND ( 'NONE', #99, .T. ) ;
#51 = EDGE_CURVE ( 'NONE', #184, #231, #158, .T. ) ;
#52 = DIRECTION ( 'NONE',  ( -1.224646799147353207E-16, -0.0000000000000000000, -1.000000000000000000 ) ) ;
#53 = SURFACE_STYLE_FILL_AREA ( #273 ) ;
#54 = CIRCLE ( 'NONE', #30, 0.05905500000000000332 ) ;
#55 = CARTESIAN_POINT ( 'NONE',  ( 0.0000000000000000000, 0.0000000000000000000, 0.0000000000000000000 ) ) ;
#56 = FILL_AREA_STYLE_COLOUR ( '', #321 ) ;
#57 = VERTEX_POINT ( 'NONE', #159 ) ;
#58 = ADVANCED_FACE ( 'NONE', ( #234 ), #197, .T. ) ;
#59 = LENGTH_MEASURE_WITH_UNIT ( LENGTH_MEASURE( 0.02539999999999999897 ), #232 );
#60 = ORIENTED_EDGE ( 'NONE', *, *, #93, .F. ) ;
#61 = CIRCLE ( 'NONE', #192, 0.03146450399999999731 ) ;
#62 = DIRECTION ( 'NONE',  ( 1.000000000000000000, 0.0000000000000000000, 0.0000000000000000000 ) ) ;
#63 = ORIENTED_EDGE ( 'NONE', *, *, #112, .F. ) ;
#64 = ORIENTED_EDGE ( 'NONE', *, *, #299, .T. ) ;
#65 = AXIS2_PLACEMENT_3D ( 'NONE', #210, #117, #43 ) ;
#66 = AXIS2_PLACEMENT_3D ( 'NONE', #189, #185, #208 ) ;
#67 = FACE_OUTER_BOUND ( 'NONE', #226, .T. ) ;
#68 = DIRECTION ( 'NONE',  ( 0.0000000000000000000, -1.000000000000000000, 0.0000000000000000000 ) ) ;
#69 = PRODUCT_RELATED_PRODUCT_CATEGORY ( 'part', '', ( #152 ) ) ;
#70 = DIRECTION ( 'NONE',  ( 1.000000000000000000, 0.0000000000000000000, 0.0000000000000000000 ) ) ;
#71 = LINE ( 'NONE', #260, #254 ) ;
#72 = CIRCLE ( 'NONE', #80, 0.05905500000000000332 ) ;
#73 = CARTESIAN_POINT ( 'NONE',  ( 0.0000000000000000000, 0.0000000000000000000, 1.496062999999999921 ) ) ;
#74 = CARTESIAN_POINT ( 'NONE',  ( 0.0000000000000000000, 0.0000000000000000000, 1.481062999999999574 ) ) ;
#75 = CARTESIAN_POINT ( 'NONE',  ( 3.853290411035908808E-18, 0.0000000000000000000, 0.03146450399999999731 ) ) ;
#76 = ADVANCED_FACE ( 'NONE', ( #263 ), #102, .T. ) ;
#77 = DIRECTION ( 'NONE',  ( -0.0000000000000000000, -0.0000000000000000000, -1.000000000000000000 ) ) ;
#78 = AXIS2_PLACEMENT_3D ( 'NONE', #319, #14, #205 ) ;
#79 = CARTESIAN_POINT ( 'NONE',  ( 0.0000000000000000000, 0.0000000000000000000, 1.496062999999999921 ) ) ;
#80 = AXIS2_PLACEMENT_3D ( 'NONE', #100, #22, #312 ) ;
#81 = DIMENSIONAL_EXPONENTS ( 1.000000000000000000, 0.0000000000000000000, 0.0000000000000000000, 0.0000000000000000000, 0.0000000000000000000, 0.0000000000000000000, 0.0000000000000000000 ) ;
#82 = ADVANCED_FACE ( 'NONE', ( #228 ), #220, .T. ) ;
#83 = CARTESIAN_POINT ( 'NONE',  ( 3.073391711816791427E-17, 0.0000000000000000000, 0.2509614783590343179 ) ) ;
#84 = SURFACE_SIDE_STYLE ('',( #53 ) ) ;
#85 = VECTOR ( 'NONE', #293, 39.37007874015747433 ) ;
#86 = VERTEX_POINT ( 'NONE', #267 ) ;
#87 = ORIENTED_EDGE ( 'NONE', *, *, #215, .T. ) ;
#88 = EDGE_CURVE ( 'NONE', #225, #201, #202, .T. ) ;
#89 = ORIENTED_EDGE ( 'NONE', *, *, #190, .T. ) ;
#90 = ORIENTED_EDGE ( 'NONE', *, *, #172, .T. ) ;
#91 = MECHANICAL_DESIGN_GEOMETRIC_PRESENTATION_REPRESENTATION (  '', ( #128 ), #251 ) ;
#92 = ORIENTED_EDGE ( 'NONE', *, *, #34, .T. ) ;
#93 = EDGE_CURVE ( 'NONE', #255, #231, #61, .T. ) ;
#94 =( LENGTH_UNIT ( ) NAMED_UNIT ( * ) SI_UNIT ( $, .METRE. ) );
#95 = DIRECTION ( 'NONE',  ( -1.224646799147353207E-16, -0.0000000000000000000, -1.000000000000000000 ) ) ;
#96 = CARTESIAN_POINT ( 'NONE',  ( -0.03146450399999999037, 0.0000000000000000000, 0.03146450399999999731 ) ) ;
#97 = DIRECTION ( 'NONE',  ( -0.0000000000000000000, -0.0000000000000000000, -1.000000000000000000 ) ) ;
#98 = CIRCLE ( 'NONE', #248, 0.03146450399999999731 ) ;
#99 = EDGE_LOOP ( 'NONE', ( #60, #204, #181 ) ) ;
#100 = CARTESIAN_POINT ( 'NONE',  ( 3.073391711816791427E-17, 0.0000000000000000000, 0.2509614783590343179 ) ) ;
#101 = FACE_OUTER_BOUND ( 'NONE', #135, .T. ) ;
#102 = CYLINDRICAL_SURFACE ( 'NONE', #65, 0.03146450399999999731 ) ;
#103 = SURFACE_STYLE_FILL_AREA ( #1 ) ;
#104 =( CONVERSION_BASED_UNIT ( 'INCH', #59 ) LENGTH_UNIT ( ) NAMED_UNIT ( #81 ) );
#105 = EDGE_CURVE ( 'NONE', #86, #133, #240, .T. ) ;
#106 = EDGE_LOOP ( 'NONE', ( #4, #64, #6, #37 ) ) ;
#107 =( NAMED_UNIT ( * ) SI_UNIT ( $, .STERADIAN. ) SOLID_ANGLE_UNIT ( ) );
#108 = ORIENTED_EDGE ( 'NONE', *, *, #88, .T. ) ;
#109 = VECTOR ( 'NONE', #207, 39.37007874015748143 ) ;
#110 = CONICAL_SURFACE ( 'NONE', #38, 0.03146450399999999731, 0.1745329251994338637 ) ;
#111 = ORIENTED_EDGE ( 'NONE', *, *, #162, .F. ) ;
#112 = EDGE_CURVE ( 'NONE', #255, #252, #298, .T. ) ;
#113 = AXIS2_PLACEMENT_3D ( 'NONE', #289, #166, #138 ) ;
#114 = CIRCLE ( 'NONE', #29, 0.05905500000000000332 ) ;
#115 = DIRECTION ( 'NONE',  ( -0.0000000000000000000, -0.0000000000000000000, -1.000000000000000000 ) ) ;
#116 = CARTESIAN_POINT ( 'NONE',  ( -0.04405499999999973326, 0.0000000000000000000, 1.496062999999999921 ) ) ;
#117 = DIRECTION ( 'NONE',  ( -1.224646799147353207E-16, -0.0000000000000000000, -1.000000000000000000 ) ) ;
#118 = CARTESIAN_POINT ( 'NONE',  ( -0.05905500000000000332, 0.0000000000000000000, 1.496062999999999921 ) ) ;
#119 = AXIS2_PLACEMENT_3D ( 'NONE', #75, #239, #209 ) ;
#120 = DIRECTION ( 'NONE',  ( -1.000000000000000000, 0.0000000000000000000, 1.356612038155888783E-16 ) ) ;
#121 = CARTESIAN_POINT ( 'NONE',  ( 1.157144267578351175E-17, 0.0000000000000000000, 0.09448800000000000254 ) ) ;
#122 = SPHERICAL_SURFACE ( 'NONE', #132, 0.03146450399999999731 ) ;
#123 = CLOSED_SHELL ( 'NONE', ( #313, #76, #82, #58, #8, #256, #45, #137, #309, #325, #274 ) ) ;
#124 = EDGE_CURVE ( 'NONE', #184, #133, #243, .T. ) ;
#125 = DIMENSIONAL_EXPONENTS ( 1.000000000000000000, 0.0000000000000000000, 0.0000000000000000000, 0.0000000000000000000, 0.0000000000000000000, 0.0000000000000000000, 0.0000000000000000000 ) ;
#126 = UNCERTAINTY_MEASURE_WITH_UNIT (LENGTH_MEASURE( 1.000000000000000082E-05 ), #41, 'distance_accuracy_value', 'NONE');
#127 = APPLICATION_PROTOCOL_DEFINITION ( 'draft international standard', 'automotive_design', 1998, #221 ) ;
#128 = STYLED_ITEM ( 'NONE', ( #40 ), #177 ) ;
#129 = SURFACE_SIDE_STYLE ('',( #103 ) ) ;
#130 = EDGE_CURVE ( 'NONE', #133, #201, #72, .T. ) ;
#131 = ORIENTED_EDGE ( 'NONE', *, *, #227, .T. ) ;
#132 = AXIS2_PLACEMENT_3D ( 'NONE', #28, #26, #269 ) ;
#133 = VERTEX_POINT ( 'NONE', #187 ) ;
#134 = ORIENTED_EDGE ( 'NONE', *, *, #241, .T. ) ;
#135 = EDGE_LOOP ( 'NONE', ( #36, #90, #153, #276 ) ) ;
#136 = CIRCLE ( 'NONE', #66, 0.03146450399999999731 ) ;
#137 = ADVANCED_FACE ( 'NONE', ( #42 ), #230, .T. ) ;
#138 = DIRECTION ( 'NONE',  ( 1.000000000000000000, 0.0000000000000000000, -0.0000000000000000000 ) ) ;
#139 = ORIENTED_EDGE ( 'NONE', *, *, #270, .T. ) ;
#140 = DIRECTION ( 'NONE',  ( 0.0000000000000000000, 0.0000000000000000000, -1.000000000000000000 ) ) ;
#141 =( NAMED_UNIT ( * ) SI_UNIT ( $, .STERADIAN. ) SOLID_ANGLE_UNIT ( ) );
#142 =( GEOMETRIC_REPRESENTATION_CONTEXT ( 3 ) GLOBAL_UNCERTAINTY_ASSIGNED_CONTEXT ( ( #199 ) ) GLOBAL_UNIT_ASSIGNED_CONTEXT ( ( #196, #303, #3 ) ) REPRESENTATION_CONTEXT ( 'NONE', 'WORKASPACE' ) );
#143 = DIRECTION ( 'NONE',  ( 0.7071067811865482389, 8.659560562354941486E-17, -0.7071067811865469066 ) ) ;
#144 = DIRECTION ( 'NONE',  ( 0.0000000000000000000, 1.000000000000000000, 0.0000000000000000000 ) ) ;
#145 = FACE_OUTER_BOUND ( 'NONE', #284, .T. ) ;
#146 = AXIS2_PLACEMENT_3D ( 'NONE', #322, #140, #206 ) ;
#147 = CARTESIAN_POINT ( 'NONE',  ( 0.04405499999999973326, 6.313666573004162521E-18, 1.496062999999999921 ) ) ;
#148 = DIMENSIONAL_EXPONENTS ( 1.000000000000000000, 0.0000000000000000000, 0.0000000000000000000, 0.0000000000000000000, 0.0000000000000000000, 0.0000000000000000000, 0.0000000000000000000 ) ;
#149 = ORIENTED_EDGE ( 'NONE', *, *, #157, .F. ) ;
#150 = VECTOR ( 'NONE', #97, 39.37007874015748143 ) ;
#151 = ORIENTED_EDGE ( 'NONE', *, *, #190, .F. ) ;
#152 = PRODUCT ( 'Micro_BMSM-016-2X', 'Micro_BMSM-016-2X', '', ( #275 ) ) ;
#153 = ORIENTED_EDGE ( 'NONE', *, *, #105, .T. ) ;
#154 = ORIENTED_EDGE ( 'NONE', *, *, #93, .T. ) ;
#155 = AXIS2_PLACEMENT_3D ( 'NONE', #73, #115, #258 ) ;
#156 = CIRCLE ( 'NONE', #183, 0.05905500000000000332 ) ;
#157 = EDGE_CURVE ( 'NONE', #13, #184, #98, .T. ) ;
#158 = LINE ( 'NONE', #21, #11 ) ;
#159 = CARTESIAN_POINT ( 'NONE',  ( -0.04405499999999973326, 0.0000000000000000000, 1.496062999999999921 ) ) ;
#160 = ORIENTED_EDGE ( 'NONE', *, *, #130, .T. ) ;
#161 = DIRECTION ( 'NONE',  ( 0.0000000000000000000, 0.0000000000000000000, -1.000000000000000000 ) ) ;
#162 = EDGE_CURVE ( 'NONE', #13, #201, #71, .T. ) ;
#163 = LINE ( 'NONE', #242, #5 ) ;
#164 = CARTESIAN_POINT ( 'NONE',  ( 1.157144267578351175E-17, 0.0000000000000000000, 0.09448800000000000254 ) ) ;
#165 = CIRCLE ( 'NONE', #180, 0.04405499999999973326 ) ;
#166 = DIRECTION ( 'NONE',  ( 0.0000000000000000000, 0.0000000000000000000, 1.000000000000000000 ) ) ;
#167 = DIRECTION ( 'NONE',  ( 0.0000000000000000000, 0.0000000000000000000, -1.000000000000000000 ) ) ;
#168 = EDGE_LOOP ( 'NONE', ( #151, #277, #160, #111 ) ) ;
#169 = DIRECTION ( 'NONE',  ( -1.000000000000000000, 0.0000000000000000000, 0.0000000000000000000 ) ) ;
#170 = STYLED_ITEM ( 'NONE', ( #217 ), #306 ) ;
#171 = CYLINDRICAL_SURFACE ( 'NONE', #200, 0.05905500000000000332 ) ;
#172 = EDGE_CURVE ( 'NONE', #225, #86, #54, .T. ) ;
#173 = AXIS2_PLACEMENT_3D ( 'NONE', #188, #292, #120 ) ;
#174 = DIRECTION ( 'NONE',  ( -1.224646799147353207E-16, -0.0000000000000000000, -1.000000000000000000 ) ) ;
#175 = ORIENTED_EDGE ( 'NONE', *, *, #105, .F. ) ;
#176 = ORIENTED_EDGE ( 'NONE', *, *, #212, .T. ) ;
#177 = MANIFOLD_SOLID_BREP ( 'Fillet1', #123 ) ;
#178 = PRODUCT_DEFINITION ( 'UNKNOWN', '', #222, #219 ) ;
#179 = ORIENTED_EDGE ( 'NONE', *, *, #203, .F. ) ;
#180 = AXIS2_PLACEMENT_3D ( 'NONE', #249, #214, #324 ) ;
#181 = ORIENTED_EDGE ( 'NONE', *, *, #215, .F. ) ;
#182 = VECTOR ( 'NONE', #20, 39.37007874015748143 ) ;
#183 = AXIS2_PLACEMENT_3D ( 'NONE', #23, #317, #44 ) ;
#184 = VERTEX_POINT ( 'NONE', #314 ) ;
#185 = DIRECTION ( 'NONE',  ( -1.224646799147353207E-16, -0.0000000000000000000, -1.000000000000000000 ) ) ;
#186 = DIRECTION ( 'NONE',  ( -1.000000000000000000, 0.0000000000000000000, 0.0000000000000000000 ) ) ;
#187 = CARTESIAN_POINT ( 'NONE',  ( -0.05905499999999996863, 0.0000000000000000000, 0.2509614783590343179 ) ) ;
#188 = CARTESIAN_POINT ( 'NONE',  ( 3.853290411035908808E-18, 0.0000000000000000000, 0.03146450399999999731 ) ) ;
#189 = CARTESIAN_POINT ( 'NONE',  ( 1.157144267578351175E-17, 0.0000000000000000000, 0.09448800000000000254 ) ) ;
#190 = EDGE_CURVE ( 'NONE', #184, #13, #136, .T. ) ;
#191 = DIRECTION ( 'NONE',  ( 1.224646799147353207E-16, 0.0000000000000000000, 1.000000000000000000 ) ) ;
#192 = AXIS2_PLACEMENT_3D ( 'NONE', #318, #286, #25 ) ;
#193 = MECHANICAL_DESIGN_GEOMETRIC_PRESENTATION_REPRESENTATION (  '', ( #170 ), #12 ) ;
#194 = DIRECTION ( 'NONE',  ( 1.000000000000000000, 0.0000000000000000000, 0.0000000000000000000 ) ) ;
#195 = CYLINDRICAL_SURFACE ( 'NONE', #282, 0.03146450399999999731 ) ;
#196 =( CONVERSION_BASED_UNIT ( 'INCH', #27 ) LENGTH_UNIT ( ) NAMED_UNIT ( #148 ) );
#197 = CONICAL_SURFACE ( 'NONE', #78, 0.04405499999999973326, 0.7853981633974491672 ) ;
#198 = CIRCLE ( 'NONE', #173, 0.03146450399999999731 ) ;
#199 = UNCERTAINTY_MEASURE_WITH_UNIT (LENGTH_MEASURE( 1.000000000000000082E-05 ), #196, 'distance_accuracy_value', 'NONE');
#200 = AXIS2_PLACEMENT_3D ( 'NONE', #79, #77, #169 ) ;
#201 = VERTEX_POINT ( 'NONE', #315 ) ;
#202 = LINE ( 'NONE', #238, #182 ) ;
#203 = EDGE_CURVE ( 'NONE', #13, #252, #163, .T. ) ;
#204 = ORIENTED_EDGE ( 'NONE', *, *, #112, .T. ) ;
#205 = DIRECTION ( 'NONE',  ( -1.000000000000000000, 0.0000000000000000000, 0.0000000000000000000 ) ) ;
#206 = DIRECTION ( 'NONE',  ( -1.000000000000000000, 0.0000000000000000000, 0.0000000000000000000 ) ) ;
#207 = DIRECTION ( 'NONE',  ( -0.7071067811865482389, 0.0000000000000000000, -0.7071067811865469066 ) ) ;
#208 = DIRECTION ( 'NONE',  ( -1.000000000000000000, 0.0000000000000000000, 0.0000000000000000000 ) ) ;
#209 = DIRECTION ( 'NONE',  ( -1.000000000000000000, 0.0000000000000000000, 1.356612038155888783E-16 ) ) ;
#210 = CARTESIAN_POINT ( 'NONE',  ( 0.0000000000000000000, 0.0000000000000000000, 0.0000000000000000000 ) ) ;
#211 = AXIS2_PLACEMENT_3D ( 'NONE', #235, #68, #161 ) ;
#212 = EDGE_CURVE ( 'NONE', #57, #290, #24, .T. ) ;
#213 = CARTESIAN_POINT ( 'NONE',  ( 0.03146450399999999731, 3.853290411035908808E-18, 0.03146450399999999037 ) ) ;
#214 = DIRECTION ( 'NONE',  ( 0.0000000000000000000, 0.0000000000000000000, 1.000000000000000000 ) ) ;
#215 = EDGE_CURVE ( 'NONE', #231, #252, #15, .T. ) ;
#216 = FILL_AREA_STYLE_COLOUR ( '', #268 ) ;
#217 = PRESENTATION_STYLE_ASSIGNMENT (( #301 ) ) ;
#218 = EDGE_LOOP ( 'NONE', ( #89, #320, #134, #279 ) ) ;
#219 = PRODUCT_DEFINITION_CONTEXT ( 'detailed design', #302, 'design' ) ;
#220 = CONICAL_SURFACE ( 'NONE', #297, 0.03146450399999999731, 0.1745329251994338637 ) ;
#221 = APPLICATION_CONTEXT ( 'automotive_design' ) ;
#222 = PRODUCT_DEFINITION_FORMATION_WITH_SPECIFIED_SOURCE ( 'ANY', '', #152, .NOT_KNOWN. ) ;
#223 = EDGE_LOOP ( 'NONE', ( #63, #154, #311 ) ) ;
#224 = APPLICATION_PROTOCOL_DEFINITION ( 'draft international standard', 'automotive_design', 1998, #302 ) ;
#225 = VERTEX_POINT ( 'NONE', #259 ) ;
#226 = EDGE_LOOP ( 'NONE', ( #131, #108, #308, #175 ) ) ;
#227 = EDGE_CURVE ( 'NONE', #86, #225, #156, .T. ) ;
#228 = FACE_OUTER_BOUND ( 'NONE', #168, .T. ) ;
#229 = SHAPE_DEFINITION_REPRESENTATION ( #31, #306 ) ;
#230 = CONICAL_SURFACE ( 'NONE', #146, 0.04405499999999973326, 0.7853981633974491672 ) ;
#231 = VERTEX_POINT ( 'NONE', #96 ) ;
#232 =( LENGTH_UNIT ( ) NAMED_UNIT ( * ) SI_UNIT ( $, .METRE. ) );
#233 = ORIENTED_EDGE ( 'NONE', *, *, #299, .F. ) ;
#234 = FACE_OUTER_BOUND ( 'NONE', #106, .T. ) ;
#235 = CARTESIAN_POINT ( 'NONE',  ( 3.853290411035908808E-18, 0.0000000000000000000, 0.03146450399999999731 ) ) ;
#236 = PRESENTATION_LAYER_ASSIGNMENT (  '', '', ( #128 ) ) ;
#237 = CARTESIAN_POINT ( 'NONE',  ( 0.03146450400000001119, 0.0000000000000000000, 0.09448800000000000254 ) ) ;
#238 = CARTESIAN_POINT ( 'NONE',  ( 0.05905500000000000332, 7.232151672364695422E-18, 1.496062999999999921 ) ) ;
#239 = DIRECTION ( 'NONE',  ( 1.224646799147353207E-16, 0.0000000000000000000, 1.000000000000000000 ) ) ;
#240 = LINE ( 'NONE', #118, #150 ) ;
#241 = EDGE_CURVE ( 'NONE', #252, #231, #198, .T. ) ;
#242 = CARTESIAN_POINT ( 'NONE',  ( 0.03146450399999999731, 3.853290411035908808E-18, -3.853290411035908808E-18 ) ) ;
#243 = LINE ( 'NONE', #257, #85 ) ;
#244 = VECTOR ( 'NONE', #143, 39.37007874015748143 ) ;
#245 = CARTESIAN_POINT ( 'NONE',  ( 3.853290411035908808E-18, 0.0000000000000000000, 0.03146450399999999731 ) ) ;
#246 = FACE_OUTER_BOUND ( 'NONE', #305, .T. ) ;
#247 =( LENGTH_UNIT ( ) NAMED_UNIT ( * ) SI_UNIT ( $, .METRE. ) );
#248 = AXIS2_PLACEMENT_3D ( 'NONE', #164, #95, #186 ) ;
#249 = CARTESIAN_POINT ( 'NONE',  ( 0.0000000000000000000, 0.0000000000000000000, 1.496062999999999921 ) ) ;
#250 = ORIENTED_EDGE ( 'NONE', *, *, #172, .F. ) ;
#251 =( GEOMETRIC_REPRESENTATION_CONTEXT ( 3 ) GLOBAL_UNCERTAINTY_ASSIGNED_CONTEXT ( ( #126 ) ) GLOBAL_UNIT_ASSIGNED_CONTEXT ( ( #41, #19, #141 ) ) REPRESENTATION_CONTEXT ( 'NONE', 'WORKASPACE' ) );
#252 = VERTEX_POINT ( 'NONE', #213 ) ;
#253 = ORIENTED_EDGE ( 'NONE', *, *, #124, .F. ) ;
#254 = VECTOR ( 'NONE', #291, 39.37007874015748143 ) ;
#255 = VERTEX_POINT ( 'NONE', #323 ) ;
#256 = ADVANCED_FACE ( 'NONE', ( #101 ), #171, .T. ) ;
#257 = CARTESIAN_POINT ( 'NONE',  ( -0.03146450399999998343, 3.853290411035908808E-18, 0.09448800000000000254 ) ) ;
#258 = DIRECTION ( 'NONE',  ( -1.000000000000000000, 0.0000000000000000000, 0.0000000000000000000 ) ) ;
#259 = CARTESIAN_POINT ( 'NONE',  ( 0.05905500000000000332, 7.232151672364695422E-18, 1.481062999999999574 ) ) ;
#260 = CARTESIAN_POINT ( 'NONE',  ( 0.03146450400000001119, 0.0000000000000000000, 0.09448800000000000254 ) ) ;
#261 = ORIENTED_EDGE ( 'NONE', *, *, #157, .T. ) ;
#262 = DIRECTION ( 'NONE',  ( 1.000000000000000000, 0.0000000000000000000, 0.0000000000000000000 ) ) ;
#263 = FACE_OUTER_BOUND ( 'NONE', #218, .T. ) ;
#264 = ORIENTED_EDGE ( 'NONE', *, *, #316, .T. ) ;
#265 = CARTESIAN_POINT ( 'NONE',  ( 0.0000000000000000000, 0.0000000000000000000, 1.496062999999999921 ) ) ;
#266 = SPHERICAL_SURFACE ( 'NONE', #310, 0.03146450399999999731 ) ;
#267 = CARTESIAN_POINT ( 'NONE',  ( -0.05905500000000000332, 0.0000000000000000000, 1.481062999999999574 ) ) ;
#268 = COLOUR_RGB ( '',0.7921568627450980005, 0.8196078431372548767, 0.9333333333333333481 ) ;
#269 = DIRECTION ( 'NONE',  ( 1.000000000000000000, 0.0000000000000000000, 0.0000000000000000000 ) ) ;
#270 = EDGE_CURVE ( 'NONE', #290, #57, #165, .T. ) ;
#271 = CARTESIAN_POINT ( 'NONE',  ( 1.157144267578351175E-17, 0.0000000000000000000, 0.09448800000000000254 ) ) ;
#272 = DIRECTION ( 'NONE',  ( 1.000000000000000000, 0.0000000000000000000, 0.0000000000000000000 ) ) ;
#273 = FILL_AREA_STYLE ('',( #56 ) ) ;
#274 = ADVANCED_FACE ( 'NONE', ( #50 ), #266, .T. ) ;
#275 = PRODUCT_CONTEXT ( 'NONE', #221, 'mechanical' ) ;
#276 = ORIENTED_EDGE ( 'NONE', *, *, #316, .F. ) ;
#277 = ORIENTED_EDGE ( 'NONE', *, *, #124, .T. ) ;
#278 = AXIS2_PLACEMENT_3D ( 'NONE', #9, #281, #62 ) ;
#279 = ORIENTED_EDGE ( 'NONE', *, *, #51, .F. ) ;
#280 = ORIENTED_EDGE ( 'NONE', *, *, #162, .T. ) ;
#281 = DIRECTION ( 'NONE',  ( 0.0000000000000000000, 0.0000000000000000000, 1.000000000000000000 ) ) ;
#282 = AXIS2_PLACEMENT_3D ( 'NONE', #55, #52, #48 ) ;
#283 = LENGTH_MEASURE_WITH_UNIT ( LENGTH_MEASURE( 0.02539999999999999897 ), #94 );
#284 = EDGE_LOOP ( 'NONE', ( #253, #149, #280, #264 ) ) ;
#285 = DIRECTION ( 'NONE',  ( 0.0000000000000000000, 0.0000000000000000000, 1.000000000000000000 ) ) ;
#286 = DIRECTION ( 'NONE',  ( 1.224646799147353207E-16, 1.000000000000000000, -0.0000000000000000000 ) ) ;
#287 = DIRECTION ( 'NONE',  ( -1.224646799147353207E-16, -0.0000000000000000000, -1.000000000000000000 ) ) ;
#288 = DIRECTION ( 'NONE',  ( 1.224646799147353207E-16, 0.0000000000000000000, 1.000000000000000000 ) ) ;
#289 = CARTESIAN_POINT ( 'NONE',  ( 0.0000000000000000000, 0.0000000000000000000, 1.496062999999999921 ) ) ;
#290 = VERTEX_POINT ( 'NONE', #147 ) ;
#291 = DIRECTION ( 'NONE',  ( 0.1736481776669313581, 0.0000000000000000000, 0.9848077530122077983 ) ) ;
#292 = DIRECTION ( 'NONE',  ( 1.224646799147353207E-16, 0.0000000000000000000, 1.000000000000000000 ) ) ;
#293 = DIRECTION ( 'NONE',  ( -0.1736481776669311639, 2.126576849575783008E-17, 0.9848077530122080203 ) ) ;
#294 = FACE_OUTER_BOUND ( 'NONE', #10, .T. ) ;
#295 = DIRECTION ( 'NONE',  ( 1.000000000000000000, 0.0000000000000000000, 0.0000000000000000000 ) ) ;
#296 = FACE_OUTER_BOUND ( 'NONE', #223, .T. ) ;
#297 = AXIS2_PLACEMENT_3D ( 'NONE', #121, #288, #47 ) ;
#298 = CIRCLE ( 'NONE', #211, 0.03146450399999999731 ) ;
#299 = EDGE_CURVE ( 'NONE', #290, #225, #46, .T. ) ;
#300 = PLANE ( 'NONE',  #113 ) ;
#301 = SURFACE_STYLE_USAGE ( .BOTH. , #129 ) ;
#302 = APPLICATION_CONTEXT ( 'automotive_design' ) ;
#303 =( NAMED_UNIT ( * ) PLANE_ANGLE_UNIT ( ) SI_UNIT ( $, .RADIAN. ) );
#304 = AXIS2_PLACEMENT_3D ( 'NONE', #265, #285, #70 ) ;
#305 = EDGE_LOOP ( 'NONE', ( #179, #261, #307, #87 ) ) ;
#306 = ADVANCED_BREP_SHAPE_REPRESENTATION ( 'Micro_BMSM-016-2X', ( #177, #278 ), #142 ) ;
#307 = ORIENTED_EDGE ( 'NONE', *, *, #51, .T. ) ;
#308 = ORIENTED_EDGE ( 'NONE', *, *, #130, .F. ) ;
#309 = ADVANCED_FACE ( 'NONE', ( #145 ), #110, .T. ) ;
#310 = AXIS2_PLACEMENT_3D ( 'NONE', #245, #144, #194 ) ;
#311 = ORIENTED_EDGE ( 'NONE', *, *, #241, .F. ) ;
#312 = DIRECTION ( 'NONE',  ( 1.000000000000000000, 0.0000000000000000000, 0.0000000000000000000 ) ) ;
#313 = ADVANCED_FACE ( 'NONE', ( #296 ), #122, .T. ) ;
#314 = CARTESIAN_POINT ( 'NONE',  ( -0.03146450399999998343, 5.542721041700301730E-18, 0.09448800000000000254 ) ) ;
#315 = CARTESIAN_POINT ( 'NONE',  ( 0.05905500000000004496, 7.232151672364700045E-18, 0.2509614783590343179 ) ) ;
#316 = EDGE_CURVE ( 'NONE', #201, #133, #114, .T. ) ;
#317 = DIRECTION ( 'NONE',  ( 0.0000000000000000000, 0.0000000000000000000, -1.000000000000000000 ) ) ;
#318 = CARTESIAN_POINT ( 'NONE',  ( 3.853290411035908808E-18, 0.0000000000000000000, 0.03146450399999999731 ) ) ;
#319 = CARTESIAN_POINT ( 'NONE',  ( 0.0000000000000000000, 0.0000000000000000000, 1.496062999999999921 ) ) ;
#320 = ORIENTED_EDGE ( 'NONE', *, *, #203, .T. ) ;
#321 = COLOUR_RGB ( '',0.7921568627450980005, 0.8196078431372548767, 0.9333333333333333481 ) ;
#322 = CARTESIAN_POINT ( 'NONE',  ( 0.0000000000000000000, 0.0000000000000000000, 1.496062999999999921 ) ) ;
#323 = CARTESIAN_POINT ( 'NONE',  ( 5.779935616553862056E-18, 0.0000000000000000000, 0.0000000000000000000 ) ) ;
#324 = DIRECTION ( 'NONE',  ( 1.000000000000000000, 0.0000000000000000000, 0.0000000000000000000 ) ) ;
#325 = ADVANCED_FACE ( 'NONE', ( #246 ), #195, .T. ) ;
ENDSEC;
END-ISO-10303-21;
