ISO-10303-21;
HEADER;
FILE_DESCRIPTION (( 'STEP AP214' ),
    '1' );
FILE_NAME ('81552.STEP',
    '2023-06-23T01:41:58',
    ( '' ),
    ( '' ),
    'SwSTEP 2.0',
    'SolidWorks 2023',
    '' );
FILE_SCHEMA (( 'AUTOMOTIVE_DESIGN' ));
ENDSEC;

DATA;
#1 = DIRECTION ( 'NONE',  ( 0.000000000000000000, 0.000000000000000000, -1.000000000000000000 ) ) ;
#2 = ADVANCED_FACE ( 'NONE', ( #114 ), #115, .T. ) ;
#3 = CIRCLE ( 'NONE', #61, 0.06249999999999970857 ) ;
#4 =( CONVERSION_BASED_UNIT ( 'INCH', #279 ) LENGTH_UNIT ( ) NAMED_UNIT ( #98 ) );
#5 = LENGTH_MEASURE_WITH_UNIT ( LENGTH_MEASURE( 0.02539999999999999897 ), #58 );
#6 = PRODUCT_DEFINITION_CONTEXT ( 'detailed design', #252, 'design' ) ;
#7 = CARTESIAN_POINT ( 'NONE',  ( 7.654042494670959086E-18, 0.6250000000000000000, 0.06250000000000001388 ) ) ;
#8 = SURFACE_SIDE_STYLE ('',( #180 ) ) ;
#9 = ADVANCED_FACE ( 'NONE', ( #181 ), #130, .F. ) ;
#10 =( CONVERSION_BASED_UNIT ( 'INCH', #135 ) LENGTH_UNIT ( ) NAMED_UNIT ( #124 ) );
#11 = ORIENTED_EDGE ( 'NONE', *, *, #76, .F. ) ;
#12 =( LENGTH_UNIT ( ) NAMED_UNIT ( * ) SI_UNIT ( $, .METRE. ) );
#13 = ORIENTED_EDGE ( 'NONE', *, *, #145, .F. ) ;
#14 =( GEOMETRIC_REPRESENTATION_CONTEXT ( 3 ) GLOBAL_UNCERTAINTY_ASSIGNED_CONTEXT ( ( #68 ) ) GLOBAL_UNIT_ASSIGNED_CONTEXT ( ( #4, #65, #139 ) ) REPRESENTATION_CONTEXT ( 'NONE', 'WORKASPACE' ) );
#15 = DIRECTION ( 'NONE',  ( 1.632862398863137527E-16, 1.000000000000000000, -0.000000000000000000 ) ) ;
#16 = EDGE_LOOP ( 'NONE', ( #75, #126, #227, #11 ) ) ;
#17 = AXIS2_PLACEMENT_3D ( 'NONE', #72, #83, #304 ) ;
#18 = AXIS2_PLACEMENT_3D ( 'NONE', #131, #50, #147 ) ;
#19 = EDGE_CURVE ( 'NONE', #119, #175, #177, .T. ) ;
#20 = CLOSED_SHELL ( 'NONE', ( #236, #9, #289, #230 ) ) ;
#21 = MECHANICAL_DESIGN_GEOMETRIC_PRESENTATION_REPRESENTATION (  '', ( #47 ), #14 ) ;
#22 = DIRECTION ( 'NONE',  ( 1.632862398863137527E-16, 1.000000000000000000, -0.000000000000000000 ) ) ;
#23 = SURFACE_STYLE_FILL_AREA ( #51 ) ;
#24 =( NAMED_UNIT ( * ) PLANE_ANGLE_UNIT ( ) SI_UNIT ( $, .RADIAN. ) );
#25 = VECTOR ( 'NONE', #243, 39.37007874015748143 ) ;
#26 = AXIS2_PLACEMENT_3D ( 'NONE', #56, #261, #307 ) ;
#27 = AXIS2_PLACEMENT_3D ( 'NONE', #153, #244, #200 ) ;
#28 = CARTESIAN_POINT ( 'NONE',  ( 7.654042494670959086E-18, 0.000000000000000000, 0.06250000000000001388 ) ) ;
#29 = ORIENTED_EDGE ( 'NONE', *, *, #258, .F. ) ;
#30 = SURFACE_SIDE_STYLE ('',( #23 ) ) ;
#31 = EDGE_CURVE ( 'NONE', #175, #119, #3, .T. ) ;
#32 = FACE_OUTER_BOUND ( 'NONE', #16, .T. ) ;
#33 = FACE_OUTER_BOUND ( 'NONE', #186, .T. ) ;
#34 = ORIENTED_EDGE ( 'NONE', *, *, #208, .F. ) ;
#35 = CIRCLE ( 'NONE', #189, 0.06250000000000001388 ) ;
#36 = DIRECTION ( 'NONE',  ( 0.000000000000000000, 0.000000000000000000, -1.000000000000000000 ) ) ;
#37 = PRESENTATION_STYLE_ASSIGNMENT (( #246 ) ) ;
#38 = MECHANICAL_DESIGN_GEOMETRIC_PRESENTATION_REPRESENTATION (  '', ( #210 ), #195 ) ;
#39 = DIRECTION ( 'NONE',  ( -1.000000000000000000, 0.000000000000000000, 0.000000000000000000 ) ) ;
#40 = EDGE_LOOP ( 'NONE', ( #55, #267 ) ) ;
#41 = DIRECTION ( 'NONE',  ( -1.000000000000000000, 0.000000000000000000, 0.000000000000000000 ) ) ;
#42 = CIRCLE ( 'NONE', #277, 0.06250000000000001388 ) ;
#43 = MANIFOLD_SOLID_BREP ( 'Revolve - Tool Body (Straight Shanked)', #20 ) ;
#44 = PRODUCT_RELATED_PRODUCT_CATEGORY ( 'part', '', ( #241 ) ) ;
#45 = CARTESIAN_POINT ( 'NONE',  ( 0.000000000000000000, 0.000000000000000000, 0.000000000000000000 ) ) ;
#46 = PRESENTATION_LAYER_ASSIGNMENT (  '', '', ( #111 ) ) ;
#47 = STYLED_ITEM ( 'NONE', ( #66 ), #203 ) ;
#48 = FILL_AREA_STYLE_COLOUR ( '', #52 ) ;
#49 = SURFACE_SIDE_STYLE ('',( #215 ) ) ;
#50 = DIRECTION ( 'NONE',  ( 1.632862398863137527E-16, 1.000000000000000000, -0.000000000000000000 ) ) ;
#51 = FILL_AREA_STYLE ('',( #48 ) ) ;
#52 = COLOUR_RGB ( '',0.7921568627450980005, 0.8196078431372548767, 0.9333333333333333481 ) ;
#53 = EDGE_CURVE ( 'NONE', #265, #228, #233, .T. ) ;
#54 =( NAMED_UNIT ( * ) PLANE_ANGLE_UNIT ( ) SI_UNIT ( $, .RADIAN. ) );
#55 = ORIENTED_EDGE ( 'NONE', *, *, #133, .F. ) ;
#56 = CARTESIAN_POINT ( 'NONE',  ( 3.061616997868383141E-16, 2.500000000000000000, 0.000000000000000000 ) ) ;
#57 = FACE_OUTER_BOUND ( 'NONE', #134, .T. ) ;
#58 =( LENGTH_UNIT ( ) NAMED_UNIT ( * ) SI_UNIT ( $, .METRE. ) );
#59 = VECTOR ( 'NONE', #248, 39.37007874015748143 ) ;
#60 = LINE ( 'NONE', #106, #62 ) ;
#61 = AXIS2_PLACEMENT_3D ( 'NONE', #160, #162, #41 ) ;
#62 = VECTOR ( 'NONE', #74, 39.37007874015748143 ) ;
#63 = ORIENTED_EDGE ( 'NONE', *, *, #145, .T. ) ;
#64 = PRODUCT_DEFINITION ( 'UNKNOWN', '', #250, #6 ) ;
#65 =( NAMED_UNIT ( * ) PLANE_ANGLE_UNIT ( ) SI_UNIT ( $, .RADIAN. ) );
#66 = PRESENTATION_STYLE_ASSIGNMENT (( #90 ) ) ;
#67 = DIMENSIONAL_EXPONENTS ( 1.000000000000000000, 0.000000000000000000, 0.000000000000000000, 0.000000000000000000, 0.000000000000000000, 0.000000000000000000, 0.000000000000000000 ) ;
#68 = UNCERTAINTY_MEASURE_WITH_UNIT (LENGTH_MEASURE( 1.000000000000000082E-05 ), #4, 'distance_accuracy_value', 'NONE');
#69 = SURFACE_STYLE_FILL_AREA ( #209 ) ;
#70 = STYLED_ITEM ( 'NONE', ( #158 ), #159 ) ;
#71 = LINE ( 'NONE', #192, #255 ) ;
#72 = CARTESIAN_POINT ( 'NONE',  ( 8.331998792565876739E-34, 0.6250000000000000000, 0.000000000000000000 ) ) ;
#73 = FILL_AREA_STYLE_COLOUR ( '', #296 ) ;
#74 = DIRECTION ( 'NONE',  ( 1.632862398863137527E-16, 1.000000000000000000, -0.000000000000000000 ) ) ;
#75 = ORIENTED_EDGE ( 'NONE', *, *, #185, .F. ) ;
#76 = EDGE_CURVE ( 'NONE', #305, #245, #284, .T. ) ;
#77 =( NAMED_UNIT ( * ) SI_UNIT ( $, .STERADIAN. ) SOLID_ANGLE_UNIT ( ) );
#78 = PRESENTATION_LAYER_ASSIGNMENT (  '', '', ( #70 ) ) ;
#79 = LINE ( 'NONE', #110, #25 ) ;
#80 = DIRECTION ( 'NONE',  ( 0.000000000000000000, -1.000000000000000000, -0.000000000000000000 ) ) ;
#81 = CARTESIAN_POINT ( 'NONE',  ( 0.000000000000000000, 0.6250000000000000000, -0.06250000000000001388 ) ) ;
#82 = FILL_AREA_STYLE_COLOUR ( '', #254 ) ;
#83 = DIRECTION ( 'NONE',  ( 1.632862398863137527E-16, 1.000000000000000000, -0.000000000000000000 ) ) ;
#84 = SURFACE_STYLE_USAGE ( .BOTH. , #202 ) ;
#85 =( GEOMETRIC_REPRESENTATION_CONTEXT ( 3 ) GLOBAL_UNCERTAINTY_ASSIGNED_CONTEXT ( ( #196 ) ) GLOBAL_UNIT_ASSIGNED_CONTEXT ( ( #212, #24, #138 ) ) REPRESENTATION_CONTEXT ( 'NONE', 'WORKASPACE' ) );
#86 = ORIENTED_EDGE ( 'NONE', *, *, #165, .T. ) ;
#87 = AXIS2_PLACEMENT_3D ( 'NONE', #294, #240, #223 ) ;
#88 = LENGTH_MEASURE_WITH_UNIT ( LENGTH_MEASURE( 0.02539999999999999897 ), #12 );
#89 = AXIS2_PLACEMENT_3D ( 'NONE', #298, #80, #36 ) ;
#90 = SURFACE_STYLE_USAGE ( .BOTH. , #49 ) ;
#91 = DIMENSIONAL_EXPONENTS ( 1.000000000000000000, 0.000000000000000000, 0.000000000000000000, 0.000000000000000000, 0.000000000000000000, 0.000000000000000000, 0.000000000000000000 ) ;
#92 = CARTESIAN_POINT ( 'NONE',  ( -0.06250000000000001388, 0.6250000000000000000, 0.000000000000000000 ) ) ;
#93 = SURFACE_SIDE_STYLE ('',( #69 ) ) ;
#94 = MECHANICAL_DESIGN_GEOMETRIC_PRESENTATION_REPRESENTATION (  '', ( #142 ), #85 ) ;
#95 = PRESENTATION_STYLE_ASSIGNMENT (( #99 ) ) ;
#96 = DIRECTION ( 'NONE',  ( -0.000000000000000000, -1.000000000000000000, -0.000000000000000000 ) ) ;
#97 = PRESENTATION_STYLE_ASSIGNMENT (( #300 ) ) ;
#98 = DIMENSIONAL_EXPONENTS ( 1.000000000000000000, 0.000000000000000000, 0.000000000000000000, 0.000000000000000000, 0.000000000000000000, 0.000000000000000000, 0.000000000000000000 ) ;
#99 = SURFACE_STYLE_USAGE ( .BOTH. , #197 ) ;
#100 = DIRECTION ( 'NONE',  ( -1.632862398863137527E-16, -1.000000000000000000, 0.000000000000000000 ) ) ;
#101 = ORIENTED_EDGE ( 'NONE', *, *, #19, .F. ) ;
#102 =( NAMED_UNIT ( * ) PLANE_ANGLE_UNIT ( ) SI_UNIT ( $, .RADIAN. ) );
#103 = STYLED_ITEM ( 'NONE', ( #95 ), #2 ) ;
#104 =( NAMED_UNIT ( * ) SI_UNIT ( $, .STERADIAN. ) SOLID_ANGLE_UNIT ( ) );
#105 = ORIENTED_EDGE ( 'NONE', *, *, #53, .F. ) ;
#106 = CARTESIAN_POINT ( 'NONE',  ( 0.06250000000000016653, 2.500000000000000000, 7.654042494670940597E-18 ) ) ;
#107 = ORIENTED_EDGE ( 'NONE', *, *, #31, .F. ) ;
#108 = LENGTH_MEASURE_WITH_UNIT ( LENGTH_MEASURE( 0.02539999999999999897 ), #132 );
#109 = DIMENSIONAL_EXPONENTS ( 1.000000000000000000, 0.000000000000000000, 0.000000000000000000, 0.000000000000000000, 0.000000000000000000, 0.000000000000000000, 0.000000000000000000 ) ;
#110 = CARTESIAN_POINT ( 'NONE',  ( -0.06249999999999955591, 2.500000000000000000, 0.000000000000000000 ) ) ;
#111 = STYLED_ITEM ( 'NONE', ( #143 ), #43 ) ;
#112 = ORIENTED_EDGE ( 'NONE', *, *, #19, .T. ) ;
#113 = FILL_AREA_STYLE_COLOUR ( '', #140 ) ;
#114 = FACE_OUTER_BOUND ( 'NONE', #275, .T. ) ;
#115 = PLANE ( 'NONE',  #89 ) ;
#116 = DIRECTION ( 'NONE',  ( -0.000000000000000000, -1.000000000000000000, -0.000000000000000000 ) ) ;
#117 = CYLINDRICAL_SURFACE ( 'NONE', #190, 0.06250000000000001388 ) ;
#118 = CARTESIAN_POINT ( 'NONE',  ( 0.000000000000000000, 0.000000000000000000, 0.000000000000000000 ) ) ;
#119 = VERTEX_POINT ( 'NONE', #282 ) ;
#120 = AXIS2_PLACEMENT_3D ( 'NONE', #45, #193, #194 ) ;
#121 = COLOUR_RGB ( '',1.000000000000000000, 0.000000000000000000, 0.000000000000000000 ) ;
#122 = PLANE ( 'NONE',  #232 ) ;
#123 = ORIENTED_EDGE ( 'NONE', *, *, #133, .T. ) ;
#124 = DIMENSIONAL_EXPONENTS ( 1.000000000000000000, 0.000000000000000000, 0.000000000000000000, 0.000000000000000000, 0.000000000000000000, 0.000000000000000000, 0.000000000000000000 ) ;
#125 = APPLICATION_PROTOCOL_DEFINITION ( 'draft international standard', 'automotive_design', 1998, #286 ) ;
#126 = ORIENTED_EDGE ( 'NONE', *, *, #53, .T. ) ;
#127 = CYLINDRICAL_SURFACE ( 'NONE', #285, 0.06250000000000001388 ) ;
#128 = CARTESIAN_POINT ( 'NONE',  ( 0.000000000000000000, 0.000000000000000000, -0.06250000000000001388 ) ) ;
#129 = ORIENTED_EDGE ( 'NONE', *, *, #303, .T. ) ;
#130 = PLANE ( 'NONE',  #17 ) ;
#131 = CARTESIAN_POINT ( 'NONE',  ( 3.061616997868383141E-16, 2.500000000000000000, 0.000000000000000000 ) ) ;
#132 =( LENGTH_UNIT ( ) NAMED_UNIT ( * ) SI_UNIT ( $, .METRE. ) );
#133 = EDGE_CURVE ( 'NONE', #204, #225, #148, .T. ) ;
#134 = EDGE_LOOP ( 'NONE', ( #112, #156 ) ) ;
#135 = LENGTH_MEASURE_WITH_UNIT ( LENGTH_MEASURE( 0.02539999999999999897 ), #270 );
#136 = CARTESIAN_POINT ( 'NONE',  ( 0.000000000000000000, 0.6250000000000000000, 0.000000000000000000 ) ) ;
#137 = PRESENTATION_LAYER_ASSIGNMENT (  '', '', ( #210 ) ) ;
#138 =( NAMED_UNIT ( * ) SI_UNIT ( $, .STERADIAN. ) SOLID_ANGLE_UNIT ( ) );
#139 =( NAMED_UNIT ( * ) SI_UNIT ( $, .STERADIAN. ) SOLID_ANGLE_UNIT ( ) );
#140 = COLOUR_RGB ( '',0.7921568627450980005, 0.8196078431372548767, 0.9333333333333333481 ) ;
#141 = CARTESIAN_POINT ( 'NONE',  ( 0.000000000000000000, 0.000000000000000000, 0.000000000000000000 ) ) ;
#142 = STYLED_ITEM ( 'NONE', ( #37 ), #178 ) ;
#143 = PRESENTATION_STYLE_ASSIGNMENT (( #257 ) ) ;
#144 =( LENGTH_UNIT ( ) NAMED_UNIT ( * ) SI_UNIT ( $, .METRE. ) );
#145 = EDGE_CURVE ( 'NONE', #245, #305, #35, .T. ) ;
#146 =( LENGTH_UNIT ( ) NAMED_UNIT ( * ) SI_UNIT ( $, .METRE. ) );
#147 = DIRECTION ( 'NONE',  ( -1.000000000000000000, 0.000000000000000000, 0.000000000000000000 ) ) ;
#148 = CIRCLE ( 'NONE', #167, 0.06250000000000001388 ) ;
#149 = FACE_OUTER_BOUND ( 'NONE', #221, .T. ) ;
#150 = ORIENTED_EDGE ( 'NONE', *, *, #165, .F. ) ;
#151 = FILL_AREA_STYLE ('',( #82 ) ) ;
#152 = MANIFOLD_SOLID_BREP ( 'Revolve - Cutting Edge', #188 ) ;
#153 = CARTESIAN_POINT ( 'NONE',  ( 0.000000000000000000, 0.000000000000000000, 0.000000000000000000 ) ) ;
#154 = DIRECTION ( 'NONE',  ( 0.000000000000000000, -0.000000000000000000, 1.000000000000000000 ) ) ;
#155 = CARTESIAN_POINT ( 'NONE',  ( 3.061616997868383141E-16, 2.500000000000000000, 0.000000000000000000 ) ) ;
#156 = ORIENTED_EDGE ( 'NONE', *, *, #31, .T. ) ;
#157 = CARTESIAN_POINT ( 'NONE',  ( 0.06250000000000001388, 2.500000000000000000, 0.000000000000000000 ) ) ;
#158 = PRESENTATION_STYLE_ASSIGNMENT (( #84 ) ) ;
#159 = ADVANCED_FACE ( 'NONE', ( #302 ), #218, .T. ) ;
#160 = CARTESIAN_POINT ( 'NONE',  ( 3.061616997868383141E-16, 2.500000000000000000, 0.000000000000000000 ) ) ;
#161 = ORIENTED_EDGE ( 'NONE', *, *, #258, .T. ) ;
#162 = DIRECTION ( 'NONE',  ( 1.632862398863137527E-16, 1.000000000000000000, -0.000000000000000000 ) ) ;
#163 = PRESENTATION_LAYER_ASSIGNMENT (  '', '', ( #47 ) ) ;
#164 = CARTESIAN_POINT ( 'NONE',  ( 0.000000000000000000, 0.000000000000000000, 0.000000000000000000 ) ) ;
#165 = EDGE_CURVE ( 'NONE', #204, #119, #79, .T. ) ;
#166 = DIRECTION ( 'NONE',  ( -0.000000000000000000, -1.000000000000000000, -0.000000000000000000 ) ) ;
#167 = AXIS2_PLACEMENT_3D ( 'NONE', #238, #22, #260 ) ;
#168 =( GEOMETRIC_REPRESENTATION_CONTEXT ( 3 ) GLOBAL_UNCERTAINTY_ASSIGNED_CONTEXT ( ( #213 ) ) GLOBAL_UNIT_ASSIGNED_CONTEXT ( ( #276, #102, #77 ) ) REPRESENTATION_CONTEXT ( 'NONE', 'WORKASPACE' ) );
#169 = FILL_AREA_STYLE_COLOUR ( '', #121 ) ;
#170 =( CONVERSION_BASED_UNIT ( 'INCH', #219 ) LENGTH_UNIT ( ) NAMED_UNIT ( #283 ) );
#171 = DIRECTION ( 'NONE',  ( 0.000000000000000000, 0.000000000000000000, -1.000000000000000000 ) ) ;
#172 = ORIENTED_EDGE ( 'NONE', *, *, #295, .F. ) ;
#173 = DIRECTION ( 'NONE',  ( -0.000000000000000000, -1.000000000000000000, -0.000000000000000000 ) ) ;
#174 =( LENGTH_UNIT ( ) NAMED_UNIT ( * ) SI_UNIT ( $, .METRE. ) );
#175 = VERTEX_POINT ( 'NONE', #251 ) ;
#176 = SURFACE_STYLE_FILL_AREA ( #151 ) ;
#177 = CIRCLE ( 'NONE', #26, 0.06249999999999970857 ) ;
#178 = ADVANCED_FACE ( 'NONE', ( #32 ), #127, .T. ) ;
#179 = LINE ( 'NONE', #231, #59 ) ;
#180 = SURFACE_STYLE_FILL_AREA ( #249 ) ;
#181 = FACE_OUTER_BOUND ( 'NONE', #40, .T. ) ;
#182 = PRODUCT_CONTEXT ( 'NONE', #286, 'mechanical' ) ;
#183 = PRODUCT_DEFINITION_SHAPE ( 'NONE', 'NONE',  #64 ) ;
#184 =( CONVERSION_BASED_UNIT ( 'INCH', #108 ) LENGTH_UNIT ( ) NAMED_UNIT ( #67 ) );
#185 = EDGE_CURVE ( 'NONE', #265, #305, #71, .T. ) ;
#186 = EDGE_LOOP ( 'NONE', ( #123, #161, #101, #150 ) ) ;
#187 = ORIENTED_EDGE ( 'NONE', *, *, #76, .T. ) ;
#188 = CLOSED_SHELL ( 'NONE', ( #203, #159, #178, #2 ) ) ;
#189 = AXIS2_PLACEMENT_3D ( 'NONE', #118, #173, #266 ) ;
#190 = AXIS2_PLACEMENT_3D ( 'NONE', #164, #217, #1 ) ;
#191 = FACE_OUTER_BOUND ( 'NONE', #207, .T. ) ;
#192 = CARTESIAN_POINT ( 'NONE',  ( 7.654042494670959086E-18, 0.000000000000000000, 0.06250000000000001388 ) ) ;
#193 = DIRECTION ( 'NONE',  ( -0.000000000000000000, -1.000000000000000000, -0.000000000000000000 ) ) ;
#194 = DIRECTION ( 'NONE',  ( 0.000000000000000000, 0.000000000000000000, -1.000000000000000000 ) ) ;
#195 =( GEOMETRIC_REPRESENTATION_CONTEXT ( 3 ) GLOBAL_UNCERTAINTY_ASSIGNED_CONTEXT ( ( #308 ) ) GLOBAL_UNIT_ASSIGNED_CONTEXT ( ( #184, #222, #278 ) ) REPRESENTATION_CONTEXT ( 'NONE', 'WORKASPACE' ) );
#196 = UNCERTAINTY_MEASURE_WITH_UNIT (LENGTH_MEASURE( 1.000000000000000082E-05 ), #212, 'distance_accuracy_value', 'NONE');
#197 = SURFACE_SIDE_STYLE ('',( #259 ) ) ;
#198 = DIRECTION ( 'NONE',  ( 1.000000000000000000, -1.632862398863137527E-16, 0.000000000000000000 ) ) ;
#199 = AXIS2_PLACEMENT_3D ( 'NONE', #155, #15, #39 ) ;
#200 = DIRECTION ( 'NONE',  ( 1.000000000000000000, 0.000000000000000000, 0.000000000000000000 ) ) ;
#201 = ADVANCED_BREP_SHAPE_REPRESENTATION ( '81552', ( #152, #43, #27 ), #281 ) ;
#202 = SURFACE_SIDE_STYLE ('',( #176 ) ) ;
#203 = ADVANCED_FACE ( 'NONE', ( #191 ), #117, .T. ) ;
#204 = VERTEX_POINT ( 'NONE', #92 ) ;
#205 = PRESENTATION_LAYER_ASSIGNMENT (  '', '', ( #142 ) ) ;
#206 =( GEOMETRIC_REPRESENTATION_CONTEXT ( 3 ) GLOBAL_UNCERTAINTY_ASSIGNED_CONTEXT ( ( #256 ) ) GLOBAL_UNIT_ASSIGNED_CONTEXT ( ( #170, #263, #292 ) ) REPRESENTATION_CONTEXT ( 'NONE', 'WORKASPACE' ) );
#207 = EDGE_LOOP ( 'NONE', ( #253, #220, #13, #172 ) ) ;
#208 = EDGE_CURVE ( 'NONE', #228, #265, #42, .T. ) ;
#209 = FILL_AREA_STYLE ('',( #113 ) ) ;
#210 = STYLED_ITEM ( 'NONE', ( #97 ), #152 ) ;
#211 = COLOUR_RGB ( '',1.000000000000000000, 0.000000000000000000, 0.000000000000000000 ) ;
#212 =( CONVERSION_BASED_UNIT ( 'INCH', #88 ) LENGTH_UNIT ( ) NAMED_UNIT ( #109 ) );
#213 = UNCERTAINTY_MEASURE_WITH_UNIT (LENGTH_MEASURE( 1.000000000000000082E-05 ), #276, 'distance_accuracy_value', 'NONE');
#214 = DIMENSIONAL_EXPONENTS ( 1.000000000000000000, 0.000000000000000000, 0.000000000000000000, 0.000000000000000000, 0.000000000000000000, 0.000000000000000000, 0.000000000000000000 ) ;
#215 = SURFACE_STYLE_FILL_AREA ( #262 ) ;
#216 = DIRECTION ( 'NONE',  ( 0.000000000000000000, 0.000000000000000000, -1.000000000000000000 ) ) ;
#217 = DIRECTION ( 'NONE',  ( -0.000000000000000000, -1.000000000000000000, -0.000000000000000000 ) ) ;
#218 = PLANE ( 'NONE',  #234 ) ;
#219 = LENGTH_MEASURE_WITH_UNIT ( LENGTH_MEASURE( 0.02539999999999999897 ), #144 );
#220 = ORIENTED_EDGE ( 'NONE', *, *, #185, .T. ) ;
#221 = EDGE_LOOP ( 'NONE', ( #29, #129, #86, #107 ) ) ;
#222 =( NAMED_UNIT ( * ) PLANE_ANGLE_UNIT ( ) SI_UNIT ( $, .RADIAN. ) );
#223 = DIRECTION ( 'NONE',  ( -1.000000000000000000, 0.000000000000000000, 0.000000000000000000 ) ) ;
#224 = MECHANICAL_DESIGN_GEOMETRIC_PRESENTATION_REPRESENTATION (  '', ( #111 ), #206 ) ;
#225 = VERTEX_POINT ( 'NONE', #273 ) ;
#226 = DIRECTION ( 'NONE',  ( 0.000000000000000000, 1.000000000000000000, 0.000000000000000000 ) ) ;
#227 = ORIENTED_EDGE ( 'NONE', *, *, #295, .T. ) ;
#228 = VERTEX_POINT ( 'NONE', #81 ) ;
#229 = MECHANICAL_DESIGN_GEOMETRIC_PRESENTATION_REPRESENTATION (  '', ( #70 ), #168 ) ;
#230 = ADVANCED_FACE ( 'NONE', ( #57 ), #122, .F. ) ;
#231 = CARTESIAN_POINT ( 'NONE',  ( 0.000000000000000000, 0.000000000000000000, -0.06250000000000001388 ) ) ;
#232 = AXIS2_PLACEMENT_3D ( 'NONE', #157, #100, #198 ) ;
#233 = CIRCLE ( 'NONE', #306, 0.06250000000000001388 ) ;
#234 = AXIS2_PLACEMENT_3D ( 'NONE', #268, #226, #154 ) ;
#235 = UNCERTAINTY_MEASURE_WITH_UNIT (LENGTH_MEASURE( 1.000000000000000082E-05 ), #269, 'distance_accuracy_value', 'NONE');
#236 = ADVANCED_FACE ( 'NONE', ( #33 ), #264, .T. ) ;
#237 = CIRCLE ( 'NONE', #87, 0.06250000000000001388 ) ;
#238 = CARTESIAN_POINT ( 'NONE',  ( 0.000000000000000000, 0.6250000000000000000, 0.000000000000000000 ) ) ;
#239 = DIRECTION ( 'NONE',  ( -0.000000000000000000, -1.000000000000000000, -0.000000000000000000 ) ) ;
#240 = DIRECTION ( 'NONE',  ( 1.632862398863137527E-16, 1.000000000000000000, -0.000000000000000000 ) ) ;
#241 = PRODUCT ( '81552', '81552', '', ( #182 ) ) ;
#242 = EDGE_LOOP ( 'NONE', ( #34, #105 ) ) ;
#243 = DIRECTION ( 'NONE',  ( 1.632862398863137527E-16, 1.000000000000000000, -0.000000000000000000 ) ) ;
#244 = DIRECTION ( 'NONE',  ( 0.000000000000000000, 0.000000000000000000, 1.000000000000000000 ) ) ;
#245 = VERTEX_POINT ( 'NONE', #128 ) ;
#246 = SURFACE_STYLE_USAGE ( .BOTH. , #8 ) ;
#247 =( NAMED_UNIT ( * ) PLANE_ANGLE_UNIT ( ) SI_UNIT ( $, .RADIAN. ) );
#248 = DIRECTION ( 'NONE',  ( -0.000000000000000000, -1.000000000000000000, -0.000000000000000000 ) ) ;
#249 = FILL_AREA_STYLE ('',( #271 ) ) ;
#250 = PRODUCT_DEFINITION_FORMATION_WITH_SPECIFIED_SOURCE ( 'ANY', '', #241, .NOT_KNOWN. ) ;
#251 = CARTESIAN_POINT ( 'NONE',  ( 0.06250000000000002776, 2.500000000000000000, 7.654042494670951382E-18 ) ) ;
#252 = APPLICATION_CONTEXT ( 'automotive_design' ) ;
#253 = ORIENTED_EDGE ( 'NONE', *, *, #208, .T. ) ;
#254 = COLOUR_RGB ( '',1.000000000000000000, 0.000000000000000000, 0.000000000000000000 ) ;
#255 = VECTOR ( 'NONE', #116, 39.37007874015748143 ) ;
#256 = UNCERTAINTY_MEASURE_WITH_UNIT (LENGTH_MEASURE( 1.000000000000000082E-05 ), #170, 'distance_accuracy_value', 'NONE');
#257 = SURFACE_STYLE_USAGE ( .BOTH. , #93 ) ;
#258 = EDGE_CURVE ( 'NONE', #225, #175, #60, .T. ) ;
#259 = SURFACE_STYLE_FILL_AREA ( #287 ) ;
#260 = DIRECTION ( 'NONE',  ( -1.000000000000000000, 0.000000000000000000, 0.000000000000000000 ) ) ;
#261 = DIRECTION ( 'NONE',  ( 1.632862398863137527E-16, 1.000000000000000000, -0.000000000000000000 ) ) ;
#262 = FILL_AREA_STYLE ('',( #169 ) ) ;
#263 =( NAMED_UNIT ( * ) PLANE_ANGLE_UNIT ( ) SI_UNIT ( $, .RADIAN. ) );
#264 = CYLINDRICAL_SURFACE ( 'NONE', #199, 0.06249999999999986122 ) ;
#265 = VERTEX_POINT ( 'NONE', #7 ) ;
#266 = DIRECTION ( 'NONE',  ( 0.000000000000000000, 0.000000000000000000, -1.000000000000000000 ) ) ;
#267 = ORIENTED_EDGE ( 'NONE', *, *, #303, .F. ) ;
#268 = CARTESIAN_POINT ( 'NONE',  ( 0.000000000000000000, 0.6250000000000000000, 0.000000000000000000 ) ) ;
#269 =( CONVERSION_BASED_UNIT ( 'INCH', #290 ) LENGTH_UNIT ( ) NAMED_UNIT ( #214 ) );
#270 =( LENGTH_UNIT ( ) NAMED_UNIT ( * ) SI_UNIT ( $, .METRE. ) );
#271 = FILL_AREA_STYLE_COLOUR ( '', #211 ) ;
#272 =( NAMED_UNIT ( * ) SI_UNIT ( $, .STERADIAN. ) SOLID_ANGLE_UNIT ( ) );
#273 = CARTESIAN_POINT ( 'NONE',  ( 0.06250000000000002776, 0.6250000000000000000, 7.654042494670951382E-18 ) ) ;
#274 = MECHANICAL_DESIGN_GEOMETRIC_PRESENTATION_REPRESENTATION (  '', ( #103 ), #309 ) ;
#275 = EDGE_LOOP ( 'NONE', ( #63, #187 ) ) ;
#276 =( CONVERSION_BASED_UNIT ( 'INCH', #5 ) LENGTH_UNIT ( ) NAMED_UNIT ( #91 ) );
#277 = AXIS2_PLACEMENT_3D ( 'NONE', #291, #96, #171 ) ;
#278 =( NAMED_UNIT ( * ) SI_UNIT ( $, .STERADIAN. ) SOLID_ANGLE_UNIT ( ) );
#279 = LENGTH_MEASURE_WITH_UNIT ( LENGTH_MEASURE( 0.02539999999999999897 ), #146 );
#280 = PRESENTATION_LAYER_ASSIGNMENT (  '', '', ( #103 ) ) ;
#281 =( GEOMETRIC_REPRESENTATION_CONTEXT ( 3 ) GLOBAL_UNCERTAINTY_ASSIGNED_CONTEXT ( ( #293 ) ) GLOBAL_UNIT_ASSIGNED_CONTEXT ( ( #10, #54, #104 ) ) REPRESENTATION_CONTEXT ( 'NONE', 'WORKASPACE' ) );
#282 = CARTESIAN_POINT ( 'NONE',  ( -0.06249999999999940326, 2.500000000000000000, 0.000000000000000000 ) ) ;
#283 = DIMENSIONAL_EXPONENTS ( 1.000000000000000000, 0.000000000000000000, 0.000000000000000000, 0.000000000000000000, 0.000000000000000000, 0.000000000000000000, 0.000000000000000000 ) ;
#284 = CIRCLE ( 'NONE', #120, 0.06250000000000001388 ) ;
#285 = AXIS2_PLACEMENT_3D ( 'NONE', #141, #239, #288 ) ;
#286 = APPLICATION_CONTEXT ( 'automotive_design' ) ;
#287 = FILL_AREA_STYLE ('',( #73 ) ) ;
#288 = DIRECTION ( 'NONE',  ( 0.000000000000000000, 0.000000000000000000, -1.000000000000000000 ) ) ;
#289 = ADVANCED_FACE ( 'NONE', ( #149 ), #297, .T. ) ;
#290 = LENGTH_MEASURE_WITH_UNIT ( LENGTH_MEASURE( 0.02539999999999999897 ), #174 );
#291 = CARTESIAN_POINT ( 'NONE',  ( 0.000000000000000000, 0.6250000000000000000, 0.000000000000000000 ) ) ;
#292 =( NAMED_UNIT ( * ) SI_UNIT ( $, .STERADIAN. ) SOLID_ANGLE_UNIT ( ) );
#293 = UNCERTAINTY_MEASURE_WITH_UNIT (LENGTH_MEASURE( 1.000000000000000082E-05 ), #10, 'distance_accuracy_value', 'NONE');
#294 = CARTESIAN_POINT ( 'NONE',  ( 0.000000000000000000, 0.6250000000000000000, 0.000000000000000000 ) ) ;
#295 = EDGE_CURVE ( 'NONE', #228, #245, #179, .T. ) ;
#296 = COLOUR_RGB ( '',1.000000000000000000, 0.000000000000000000, 0.000000000000000000 ) ;
#297 = CYLINDRICAL_SURFACE ( 'NONE', #18, 0.06249999999999986122 ) ;
#298 = CARTESIAN_POINT ( 'NONE',  ( 0.000000000000000000, 0.000000000000000000, 0.000000000000000000 ) ) ;
#299 = APPLICATION_PROTOCOL_DEFINITION ( 'draft international standard', 'automotive_design', 1998, #252 ) ;
#300 = SURFACE_STYLE_USAGE ( .BOTH. , #30 ) ;
#301 = SHAPE_DEFINITION_REPRESENTATION ( #183, #201 ) ;
#302 = FACE_OUTER_BOUND ( 'NONE', #242, .T. ) ;
#303 = EDGE_CURVE ( 'NONE', #225, #204, #237, .T. ) ;
#304 = DIRECTION ( 'NONE',  ( -1.000000000000000000, 1.632862398863137527E-16, 0.000000000000000000 ) ) ;
#305 = VERTEX_POINT ( 'NONE', #28 ) ;
#306 = AXIS2_PLACEMENT_3D ( 'NONE', #136, #166, #216 ) ;
#307 = DIRECTION ( 'NONE',  ( -1.000000000000000000, 0.000000000000000000, 0.000000000000000000 ) ) ;
#308 = UNCERTAINTY_MEASURE_WITH_UNIT (LENGTH_MEASURE( 1.000000000000000082E-05 ), #184, 'distance_accuracy_value', 'NONE');
#309 =( GEOMETRIC_REPRESENTATION_CONTEXT ( 3 ) GLOBAL_UNCERTAINTY_ASSIGNED_CONTEXT ( ( #235 ) ) GLOBAL_UNIT_ASSIGNED_CONTEXT ( ( #269, #247, #272 ) ) REPRESENTATION_CONTEXT ( 'NONE', 'WORKASPACE' ) );
ENDSEC;
END-ISO-10303-21;
