ISO-10303-21;
HEADER;
FILE_DESCRIPTION (( 'STEP AP214' ),
    '1' );
FILE_NAME ('Micro_RSC-187-2.STEP',
    '2021-09-03T17:45:49',
    ( '' ),
    ( '' ),
    'SwSTEP 2.0',
    'SolidWorks 2020',
    '' );
FILE_SCHEMA (( 'AUTOMOTIVE_DESIGN' ));
ENDSEC;

DATA;
#1 = ADVANCED_FACE ( 'NONE', ( #96 ), #201, .T. ) ;
#2 =( CONVERSION_BASED_UNIT ( 'INCH', #28 ) LENGTH_UNIT ( ) NAMED_UNIT ( #172 ) );
#3 = EDGE_LOOP ( 'NONE', ( #90, #186, #194, #129 ) ) ;
#4 = SURFACE_SIDE_STYLE ('',( #234 ) ) ;
#5 = VERTEX_POINT ( 'NONE', #202 ) ;
#6 = AXIS2_PLACEMENT_3D ( 'NONE', #111, #199, #75 ) ;
#7 = MECHANICAL_DESIGN_GEOMETRIC_PRESENTATION_REPRESENTATION (  '', ( #79 ), #232 ) ;
#8 = CARTESIAN_POINT ( 'NONE',  ( 0.0000000000000000000, 0.0000000000000000000, 0.0000000000000000000 ) ) ;
#9 = VERTEX_POINT ( 'NONE', #81 ) ;
#10 = ADVANCED_FACE ( 'NONE', ( #146 ), #218, .T. ) ;
#11 = ORIENTED_EDGE ( 'NONE', *, *, #165, .F. ) ;
#12 = AXIS2_PLACEMENT_3D ( 'NONE', #203, #166, #128 ) ;
#13 = ORIENTED_EDGE ( 'NONE', *, *, #165, .T. ) ;
#14 = EDGE_CURVE ( 'NONE', #66, #5, #150, .T. ) ;
#15 = DIRECTION ( 'NONE',  ( -0.0000000000000000000, -0.0000000000000000000, -1.000000000000000000 ) ) ;
#16 = DIRECTION ( 'NONE',  ( -1.000000000000000000, 0.0000000000000000000, 0.0000000000000000000 ) ) ;
#17 = EDGE_CURVE ( 'NONE', #77, #244, #139, .T. ) ;
#18 = DIRECTION ( 'NONE',  ( 0.0000000000000000000, 0.0000000000000000000, 1.000000000000000000 ) ) ;
#19 = CYLINDRICAL_SURFACE ( 'NONE', #23, 0.09375000000000001388 ) ;
#20 = CARTESIAN_POINT ( 'NONE',  ( 0.0000000000000000000, 0.0000000000000000000, 2.000000000000000000 ) ) ;
#21 = SURFACE_STYLE_USAGE ( .BOTH. , #100 ) ;
#22 = AXIS2_PLACEMENT_3D ( 'NONE', #219, #15, #16 ) ;
#23 = AXIS2_PLACEMENT_3D ( 'NONE', #61, #189, #169 ) ;
#24 = DIRECTION ( 'NONE',  ( 0.0000000000000000000, 0.0000000000000000000, -1.000000000000000000 ) ) ;
#25 = EDGE_CURVE ( 'NONE', #244, #77, #38, .T. ) ;
#26 = ADVANCED_FACE ( 'NONE', ( #126 ), #47, .T. ) ;
#27 = ORIENTED_EDGE ( 'NONE', *, *, #14, .F. ) ;
#28 = LENGTH_MEASURE_WITH_UNIT ( LENGTH_MEASURE( 0.02539999999999999897 ), #65 );
#29 = VERTEX_POINT ( 'NONE', #41 ) ;
#30 = UNCERTAINTY_MEASURE_WITH_UNIT (LENGTH_MEASURE( 1.000000000000000082E-05 ), #142, 'distance_accuracy_value', 'NONE');
#31 = ORIENTED_EDGE ( 'NONE', *, *, #58, .T. ) ;
#32 = AXIS2_PLACEMENT_3D ( 'NONE', #20, #24, #231 ) ;
#33 = EDGE_LOOP ( 'NONE', ( #91, #214, #98, #160 ) ) ;
#34 = CARTESIAN_POINT ( 'NONE',  ( 0.09375000000000001388, 1.148106374200643863E-17, 2.000000000000000000 ) ) ;
#35 = EDGE_CURVE ( 'NONE', #162, #5, #78, .T. ) ;
#36 = CARTESIAN_POINT ( 'NONE',  ( 0.0000000000000000000, 0.0000000000000000000, 1.844548440020693736 ) ) ;
#37 = STYLED_ITEM ( 'NONE', ( #207 ), #158 ) ;
#38 = CIRCLE ( 'NONE', #6, 0.003999999999999999216 ) ;
#39 = ORIENTED_EDGE ( 'NONE', *, *, #25, .F. ) ;
#40 = DIRECTION ( 'NONE',  ( -0.0000000000000000000, -0.0000000000000000000, -1.000000000000000000 ) ) ;
#41 = CARTESIAN_POINT ( 'NONE',  ( 0.003999999999999999216, 0.0000000000000000000, 2.000000000000000000 ) ) ;
#42 = AXIS2_PLACEMENT_3D ( 'NONE', #154, #18, #208 ) ;
#43 = LENGTH_MEASURE_WITH_UNIT ( LENGTH_MEASURE( 0.02539999999999999897 ), #87 );
#44 = FILL_AREA_STYLE_COLOUR ( '', #211 ) ;
#45 = PRODUCT_DEFINITION_SHAPE ( 'NONE', 'NONE',  #236 ) ;
#46 = LINE ( 'NONE', #83, #229 ) ;
#47 = CONICAL_SURFACE ( 'NONE', #12, 0.003999999999999999216, 0.5235987755983003700 ) ;
#48 = AXIS2_PLACEMENT_3D ( 'NONE', #156, #63, #213 ) ;
#49 = VECTOR ( 'NONE', #243, 39.37007874015748143 ) ;
#50 =( NAMED_UNIT ( * ) PLANE_ANGLE_UNIT ( ) SI_UNIT ( $, .RADIAN. ) );
#51 = EDGE_LOOP ( 'NONE', ( #103, #197 ) ) ;
#52 = CIRCLE ( 'NONE', #32, 0.003999999999999999216 ) ;
#53 = DIRECTION ( 'NONE',  ( -0.0000000000000000000, -0.0000000000000000000, -1.000000000000000000 ) ) ;
#54 = DIRECTION ( 'NONE',  ( -1.000000000000000000, 0.0000000000000000000, 0.0000000000000000000 ) ) ;
#55 = DIRECTION ( 'NONE',  ( 1.000000000000000000, 0.0000000000000000000, -0.0000000000000000000 ) ) ;
#56 = CARTESIAN_POINT ( 'NONE',  ( 0.0000000000000000000, 0.0000000000000000000, 2.000000000000000000 ) ) ;
#57 = CARTESIAN_POINT ( 'NONE',  ( 0.09375000000000001388, 1.148106374200643863E-17, 0.1554515599793062086 ) ) ;
#58 = EDGE_CURVE ( 'NONE', #5, #162, #121, .T. ) ;
#59 = AXIS2_PLACEMENT_3D ( 'NONE', #164, #241, #117 ) ;
#60 = PLANE ( 'NONE',  #42 ) ;
#61 = CARTESIAN_POINT ( 'NONE',  ( 0.0000000000000000000, 0.0000000000000000000, 2.000000000000000000 ) ) ;
#62 = EDGE_CURVE ( 'NONE', #66, #9, #200, .T. ) ;
#63 = DIRECTION ( 'NONE',  ( 0.0000000000000000000, 0.0000000000000000000, 1.000000000000000000 ) ) ;
#64 = APPLICATION_CONTEXT ( 'automotive_design' ) ;
#65 =( LENGTH_UNIT ( ) NAMED_UNIT ( * ) SI_UNIT ( $, .METRE. ) );
#66 = VERTEX_POINT ( 'NONE', #147 ) ;
#67 = VECTOR ( 'NONE', #192, 39.37007874015748854 ) ;
#68 = APPLICATION_PROTOCOL_DEFINITION ( 'draft international standard', 'automotive_design', 1998, #64 ) ;
#69 = EDGE_LOOP ( 'NONE', ( #143, #141 ) ) ;
#70 = EDGE_CURVE ( 'NONE', #9, #162, #184, .T. ) ;
#71 = FILL_AREA_STYLE_COLOUR ( '', #221 ) ;
#72 = UNCERTAINTY_MEASURE_WITH_UNIT (LENGTH_MEASURE( 1.000000000000000082E-05 ), #116, 'distance_accuracy_value', 'NONE');
#73 = DIRECTION ( 'NONE',  ( 0.0000000000000000000, 0.0000000000000000000, 1.000000000000000000 ) ) ;
#74 = CONICAL_SURFACE ( 'NONE', #59, 0.003999999999999999216, 0.5235987755983003700 ) ;
#75 = DIRECTION ( 'NONE',  ( -1.000000000000000000, 0.0000000000000000000, 0.0000000000000000000 ) ) ;
#76 = ORIENTED_EDGE ( 'NONE', *, *, #130, .T. ) ;
#77 = VERTEX_POINT ( 'NONE', #127 ) ;
#78 = CIRCLE ( 'NONE', #183, 0.09375000000000001388 ) ;
#79 = STYLED_ITEM ( 'NONE', ( #177 ), #224 ) ;
#80 = PRODUCT_DEFINITION_CONTEXT ( 'detailed design', #64, 'design' ) ;
#81 = CARTESIAN_POINT ( 'NONE',  ( 0.09375000000000001388, 1.148106374200643863E-17, 1.844548440020693736 ) ) ;
#82 =( NAMED_UNIT ( * ) SI_UNIT ( $, .STERADIAN. ) SOLID_ANGLE_UNIT ( ) );
#83 = CARTESIAN_POINT ( 'NONE',  ( 0.003999999999999999216, 0.0000000000000000000, 0.0000000000000000000 ) ) ;
#84 = EDGE_CURVE ( 'NONE', #9, #66, #180, .T. ) ;
#85 = DIRECTION ( 'NONE',  ( 0.5000000000000012212, 0.0000000000000000000, -0.8660254037844377084 ) ) ;
#86 = DIMENSIONAL_EXPONENTS ( 1.000000000000000000, 0.0000000000000000000, 0.0000000000000000000, 0.0000000000000000000, 0.0000000000000000000, 0.0000000000000000000, 0.0000000000000000000 ) ;
#87 =( LENGTH_UNIT ( ) NAMED_UNIT ( * ) SI_UNIT ( $, .METRE. ) );
#88 = FACE_OUTER_BOUND ( 'NONE', #157, .T. ) ;
#89 = CIRCLE ( 'NONE', #161, 0.003999999999999999216 ) ;
#90 = ORIENTED_EDGE ( 'NONE', *, *, #70, .F. ) ;
#91 = ORIENTED_EDGE ( 'NONE', *, *, #225, .F. ) ;
#92 =( GEOMETRIC_REPRESENTATION_CONTEXT ( 3 ) GLOBAL_UNCERTAINTY_ASSIGNED_CONTEXT ( ( #72 ) ) GLOBAL_UNIT_ASSIGNED_CONTEXT ( ( #116, #247, #82 ) ) REPRESENTATION_CONTEXT ( 'NONE', 'WORKASPACE' ) );
#93 = DIRECTION ( 'NONE',  ( -0.0000000000000000000, -0.0000000000000000000, -1.000000000000000000 ) ) ;
#94 = UNCERTAINTY_MEASURE_WITH_UNIT (LENGTH_MEASURE( 1.000000000000000082E-05 ), #2, 'distance_accuracy_value', 'NONE');
#95 = FACE_OUTER_BOUND ( 'NONE', #239, .T. ) ;
#96 = FACE_OUTER_BOUND ( 'NONE', #51, .T. ) ;
#97 = ORIENTED_EDGE ( 'NONE', *, *, #62, .T. ) ;
#98 = ORIENTED_EDGE ( 'NONE', *, *, #175, .T. ) ;
#99 = DIRECTION ( 'NONE',  ( -0.5000000000000012212, -6.123233995736780827E-17, -0.8660254037844377084 ) ) ;
#100 = SURFACE_SIDE_STYLE ('',( #155 ) ) ;
#101 =( NAMED_UNIT ( * ) SI_UNIT ( $, .STERADIAN. ) SOLID_ANGLE_UNIT ( ) );
#102 = AXIS2_PLACEMENT_3D ( 'NONE', #8, #178, #159 ) ;
#103 = ORIENTED_EDGE ( 'NONE', *, *, #130, .F. ) ;
#104 = ADVANCED_FACE ( 'NONE', ( #95 ), #74, .T. ) ;
#105 = EDGE_LOOP ( 'NONE', ( #97, #124, #187, #27 ) ) ;
#106 =( NAMED_UNIT ( * ) PLANE_ANGLE_UNIT ( ) SI_UNIT ( $, .RADIAN. ) );
#107 = PRESENTATION_LAYER_ASSIGNMENT (  '', '', ( #37 ) ) ;
#108 = ADVANCED_FACE ( 'NONE', ( #136 ), #217, .T. ) ;
#109 = DIRECTION ( 'NONE',  ( 0.0000000000000000000, 0.0000000000000000000, -1.000000000000000000 ) ) ;
#110 = ORIENTED_EDGE ( 'NONE', *, *, #175, .F. ) ;
#111 = CARTESIAN_POINT ( 'NONE',  ( 0.0000000000000000000, 0.0000000000000000000, 0.0000000000000000000 ) ) ;
#112 = DIRECTION ( 'NONE',  ( -1.000000000000000000, 0.0000000000000000000, 0.0000000000000000000 ) ) ;
#113 = CARTESIAN_POINT ( 'NONE',  ( 0.0000000000000000000, 0.0000000000000000000, 0.1554515599793062086 ) ) ;
#114 = VECTOR ( 'NONE', #99, 39.37007874015748854 ) ;
#115 = DIRECTION ( 'NONE',  ( 1.000000000000000000, 0.0000000000000000000, 0.0000000000000000000 ) ) ;
#116 =( CONVERSION_BASED_UNIT ( 'INCH', #43 ) LENGTH_UNIT ( ) NAMED_UNIT ( #86 ) );
#117 = DIRECTION ( 'NONE',  ( 1.000000000000000000, 0.0000000000000000000, 0.0000000000000000000 ) ) ;
#118 = CLOSED_SHELL ( 'NONE', ( #104, #26, #10, #181, #245, #144, #108, #1 ) ) ;
#119 = PRODUCT ( 'Micro_RSC-187-2', 'Micro_RSC-187-2', '', ( #137 ) ) ;
#120 = CARTESIAN_POINT ( 'NONE',  ( 0.0000000000000000000, 0.0000000000000000000, 2.000000000000000000 ) ) ;
#121 = CIRCLE ( 'NONE', #153, 0.09375000000000001388 ) ;
#122 = EDGE_CURVE ( 'NONE', #244, #162, #46, .T. ) ;
#123 = VECTOR ( 'NONE', #53, 39.37007874015748143 ) ;
#124 = ORIENTED_EDGE ( 'NONE', *, *, #70, .T. ) ;
#125 = VERTEX_POINT ( 'NONE', #173 ) ;
#126 = FACE_OUTER_BOUND ( 'NONE', #235, .T. ) ;
#127 = CARTESIAN_POINT ( 'NONE',  ( -0.003999999999999999216, 5.985461230832687873E-18, 0.0000000000000000000 ) ) ;
#128 = DIRECTION ( 'NONE',  ( 1.000000000000000000, 0.0000000000000000000, 0.0000000000000000000 ) ) ;
#129 = ORIENTED_EDGE ( 'NONE', *, *, #35, .F. ) ;
#130 = EDGE_CURVE ( 'NONE', #29, #125, #89, .T. ) ;
#131 = DIRECTION ( 'NONE',  ( -0.0000000000000000000, -0.0000000000000000000, -1.000000000000000000 ) ) ;
#132 = LINE ( 'NONE', #204, #248 ) ;
#133 = CONICAL_SURFACE ( 'NONE', #48, 0.003999999999999999216, 0.5235987755983003700 ) ;
#134 = DIRECTION ( 'NONE',  ( 0.0000000000000000000, 0.0000000000000000000, -1.000000000000000000 ) ) ;
#135 = CARTESIAN_POINT ( 'NONE',  ( 0.0000000000000000000, 0.0000000000000000000, 2.000000000000000000 ) ) ;
#136 = FACE_OUTER_BOUND ( 'NONE', #33, .T. ) ;
#137 = PRODUCT_CONTEXT ( 'NONE', #228, 'mechanical' ) ;
#138 = ORIENTED_EDGE ( 'NONE', *, *, #17, .F. ) ;
#139 = CIRCLE ( 'NONE', #205, 0.003999999999999999216 ) ;
#140 = FILL_AREA_STYLE ('',( #71 ) ) ;
#141 = ORIENTED_EDGE ( 'NONE', *, *, #17, .T. ) ;
#142 =( CONVERSION_BASED_UNIT ( 'INCH', #233 ) LENGTH_UNIT ( ) NAMED_UNIT ( #212 ) );
#143 = ORIENTED_EDGE ( 'NONE', *, *, #25, .T. ) ;
#144 = ADVANCED_FACE ( 'NONE', ( #151 ), #60, .F. ) ;
#145 =( GEOMETRIC_REPRESENTATION_CONTEXT ( 3 ) GLOBAL_UNCERTAINTY_ASSIGNED_CONTEXT ( ( #94 ) ) GLOBAL_UNIT_ASSIGNED_CONTEXT ( ( #2, #106, #101 ) ) REPRESENTATION_CONTEXT ( 'NONE', 'WORKASPACE' ) );
#146 = FACE_OUTER_BOUND ( 'NONE', #105, .T. ) ;
#147 = CARTESIAN_POINT ( 'NONE',  ( -0.09375000000000001388, 0.0000000000000000000, 1.844548440020693736 ) ) ;
#148 = CARTESIAN_POINT ( 'NONE',  ( 0.0000000000000000000, 0.0000000000000000000, 0.1554515599793062086 ) ) ;
#149 = AXIS2_PLACEMENT_3D ( 'NONE', #36, #167, #112 ) ;
#150 = LINE ( 'NONE', #223, #123 ) ;
#151 = FACE_OUTER_BOUND ( 'NONE', #69, .T. ) ;
#152 = DIRECTION ( 'NONE',  ( 0.0000000000000000000, 0.0000000000000000000, -1.000000000000000000 ) ) ;
#153 = AXIS2_PLACEMENT_3D ( 'NONE', #113, #93, #198 ) ;
#154 = CARTESIAN_POINT ( 'NONE',  ( 0.0000000000000000000, 0.0000000000000000000, 0.0000000000000000000 ) ) ;
#155 = SURFACE_STYLE_FILL_AREA ( #191 ) ;
#156 = CARTESIAN_POINT ( 'NONE',  ( 0.0000000000000000000, 0.0000000000000000000, 0.0000000000000000000 ) ) ;
#157 = EDGE_LOOP ( 'NONE', ( #11, #39, #179, #242 ) ) ;
#158 = MANIFOLD_SOLID_BREP ( 'Mirror1', #118 ) ;
#159 = DIRECTION ( 'NONE',  ( 1.000000000000000000, 0.0000000000000000000, 0.0000000000000000000 ) ) ;
#160 = ORIENTED_EDGE ( 'NONE', *, *, #62, .F. ) ;
#161 = AXIS2_PLACEMENT_3D ( 'NONE', #135, #134, #246 ) ;
#162 = VERTEX_POINT ( 'NONE', #57 ) ;
#163 = ORIENTED_EDGE ( 'NONE', *, *, #122, .F. ) ;
#164 = CARTESIAN_POINT ( 'NONE',  ( 0.0000000000000000000, 0.0000000000000000000, 2.000000000000000000 ) ) ;
#165 = EDGE_CURVE ( 'NONE', #77, #5, #230, .T. ) ;
#166 = DIRECTION ( 'NONE',  ( 0.0000000000000000000, 0.0000000000000000000, 1.000000000000000000 ) ) ;
#167 = DIRECTION ( 'NONE',  ( 0.0000000000000000000, 0.0000000000000000000, -1.000000000000000000 ) ) ;
#168 = ORIENTED_EDGE ( 'NONE', *, *, #84, .F. ) ;
#169 = DIRECTION ( 'NONE',  ( -1.000000000000000000, 0.0000000000000000000, 0.0000000000000000000 ) ) ;
#170 = CARTESIAN_POINT ( 'NONE',  ( 0.003999999999999999216, 0.0000000000000000000, 0.0000000000000000000 ) ) ;
#171 = MECHANICAL_DESIGN_GEOMETRIC_PRESENTATION_REPRESENTATION (  '', ( #37 ), #92 ) ;
#172 = DIMENSIONAL_EXPONENTS ( 1.000000000000000000, 0.0000000000000000000, 0.0000000000000000000, 0.0000000000000000000, 0.0000000000000000000, 0.0000000000000000000, 0.0000000000000000000 ) ;
#173 = CARTESIAN_POINT ( 'NONE',  ( -0.003999999999999999216, -5.985461230832691724E-18, 2.000000000000000000 ) ) ;
#174 = LINE ( 'NONE', #249, #114 ) ;
#175 = EDGE_CURVE ( 'NONE', #29, #9, #132, .T. ) ;
#176 = AXIS2_PLACEMENT_3D ( 'NONE', #120, #152, #115 ) ;
#177 = PRESENTATION_STYLE_ASSIGNMENT (( #195 ) ) ;
#178 = DIRECTION ( 'NONE',  ( 0.0000000000000000000, 0.0000000000000000000, 1.000000000000000000 ) ) ;
#179 = ORIENTED_EDGE ( 'NONE', *, *, #122, .T. ) ;
#180 = CIRCLE ( 'NONE', #210, 0.09375000000000001388 ) ;
#181 = ADVANCED_FACE ( 'NONE', ( #188 ), #19, .T. ) ;
#182 = DIRECTION ( 'NONE',  ( -1.000000000000000000, 0.0000000000000000000, 0.0000000000000000000 ) ) ;
#183 = AXIS2_PLACEMENT_3D ( 'NONE', #148, #40, #185 ) ;
#184 = LINE ( 'NONE', #34, #49 ) ;
#185 = DIRECTION ( 'NONE',  ( -1.000000000000000000, 0.0000000000000000000, 0.0000000000000000000 ) ) ;
#186 = ORIENTED_EDGE ( 'NONE', *, *, #84, .T. ) ;
#187 = ORIENTED_EDGE ( 'NONE', *, *, #58, .F. ) ;
#188 = FACE_OUTER_BOUND ( 'NONE', #3, .T. ) ;
#189 = DIRECTION ( 'NONE',  ( -0.0000000000000000000, -0.0000000000000000000, -1.000000000000000000 ) ) ;
#190 = PRODUCT_RELATED_PRODUCT_CATEGORY ( 'part', '', ( #119 ) ) ;
#191 = FILL_AREA_STYLE ('',( #44 ) ) ;
#192 = DIRECTION ( 'NONE',  ( -0.5000000000000012212, 6.123233995736780827E-17, 0.8660254037844377084 ) ) ;
#193 =( LENGTH_UNIT ( ) NAMED_UNIT ( * ) SI_UNIT ( $, .METRE. ) );
#194 = ORIENTED_EDGE ( 'NONE', *, *, #14, .T. ) ;
#195 = SURFACE_STYLE_USAGE ( .BOTH. , #4 ) ;
#196 = ORIENTED_EDGE ( 'NONE', *, *, #225, .T. ) ;
#197 = ORIENTED_EDGE ( 'NONE', *, *, #215, .F. ) ;
#198 = DIRECTION ( 'NONE',  ( -1.000000000000000000, 0.0000000000000000000, 0.0000000000000000000 ) ) ;
#199 = DIRECTION ( 'NONE',  ( -0.0000000000000000000, -0.0000000000000000000, -1.000000000000000000 ) ) ;
#200 = CIRCLE ( 'NONE', #149, 0.09375000000000001388 ) ;
#201 = PLANE ( 'NONE',  #227 ) ;
#202 = CARTESIAN_POINT ( 'NONE',  ( -0.09375000000000001388, 0.0000000000000000000, 0.1554515599793062086 ) ) ;
#203 = CARTESIAN_POINT ( 'NONE',  ( 0.0000000000000000000, 0.0000000000000000000, 0.0000000000000000000 ) ) ;
#204 = CARTESIAN_POINT ( 'NONE',  ( 0.003999999999999999216, 0.0000000000000000000, 2.000000000000000000 ) ) ;
#205 = AXIS2_PLACEMENT_3D ( 'NONE', #220, #131, #54 ) ;
#206 = PRESENTATION_LAYER_ASSIGNMENT (  '', '', ( #79 ) ) ;
#207 = PRESENTATION_STYLE_ASSIGNMENT (( #21 ) ) ;
#208 = DIRECTION ( 'NONE',  ( 1.000000000000000000, 0.0000000000000000000, -0.0000000000000000000 ) ) ;
#209 = CARTESIAN_POINT ( 'NONE',  ( -0.003999999999999999216, 4.898587196589411612E-19, 0.0000000000000000000 ) ) ;
#210 = AXIS2_PLACEMENT_3D ( 'NONE', #222, #109, #182 ) ;
#211 = COLOUR_RGB ( '',0.7921568627450980005, 0.8196078431372548767, 0.9333333333333333481 ) ;
#212 = DIMENSIONAL_EXPONENTS ( 1.000000000000000000, 0.0000000000000000000, 0.0000000000000000000, 0.0000000000000000000, 0.0000000000000000000, 0.0000000000000000000, 0.0000000000000000000 ) ;
#213 = DIRECTION ( 'NONE',  ( 1.000000000000000000, 0.0000000000000000000, 0.0000000000000000000 ) ) ;
#214 = ORIENTED_EDGE ( 'NONE', *, *, #215, .T. ) ;
#215 = EDGE_CURVE ( 'NONE', #125, #29, #52, .T. ) ;
#216 = SHAPE_DEFINITION_REPRESENTATION ( #45, #224 ) ;
#217 = CONICAL_SURFACE ( 'NONE', #176, 0.003999999999999999216, 0.5235987755983003700 ) ;
#218 = CYLINDRICAL_SURFACE ( 'NONE', #22, 0.09375000000000001388 ) ;
#219 = CARTESIAN_POINT ( 'NONE',  ( 0.0000000000000000000, 0.0000000000000000000, 2.000000000000000000 ) ) ;
#220 = CARTESIAN_POINT ( 'NONE',  ( 0.0000000000000000000, 0.0000000000000000000, 0.0000000000000000000 ) ) ;
#221 = COLOUR_RGB ( '',0.7921568627450980005, 0.8196078431372548767, 0.9333333333333333481 ) ;
#222 = CARTESIAN_POINT ( 'NONE',  ( 0.0000000000000000000, 0.0000000000000000000, 1.844548440020693736 ) ) ;
#223 = CARTESIAN_POINT ( 'NONE',  ( -0.09375000000000001388, 0.0000000000000000000, 2.000000000000000000 ) ) ;
#224 = ADVANCED_BREP_SHAPE_REPRESENTATION ( 'Micro_RSC-187-2', ( #158, #102 ), #145 ) ;
#225 = EDGE_CURVE ( 'NONE', #125, #66, #174, .T. ) ;
#226 = DIRECTION ( 'NONE',  ( 0.5000000000000012212, 0.0000000000000000000, 0.8660254037844377084 ) ) ;
#227 = AXIS2_PLACEMENT_3D ( 'NONE', #56, #73, #55 ) ;
#228 = APPLICATION_CONTEXT ( 'automotive_design' ) ;
#229 = VECTOR ( 'NONE', #226, 39.37007874015748854 ) ;
#230 = LINE ( 'NONE', #209, #67 ) ;
#231 = DIRECTION ( 'NONE',  ( -1.000000000000000000, 0.0000000000000000000, 0.0000000000000000000 ) ) ;
#232 =( GEOMETRIC_REPRESENTATION_CONTEXT ( 3 ) GLOBAL_UNCERTAINTY_ASSIGNED_CONTEXT ( ( #30 ) ) GLOBAL_UNIT_ASSIGNED_CONTEXT ( ( #142, #50, #238 ) ) REPRESENTATION_CONTEXT ( 'NONE', 'WORKASPACE' ) );
#233 = LENGTH_MEASURE_WITH_UNIT ( LENGTH_MEASURE( 0.02539999999999999897 ), #193 );
#234 = SURFACE_STYLE_FILL_AREA ( #140 ) ;
#235 = EDGE_LOOP ( 'NONE', ( #138, #13, #31, #163 ) ) ;
#236 = PRODUCT_DEFINITION ( 'UNKNOWN', '', #240, #80 ) ;
#237 = APPLICATION_PROTOCOL_DEFINITION ( 'draft international standard', 'automotive_design', 1998, #228 ) ;
#238 =( NAMED_UNIT ( * ) SI_UNIT ( $, .STERADIAN. ) SOLID_ANGLE_UNIT ( ) );
#239 = EDGE_LOOP ( 'NONE', ( #76, #196, #168, #110 ) ) ;
#240 = PRODUCT_DEFINITION_FORMATION_WITH_SPECIFIED_SOURCE ( 'ANY', '', #119, .NOT_KNOWN. ) ;
#241 = DIRECTION ( 'NONE',  ( 0.0000000000000000000, 0.0000000000000000000, -1.000000000000000000 ) ) ;
#242 = ORIENTED_EDGE ( 'NONE', *, *, #35, .T. ) ;
#243 = DIRECTION ( 'NONE',  ( -0.0000000000000000000, -0.0000000000000000000, -1.000000000000000000 ) ) ;
#244 = VERTEX_POINT ( 'NONE', #170 ) ;
#245 = ADVANCED_FACE ( 'NONE', ( #88 ), #133, .T. ) ;
#246 = DIRECTION ( 'NONE',  ( -1.000000000000000000, 0.0000000000000000000, 0.0000000000000000000 ) ) ;
#247 =( NAMED_UNIT ( * ) PLANE_ANGLE_UNIT ( ) SI_UNIT ( $, .RADIAN. ) );
#248 = VECTOR ( 'NONE', #85, 39.37007874015748854 ) ;
#249 = CARTESIAN_POINT ( 'NONE',  ( -0.003999999999999999216, -4.898587196589411612E-19, 2.000000000000000000 ) ) ;
ENDSEC;
END-ISO-10303-21;
