ISO-10303-21;
HEADER;
FILE_DESCRIPTION (( 'STEP AP214' ),
    '1' );
FILE_NAME ('81844.STEP',
    '2023-06-23T03:33:32',
    ( '' ),
    ( '' ),
    'SwSTEP 2.0',
    'SolidWorks 2023',
    '' );
FILE_SCHEMA (( 'AUTOMOTIVE_DESIGN' ));
ENDSEC;

DATA;
#1 = DIRECTION ( 'NONE',  ( 0.000000000000000000, 0.000000000000000000, -1.000000000000000000 ) ) ;
#2 = FACE_OUTER_BOUND ( 'NONE', #274, .T. ) ;
#3 = ADVANCED_FACE ( 'NONE', ( #2 ), #143, .T. ) ;
#4 =( NAMED_UNIT ( * ) SI_UNIT ( $, .STERADIAN. ) SOLID_ANGLE_UNIT ( ) );
#5 = CARTESIAN_POINT ( 'NONE',  ( 0.000000000000000000, 2.000000000000000000, -0.2500000000000000000 ) ) ;
#6 = ORIENTED_EDGE ( 'NONE', *, *, #215, .T. ) ;
#7 =( NAMED_UNIT ( * ) SI_UNIT ( $, .STERADIAN. ) SOLID_ANGLE_UNIT ( ) );
#8 = SURFACE_STYLE_FILL_AREA ( #146 ) ;
#9 = DIRECTION ( 'NONE',  ( -0.000000000000000000, -1.000000000000000000, -0.000000000000000000 ) ) ;
#10 = DIRECTION ( 'NONE',  ( -1.000000000000000000, 0.000000000000000000, 0.000000000000000000 ) ) ;
#11 = LENGTH_MEASURE_WITH_UNIT ( LENGTH_MEASURE( 0.02539999999999999897 ), #170 );
#12 = AXIS2_PLACEMENT_3D ( 'NONE', #99, #261, #197 ) ;
#13 = APPLICATION_CONTEXT ( 'automotive_design' ) ;
#14 = DIRECTION ( 'NONE',  ( 0.000000000000000000, 0.000000000000000000, 1.000000000000000000 ) ) ;
#15 = CARTESIAN_POINT ( 'NONE',  ( -0.2500000000000001110, 4.000000000000000000, 0.000000000000000000 ) ) ;
#16 = UNCERTAINTY_MEASURE_WITH_UNIT (LENGTH_MEASURE( 1.000000000000000082E-05 ), #300, 'distance_accuracy_value', 'NONE');
#17 = SURFACE_STYLE_FILL_AREA ( #230 ) ;
#18 =( GEOMETRIC_REPRESENTATION_CONTEXT ( 3 ) GLOBAL_UNCERTAINTY_ASSIGNED_CONTEXT ( ( #100 ) ) GLOBAL_UNIT_ASSIGNED_CONTEXT ( ( #164, #181, #137 ) ) REPRESENTATION_CONTEXT ( 'NONE', 'WORKASPACE' ) );
#19 =( GEOMETRIC_REPRESENTATION_CONTEXT ( 3 ) GLOBAL_UNCERTAINTY_ASSIGNED_CONTEXT ( ( #240 ) ) GLOBAL_UNIT_ASSIGNED_CONTEXT ( ( #247, #175, #73 ) ) REPRESENTATION_CONTEXT ( 'NONE', 'WORKASPACE' ) );
#20 = ORIENTED_EDGE ( 'NONE', *, *, #53, .F. ) ;
#21 = VECTOR ( 'NONE', #40, 39.37007874015748143 ) ;
#22 = CARTESIAN_POINT ( 'NONE',  ( 1.171687330204576256E-34, 2.000000000000000000, 0.000000000000000000 ) ) ;
#23 = VERTEX_POINT ( 'NONE', #72 ) ;
#24 = MANIFOLD_SOLID_BREP ( 'Revolve - Cutting Edge', #32 ) ;
#25 = LENGTH_MEASURE_WITH_UNIT ( LENGTH_MEASURE( 0.02539999999999999897 ), #122 );
#26 = STYLED_ITEM ( 'NONE', ( #292 ), #282 ) ;
#27 = CARTESIAN_POINT ( 'NONE',  ( 0.000000000000000000, 0.000000000000000000, 0.000000000000000000 ) ) ;
#28 = CARTESIAN_POINT ( 'NONE',  ( -6.123233995736766036E-17, 4.000000000000000000, 0.000000000000000000 ) ) ;
#29 = SURFACE_STYLE_USAGE ( .BOTH. , #218 ) ;
#30 =( NAMED_UNIT ( * ) PLANE_ANGLE_UNIT ( ) SI_UNIT ( $, .RADIAN. ) );
#31 = AXIS2_PLACEMENT_3D ( 'NONE', #147, #9, #34 ) ;
#32 = CLOSED_SHELL ( 'NONE', ( #179, #282, #3, #94 ) ) ;
#33 = LINE ( 'NONE', #133, #173 ) ;
#34 = DIRECTION ( 'NONE',  ( 0.000000000000000000, 0.000000000000000000, -1.000000000000000000 ) ) ;
#35 = VERTEX_POINT ( 'NONE', #45 ) ;
#36 = DIRECTION ( 'NONE',  ( 0.000000000000000000, 1.000000000000000000, 0.000000000000000000 ) ) ;
#37 = PRODUCT_RELATED_PRODUCT_CATEGORY ( 'part', '', ( #68 ) ) ;
#38 = CARTESIAN_POINT ( 'NONE',  ( 0.000000000000000000, 2.000000000000000000, 0.000000000000000000 ) ) ;
#39 = AXIS2_PLACEMENT_3D ( 'NONE', #38, #214, #1 ) ;
#40 = DIRECTION ( 'NONE',  ( -3.061616997868383018E-17, 1.000000000000000000, -0.000000000000000000 ) ) ;
#41 = PRODUCT_CONTEXT ( 'NONE', #211, 'mechanical' ) ;
#42 = CARTESIAN_POINT ( 'NONE',  ( 0.2499999999999999722, 4.000000000000000000, 3.061616997868383634E-17 ) ) ;
#43 = STYLED_ITEM ( 'NONE', ( #267 ), #94 ) ;
#44 = STYLED_ITEM ( 'NONE', ( #75 ), #225 ) ;
#45 = CARTESIAN_POINT ( 'NONE',  ( -0.2500000000000000000, 2.000000000000000000, 0.000000000000000000 ) ) ;
#46 = AXIS2_PLACEMENT_3D ( 'NONE', #27, #244, #126 ) ;
#47 = DIRECTION ( 'NONE',  ( -0.000000000000000000, -1.000000000000000000, -0.000000000000000000 ) ) ;
#48 = PRODUCT_DEFINITION_FORMATION_WITH_SPECIFIED_SOURCE ( 'ANY', '', #68, .NOT_KNOWN. ) ;
#49 = EDGE_CURVE ( 'NONE', #208, #271, #33, .T. ) ;
#50 = PRODUCT_DEFINITION_CONTEXT ( 'detailed design', #13, 'design' ) ;
#51 = LENGTH_MEASURE_WITH_UNIT ( LENGTH_MEASURE( 0.02539999999999999897 ), #144 );
#52 =( NAMED_UNIT ( * ) SI_UNIT ( $, .STERADIAN. ) SOLID_ANGLE_UNIT ( ) );
#53 = EDGE_CURVE ( 'NONE', #221, #131, #296, .T. ) ;
#54 =( GEOMETRIC_REPRESENTATION_CONTEXT ( 3 ) GLOBAL_UNCERTAINTY_ASSIGNED_CONTEXT ( ( #124 ) ) GLOBAL_UNIT_ASSIGNED_CONTEXT ( ( #187, #30, #7 ) ) REPRESENTATION_CONTEXT ( 'NONE', 'WORKASPACE' ) );
#55 = SURFACE_STYLE_USAGE ( .BOTH. , #76 ) ;
#56 = ORIENTED_EDGE ( 'NONE', *, *, #184, .T. ) ;
#57 = LINE ( 'NONE', #190, #119 ) ;
#58 = SURFACE_STYLE_FILL_AREA ( #59 ) ;
#59 = FILL_AREA_STYLE ('',( #263 ) ) ;
#60 = AXIS2_PLACEMENT_3D ( 'NONE', #249, #172, #285 ) ;
#61 = ADVANCED_FACE ( 'NONE', ( #219 ), #191, .T. ) ;
#62 = CARTESIAN_POINT ( 'NONE',  ( 0.2500000000000000000, 4.000000000000000000, 3.061616997868383634E-17 ) ) ;
#63 = SHAPE_DEFINITION_REPRESENTATION ( #134, #114 ) ;
#64 = AXIS2_PLACEMENT_3D ( 'NONE', #28, #171, #141 ) ;
#65 = CARTESIAN_POINT ( 'NONE',  ( -6.123233995736766036E-17, 4.000000000000000000, 0.000000000000000000 ) ) ;
#66 = MECHANICAL_DESIGN_GEOMETRIC_PRESENTATION_REPRESENTATION (  '', ( #26 ), #54 ) ;
#67 = ORIENTED_EDGE ( 'NONE', *, *, #71, .T. ) ;
#68 = PRODUCT ( '81844', '81844', '', ( #41 ) ) ;
#69 = COLOUR_RGB ( '',1.000000000000000000, 0.000000000000000000, 0.000000000000000000 ) ;
#70 = AXIS2_PLACEMENT_3D ( 'NONE', #188, #104, #10 ) ;
#71 = EDGE_CURVE ( 'NONE', #35, #23, #303, .T. ) ;
#72 = CARTESIAN_POINT ( 'NONE',  ( 0.2500000000000000000, 2.000000000000000000, 3.061616997868383634E-17 ) ) ;
#73 =( NAMED_UNIT ( * ) SI_UNIT ( $, .STERADIAN. ) SOLID_ANGLE_UNIT ( ) );
#74 = PRESENTATION_STYLE_ASSIGNMENT (( #140 ) ) ;
#75 = PRESENTATION_STYLE_ASSIGNMENT (( #106 ) ) ;
#76 = SURFACE_SIDE_STYLE ('',( #58 ) ) ;
#77 = FILL_AREA_STYLE_COLOUR ( '', #192 ) ;
#78 = EDGE_LOOP ( 'NONE', ( #289, #115, #279, #20 ) ) ;
#79 = PLANE ( 'NONE',  #224 ) ;
#80 = SURFACE_SIDE_STYLE ('',( #268 ) ) ;
#81 = DIRECTION ( 'NONE',  ( 0.000000000000000000, -1.000000000000000000, -0.000000000000000000 ) ) ;
#82 = COLOUR_RGB ( '',1.000000000000000000, 0.000000000000000000, 0.000000000000000000 ) ;
#83 = SURFACE_SIDE_STYLE ('',( #17 ) ) ;
#84 = DIRECTION ( 'NONE',  ( -1.000000000000000000, 0.000000000000000000, 0.000000000000000000 ) ) ;
#85 = DIMENSIONAL_EXPONENTS ( 1.000000000000000000, 0.000000000000000000, 0.000000000000000000, 0.000000000000000000, 0.000000000000000000, 0.000000000000000000, 0.000000000000000000 ) ;
#86 = DIRECTION ( 'NONE',  ( 0.000000000000000000, 0.000000000000000000, -1.000000000000000000 ) ) ;
#87 = CYLINDRICAL_SURFACE ( 'NONE', #250, 0.2500000000000000555 ) ;
#88 = ORIENTED_EDGE ( 'NONE', *, *, #53, .T. ) ;
#89 = PRODUCT_DEFINITION ( 'UNKNOWN', '', #48, #50 ) ;
#90 = UNCERTAINTY_MEASURE_WITH_UNIT (LENGTH_MEASURE( 1.000000000000000082E-05 ), #288, 'distance_accuracy_value', 'NONE');
#91 = PRESENTATION_LAYER_ASSIGNMENT (  '', '', ( #257 ) ) ;
#92 = DIRECTION ( 'NONE',  ( 0.000000000000000000, 0.000000000000000000, -1.000000000000000000 ) ) ;
#93 = DIRECTION ( 'NONE',  ( -1.000000000000000000, -3.061616997868383018E-17, 0.000000000000000000 ) ) ;
#94 = ADVANCED_FACE ( 'NONE', ( #198 ), #217, .T. ) ;
#95 = UNCERTAINTY_MEASURE_WITH_UNIT (LENGTH_MEASURE( 1.000000000000000082E-05 ), #125, 'distance_accuracy_value', 'NONE');
#96 = FACE_OUTER_BOUND ( 'NONE', #156, .T. ) ;
#97 = FACE_OUTER_BOUND ( 'NONE', #116, .T. ) ;
#98 = VERTEX_POINT ( 'NONE', #62 ) ;
#99 = CARTESIAN_POINT ( 'NONE',  ( 0.2500000000000000000, 4.000000000000000000, 0.000000000000000000 ) ) ;
#100 = UNCERTAINTY_MEASURE_WITH_UNIT (LENGTH_MEASURE( 1.000000000000000082E-05 ), #164, 'distance_accuracy_value', 'NONE');
#101 = LENGTH_MEASURE_WITH_UNIT ( LENGTH_MEASURE( 0.02539999999999999897 ), #262 );
#102 = PRESENTATION_LAYER_ASSIGNMENT (  '', '', ( #26 ) ) ;
#103 = DIRECTION ( 'NONE',  ( -1.000000000000000000, 0.000000000000000000, 0.000000000000000000 ) ) ;
#104 = DIRECTION ( 'NONE',  ( -3.061616997868383018E-17, 1.000000000000000000, -0.000000000000000000 ) ) ;
#105 = ORIENTED_EDGE ( 'NONE', *, *, #222, .T. ) ;
#106 = SURFACE_STYLE_USAGE ( .BOTH. , #233 ) ;
#107 = ORIENTED_EDGE ( 'NONE', *, *, #215, .F. ) ;
#108 =( LENGTH_UNIT ( ) NAMED_UNIT ( * ) SI_UNIT ( $, .METRE. ) );
#109 = CARTESIAN_POINT ( 'NONE',  ( 0.000000000000000000, 2.000000000000000000, 0.000000000000000000 ) ) ;
#110 = ORIENTED_EDGE ( 'NONE', *, *, #222, .F. ) ;
#111 = PRESENTATION_LAYER_ASSIGNMENT (  '', '', ( #43 ) ) ;
#112 = CIRCLE ( 'NONE', #64, 0.2500000000000000555 ) ;
#113 =( NAMED_UNIT ( * ) SI_UNIT ( $, .STERADIAN. ) SOLID_ANGLE_UNIT ( ) );
#114 = ADVANCED_BREP_SHAPE_REPRESENTATION ( '81844', ( #24, #225, #165 ), #265 ) ;
#115 = ORIENTED_EDGE ( 'NONE', *, *, #49, .T. ) ;
#116 = EDGE_LOOP ( 'NONE', ( #236, #280, #105, #305 ) ) ;
#117 = AXIS2_PLACEMENT_3D ( 'NONE', #129, #201, #86 ) ;
#118 = DIRECTION ( 'NONE',  ( -3.061616997868383018E-17, 1.000000000000000000, 0.000000000000000000 ) ) ;
#119 = VECTOR ( 'NONE', #246, 39.37007874015748143 ) ;
#120 = FILL_AREA_STYLE_COLOUR ( '', #82 ) ;
#121 = SURFACE_SIDE_STYLE ('',( #8 ) ) ;
#122 =( LENGTH_UNIT ( ) NAMED_UNIT ( * ) SI_UNIT ( $, .METRE. ) );
#123 = ORIENTED_EDGE ( 'NONE', *, *, #254, .F. ) ;
#124 = UNCERTAINTY_MEASURE_WITH_UNIT (LENGTH_MEASURE( 1.000000000000000082E-05 ), #187, 'distance_accuracy_value', 'NONE');
#125 =( CONVERSION_BASED_UNIT ( 'INCH', #11 ) LENGTH_UNIT ( ) NAMED_UNIT ( #151 ) );
#126 = DIRECTION ( 'NONE',  ( 0.000000000000000000, 0.000000000000000000, -1.000000000000000000 ) ) ;
#127 = FILL_AREA_STYLE ('',( #77 ) ) ;
#128 = PRESENTATION_STYLE_ASSIGNMENT (( #248 ) ) ;
#129 = CARTESIAN_POINT ( 'NONE',  ( 0.000000000000000000, 2.000000000000000000, 0.000000000000000000 ) ) ;
#130 = LINE ( 'NONE', #42, #21 ) ;
#131 = VERTEX_POINT ( 'NONE', #150 ) ;
#132 = CARTESIAN_POINT ( 'NONE',  ( 0.000000000000000000, 0.000000000000000000, 0.000000000000000000 ) ) ;
#133 = CARTESIAN_POINT ( 'NONE',  ( 3.061616997868383018E-17, 0.000000000000000000, 0.2500000000000000000 ) ) ;
#134 = PRODUCT_DEFINITION_SHAPE ( 'NONE', 'NONE',  #89 ) ;
#135 = CIRCLE ( 'NONE', #117, 0.2500000000000000000 ) ;
#136 = LENGTH_MEASURE_WITH_UNIT ( LENGTH_MEASURE( 0.02539999999999999897 ), #206 );
#137 =( NAMED_UNIT ( * ) SI_UNIT ( $, .STERADIAN. ) SOLID_ANGLE_UNIT ( ) );
#138 = COLOUR_RGB ( '',1.000000000000000000, 0.000000000000000000, 0.000000000000000000 ) ;
#139 = CARTESIAN_POINT ( 'NONE',  ( 0.000000000000000000, 2.000000000000000000, 0.000000000000000000 ) ) ;
#140 = SURFACE_STYLE_USAGE ( .BOTH. , #121 ) ;
#141 = DIRECTION ( 'NONE',  ( -1.000000000000000000, 0.000000000000000000, 0.000000000000000000 ) ) ;
#142 = DIMENSIONAL_EXPONENTS ( 1.000000000000000000, 0.000000000000000000, 0.000000000000000000, 0.000000000000000000, 0.000000000000000000, 0.000000000000000000, 0.000000000000000000 ) ;
#143 = CYLINDRICAL_SURFACE ( 'NONE', #46, 0.2500000000000000000 ) ;
#144 =( LENGTH_UNIT ( ) NAMED_UNIT ( * ) SI_UNIT ( $, .METRE. ) );
#145 = COLOUR_RGB ( '',0.7921568627450980005, 0.8196078431372548767, 0.9333333333333333481 ) ;
#146 = FILL_AREA_STYLE ('',( #220 ) ) ;
#147 = CARTESIAN_POINT ( 'NONE',  ( 0.000000000000000000, 0.000000000000000000, 0.000000000000000000 ) ) ;
#148 = LENGTH_MEASURE_WITH_UNIT ( LENGTH_MEASURE( 0.02539999999999999897 ), #238 );
#149 = ORIENTED_EDGE ( 'NONE', *, *, #157, .F. ) ;
#150 = CARTESIAN_POINT ( 'NONE',  ( 0.000000000000000000, 0.000000000000000000, -0.2500000000000000000 ) ) ;
#151 = DIMENSIONAL_EXPONENTS ( 1.000000000000000000, 0.000000000000000000, 0.000000000000000000, 0.000000000000000000, 0.000000000000000000, 0.000000000000000000, 0.000000000000000000 ) ;
#152 = FILL_AREA_STYLE_COLOUR ( '', #69 ) ;
#153 = STYLED_ITEM ( 'NONE', ( #251 ), #179 ) ;
#154 = DIRECTION ( 'NONE',  ( -0.000000000000000000, -1.000000000000000000, -0.000000000000000000 ) ) ;
#155 = DIRECTION ( 'NONE',  ( 1.000000000000000000, 0.000000000000000000, 0.000000000000000000 ) ) ;
#156 = EDGE_LOOP ( 'NONE', ( #204, #193 ) ) ;
#157 = EDGE_CURVE ( 'NONE', #208, #221, #273, .T. ) ;
#158 = DIRECTION ( 'NONE',  ( 0.000000000000000000, -0.000000000000000000, 1.000000000000000000 ) ) ;
#159 = DIRECTION ( 'NONE',  ( -3.061616997868383018E-17, 1.000000000000000000, -0.000000000000000000 ) ) ;
#160 = ORIENTED_EDGE ( 'NONE', *, *, #301, .F. ) ;
#161 = AXIS2_PLACEMENT_3D ( 'NONE', #210, #47, #92 ) ;
#162 = ADVANCED_FACE ( 'NONE', ( #97 ), #87, .T. ) ;
#163 = CARTESIAN_POINT ( 'NONE',  ( 3.061616997868383018E-17, 2.000000000000000000, 0.2500000000000000000 ) ) ;
#164 =( CONVERSION_BASED_UNIT ( 'INCH', #136 ) LENGTH_UNIT ( ) NAMED_UNIT ( #277 ) );
#165 = AXIS2_PLACEMENT_3D ( 'NONE', #132, #14, #155 ) ;
#166 =( NAMED_UNIT ( * ) PLANE_ANGLE_UNIT ( ) SI_UNIT ( $, .RADIAN. ) );
#167 =( NAMED_UNIT ( * ) PLANE_ANGLE_UNIT ( ) SI_UNIT ( $, .RADIAN. ) );
#168 = EDGE_CURVE ( 'NONE', #23, #98, #130, .T. ) ;
#169 = FILL_AREA_STYLE ('',( #120 ) ) ;
#170 =( LENGTH_UNIT ( ) NAMED_UNIT ( * ) SI_UNIT ( $, .METRE. ) );
#171 = DIRECTION ( 'NONE',  ( -3.061616997868383018E-17, 1.000000000000000000, -0.000000000000000000 ) ) ;
#172 = DIRECTION ( 'NONE',  ( -3.061616997868383018E-17, 1.000000000000000000, -0.000000000000000000 ) ) ;
#173 = VECTOR ( 'NONE', #199, 39.37007874015748143 ) ;
#174 = AXIS2_PLACEMENT_3D ( 'NONE', #306, #304, #183 ) ;
#175 =( NAMED_UNIT ( * ) PLANE_ANGLE_UNIT ( ) SI_UNIT ( $, .RADIAN. ) );
#176 = DIMENSIONAL_EXPONENTS ( 1.000000000000000000, 0.000000000000000000, 0.000000000000000000, 0.000000000000000000, 0.000000000000000000, 0.000000000000000000, 0.000000000000000000 ) ;
#177 =( NAMED_UNIT ( * ) SI_UNIT ( $, .STERADIAN. ) SOLID_ANGLE_UNIT ( ) );
#178 = AXIS2_PLACEMENT_3D ( 'NONE', #139, #235, #103 ) ;
#179 = ADVANCED_FACE ( 'NONE', ( #227 ), #275, .T. ) ;
#180 = DIRECTION ( 'NONE',  ( -1.000000000000000000, 0.000000000000000000, 0.000000000000000000 ) ) ;
#181 =( NAMED_UNIT ( * ) PLANE_ANGLE_UNIT ( ) SI_UNIT ( $, .RADIAN. ) );
#182 = CIRCLE ( 'NONE', #31, 0.2500000000000000000 ) ;
#183 = DIRECTION ( 'NONE',  ( 0.000000000000000000, 0.000000000000000000, -1.000000000000000000 ) ) ;
#184 = EDGE_CURVE ( 'NONE', #131, #271, #308, .T. ) ;
#185 = CIRCLE ( 'NONE', #178, 0.2500000000000000000 ) ;
#186 = MECHANICAL_DESIGN_GEOMETRIC_PRESENTATION_REPRESENTATION (  '', ( #43 ), #19 ) ;
#187 =( CONVERSION_BASED_UNIT ( 'INCH', #51 ) LENGTH_UNIT ( ) NAMED_UNIT ( #142 ) );
#188 = CARTESIAN_POINT ( 'NONE',  ( 0.000000000000000000, 2.000000000000000000, 0.000000000000000000 ) ) ;
#189 = EDGE_LOOP ( 'NONE', ( #228, #207 ) ) ;
#190 = CARTESIAN_POINT ( 'NONE',  ( -0.2500000000000001110, 4.000000000000000000, 0.000000000000000000 ) ) ;
#191 = CYLINDRICAL_SURFACE ( 'NONE', #60, 0.2500000000000000555 ) ;
#192 = COLOUR_RGB ( '',0.7921568627450980005, 0.8196078431372548767, 0.9333333333333333481 ) ;
#193 = ORIENTED_EDGE ( 'NONE', *, *, #293, .T. ) ;
#194 = CARTESIAN_POINT ( 'NONE',  ( 3.061616997868383018E-17, 0.000000000000000000, 0.2500000000000000000 ) ) ;
#195 = CARTESIAN_POINT ( 'NONE',  ( 0.000000000000000000, 0.000000000000000000, 0.000000000000000000 ) ) ;
#196 = EDGE_LOOP ( 'NONE', ( #160, #149 ) ) ;
#197 = DIRECTION ( 'NONE',  ( 1.000000000000000000, 3.061616997868383018E-17, 0.000000000000000000 ) ) ;
#198 = FACE_OUTER_BOUND ( 'NONE', #223, .T. ) ;
#199 = DIRECTION ( 'NONE',  ( -0.000000000000000000, -1.000000000000000000, -0.000000000000000000 ) ) ;
#200 = APPLICATION_PROTOCOL_DEFINITION ( 'draft international standard', 'automotive_design', 1998, #211 ) ;
#201 = DIRECTION ( 'NONE',  ( -0.000000000000000000, -1.000000000000000000, -0.000000000000000000 ) ) ;
#202 = DIMENSIONAL_EXPONENTS ( 1.000000000000000000, 0.000000000000000000, 0.000000000000000000, 0.000000000000000000, 0.000000000000000000, 0.000000000000000000, 0.000000000000000000 ) ;
#203 = DIRECTION ( 'NONE',  ( -3.061616997868383018E-17, 1.000000000000000000, -0.000000000000000000 ) ) ;
#204 = ORIENTED_EDGE ( 'NONE', *, *, #254, .T. ) ;
#205 = PRESENTATION_LAYER_ASSIGNMENT (  '', '', ( #295 ) ) ;
#206 =( LENGTH_UNIT ( ) NAMED_UNIT ( * ) SI_UNIT ( $, .METRE. ) );
#207 = ORIENTED_EDGE ( 'NONE', *, *, #231, .F. ) ;
#208 = VERTEX_POINT ( 'NONE', #163 ) ;
#209 = ORIENTED_EDGE ( 'NONE', *, *, #49, .F. ) ;
#210 = CARTESIAN_POINT ( 'NONE',  ( 0.000000000000000000, 0.000000000000000000, 0.000000000000000000 ) ) ;
#211 = APPLICATION_CONTEXT ( 'automotive_design' ) ;
#212 = ADVANCED_FACE ( 'NONE', ( #259 ), #232, .F. ) ;
#213 = PRESENTATION_LAYER_ASSIGNMENT (  '', '', ( #44 ) ) ;
#214 = DIRECTION ( 'NONE',  ( -0.000000000000000000, -1.000000000000000000, -0.000000000000000000 ) ) ;
#215 = EDGE_CURVE ( 'NONE', #271, #131, #182, .T. ) ;
#216 =( CONVERSION_BASED_UNIT ( 'INCH', #25 ) LENGTH_UNIT ( ) NAMED_UNIT ( #85 ) );
#217 = PLANE ( 'NONE',  #281 ) ;
#218 = SURFACE_SIDE_STYLE ('',( #269 ) ) ;
#219 = FACE_OUTER_BOUND ( 'NONE', #252, .T. ) ;
#220 = FILL_AREA_STYLE_COLOUR ( '', #138 ) ;
#221 = VERTEX_POINT ( 'NONE', #5 ) ;
#222 = EDGE_CURVE ( 'NONE', #35, #302, #57, .T. ) ;
#223 = EDGE_LOOP ( 'NONE', ( #56, #6 ) ) ;
#224 = AXIS2_PLACEMENT_3D ( 'NONE', #109, #36, #158 ) ;
#225 = MANIFOLD_SOLID_BREP ( 'Revolve - Tool Body (Straight Shanked)', #309 ) ;
#226 = APPLICATION_PROTOCOL_DEFINITION ( 'draft international standard', 'automotive_design', 1998, #13 ) ;
#227 = FACE_OUTER_BOUND ( 'NONE', #78, .T. ) ;
#228 = ORIENTED_EDGE ( 'NONE', *, *, #71, .F. ) ;
#229 =( GEOMETRIC_REPRESENTATION_CONTEXT ( 3 ) GLOBAL_UNCERTAINTY_ASSIGNED_CONTEXT ( ( #95 ) ) GLOBAL_UNIT_ASSIGNED_CONTEXT ( ( #125, #166, #4 ) ) REPRESENTATION_CONTEXT ( 'NONE', 'WORKASPACE' ) );
#230 = FILL_AREA_STYLE ('',( #152 ) ) ;
#231 = EDGE_CURVE ( 'NONE', #23, #35, #185, .T. ) ;
#232 = PLANE ( 'NONE',  #256 ) ;
#233 = SURFACE_SIDE_STYLE ('',( #284 ) ) ;
#234 = CIRCLE ( 'NONE', #286, 0.2500000000000000555 ) ;
#235 = DIRECTION ( 'NONE',  ( -3.061616997868383018E-17, 1.000000000000000000, -0.000000000000000000 ) ) ;
#236 = ORIENTED_EDGE ( 'NONE', *, *, #168, .F. ) ;
#237 = FACE_OUTER_BOUND ( 'NONE', #196, .T. ) ;
#238 =( LENGTH_UNIT ( ) NAMED_UNIT ( * ) SI_UNIT ( $, .METRE. ) );
#239 = DIMENSIONAL_EXPONENTS ( 1.000000000000000000, 0.000000000000000000, 0.000000000000000000, 0.000000000000000000, 0.000000000000000000, 0.000000000000000000, 0.000000000000000000 ) ;
#240 = UNCERTAINTY_MEASURE_WITH_UNIT (LENGTH_MEASURE( 1.000000000000000082E-05 ), #247, 'distance_accuracy_value', 'NONE');
#241 =( NAMED_UNIT ( * ) PLANE_ANGLE_UNIT ( ) SI_UNIT ( $, .RADIAN. ) );
#242 = MECHANICAL_DESIGN_GEOMETRIC_PRESENTATION_REPRESENTATION (  '', ( #257 ), #229 ) ;
#243 =( GEOMETRIC_REPRESENTATION_CONTEXT ( 3 ) GLOBAL_UNCERTAINTY_ASSIGNED_CONTEXT ( ( #287 ) ) GLOBAL_UNIT_ASSIGNED_CONTEXT ( ( #216, #167, #52 ) ) REPRESENTATION_CONTEXT ( 'NONE', 'WORKASPACE' ) );
#244 = DIRECTION ( 'NONE',  ( -0.000000000000000000, -1.000000000000000000, -0.000000000000000000 ) ) ;
#245 = COLOUR_RGB ( '',1.000000000000000000, 0.000000000000000000, 0.000000000000000000 ) ;
#246 = DIRECTION ( 'NONE',  ( -3.061616997868383018E-17, 1.000000000000000000, -0.000000000000000000 ) ) ;
#247 =( CONVERSION_BASED_UNIT ( 'INCH', #148 ) LENGTH_UNIT ( ) NAMED_UNIT ( #202 ) );
#248 = SURFACE_STYLE_USAGE ( .BOTH. , #80 ) ;
#249 = CARTESIAN_POINT ( 'NONE',  ( -6.123233995736766036E-17, 4.000000000000000000, 0.000000000000000000 ) ) ;
#250 = AXIS2_PLACEMENT_3D ( 'NONE', #65, #159, #84 ) ;
#251 = PRESENTATION_STYLE_ASSIGNMENT (( #298 ) ) ;
#252 = EDGE_LOOP ( 'NONE', ( #67, #266, #123, #110 ) ) ;
#253 = CARTESIAN_POINT ( 'NONE',  ( -6.123233995736766036E-17, 4.000000000000000000, 0.000000000000000000 ) ) ;
#254 = EDGE_CURVE ( 'NONE', #302, #98, #112, .T. ) ;
#255 = VECTOR ( 'NONE', #154, 39.37007874015748143 ) ;
#256 = AXIS2_PLACEMENT_3D ( 'NONE', #22, #118, #93 ) ;
#257 = STYLED_ITEM ( 'NONE', ( #74 ), #3 ) ;
#258 = ORIENTED_EDGE ( 'NONE', *, *, #157, .T. ) ;
#259 = FACE_OUTER_BOUND ( 'NONE', #189, .T. ) ;
#260 = PRESENTATION_LAYER_ASSIGNMENT (  '', '', ( #153 ) ) ;
#261 = DIRECTION ( 'NONE',  ( 3.061616997868383018E-17, -1.000000000000000000, 0.000000000000000000 ) ) ;
#262 =( LENGTH_UNIT ( ) NAMED_UNIT ( * ) SI_UNIT ( $, .METRE. ) );
#263 = FILL_AREA_STYLE_COLOUR ( '', #245 ) ;
#264 =( GEOMETRIC_REPRESENTATION_CONTEXT ( 3 ) GLOBAL_UNCERTAINTY_ASSIGNED_CONTEXT ( ( #90 ) ) GLOBAL_UNIT_ASSIGNED_CONTEXT ( ( #288, #241, #113 ) ) REPRESENTATION_CONTEXT ( 'NONE', 'WORKASPACE' ) );
#265 =( GEOMETRIC_REPRESENTATION_CONTEXT ( 3 ) GLOBAL_UNCERTAINTY_ASSIGNED_CONTEXT ( ( #16 ) ) GLOBAL_UNIT_ASSIGNED_CONTEXT ( ( #300, #297, #177 ) ) REPRESENTATION_CONTEXT ( 'NONE', 'WORKASPACE' ) );
#266 = ORIENTED_EDGE ( 'NONE', *, *, #168, .T. ) ;
#267 = PRESENTATION_STYLE_ASSIGNMENT (( #55 ) ) ;
#268 = SURFACE_STYLE_FILL_AREA ( #291 ) ;
#269 = SURFACE_STYLE_FILL_AREA ( #169 ) ;
#270 = ADVANCED_FACE ( 'NONE', ( #96 ), #272, .F. ) ;
#271 = VERTEX_POINT ( 'NONE', #194 ) ;
#272 = PLANE ( 'NONE',  #12 ) ;
#273 = CIRCLE ( 'NONE', #39, 0.2500000000000000000 ) ;
#274 = EDGE_LOOP ( 'NONE', ( #209, #258, #88, #107 ) ) ;
#275 = CYLINDRICAL_SURFACE ( 'NONE', #161, 0.2500000000000000000 ) ;
#276 = CARTESIAN_POINT ( 'NONE',  ( 0.000000000000000000, 0.000000000000000000, -0.2500000000000000000 ) ) ;
#277 = DIMENSIONAL_EXPONENTS ( 1.000000000000000000, 0.000000000000000000, 0.000000000000000000, 0.000000000000000000, 0.000000000000000000, 0.000000000000000000, 0.000000000000000000 ) ;
#278 = LENGTH_MEASURE_WITH_UNIT ( LENGTH_MEASURE( 0.02539999999999999897 ), #108 );
#279 = ORIENTED_EDGE ( 'NONE', *, *, #184, .F. ) ;
#280 = ORIENTED_EDGE ( 'NONE', *, *, #231, .T. ) ;
#281 = AXIS2_PLACEMENT_3D ( 'NONE', #195, #81, #290 ) ;
#282 = ADVANCED_FACE ( 'NONE', ( #237 ), #79, .T. ) ;
#283 = FILL_AREA_STYLE_COLOUR ( '', #145 ) ;
#284 = SURFACE_STYLE_FILL_AREA ( #127 ) ;
#285 = DIRECTION ( 'NONE',  ( -1.000000000000000000, 0.000000000000000000, 0.000000000000000000 ) ) ;
#286 = AXIS2_PLACEMENT_3D ( 'NONE', #253, #203, #180 ) ;
#287 = UNCERTAINTY_MEASURE_WITH_UNIT (LENGTH_MEASURE( 1.000000000000000082E-05 ), #216, 'distance_accuracy_value', 'NONE');
#288 =( CONVERSION_BASED_UNIT ( 'INCH', #101 ) LENGTH_UNIT ( ) NAMED_UNIT ( #176 ) );
#289 = ORIENTED_EDGE ( 'NONE', *, *, #301, .T. ) ;
#290 = DIRECTION ( 'NONE',  ( 0.000000000000000000, 0.000000000000000000, -1.000000000000000000 ) ) ;
#291 = FILL_AREA_STYLE ('',( #283 ) ) ;
#292 = PRESENTATION_STYLE_ASSIGNMENT (( #29 ) ) ;
#293 = EDGE_CURVE ( 'NONE', #98, #302, #234, .T. ) ;
#294 = MECHANICAL_DESIGN_GEOMETRIC_PRESENTATION_REPRESENTATION (  '', ( #44 ), #243 ) ;
#295 = STYLED_ITEM ( 'NONE', ( #128 ), #24 ) ;
#296 = LINE ( 'NONE', #276, #255 ) ;
#297 =( NAMED_UNIT ( * ) PLANE_ANGLE_UNIT ( ) SI_UNIT ( $, .RADIAN. ) );
#298 = SURFACE_STYLE_USAGE ( .BOTH. , #83 ) ;
#299 = MECHANICAL_DESIGN_GEOMETRIC_PRESENTATION_REPRESENTATION (  '', ( #153 ), #18 ) ;
#300 =( CONVERSION_BASED_UNIT ( 'INCH', #278 ) LENGTH_UNIT ( ) NAMED_UNIT ( #239 ) );
#301 = EDGE_CURVE ( 'NONE', #221, #208, #135, .T. ) ;
#302 = VERTEX_POINT ( 'NONE', #15 ) ;
#303 = CIRCLE ( 'NONE', #70, 0.2500000000000000000 ) ;
#304 = DIRECTION ( 'NONE',  ( -0.000000000000000000, -1.000000000000000000, -0.000000000000000000 ) ) ;
#305 = ORIENTED_EDGE ( 'NONE', *, *, #293, .F. ) ;
#306 = CARTESIAN_POINT ( 'NONE',  ( 0.000000000000000000, 0.000000000000000000, 0.000000000000000000 ) ) ;
#307 = MECHANICAL_DESIGN_GEOMETRIC_PRESENTATION_REPRESENTATION (  '', ( #295 ), #264 ) ;
#308 = CIRCLE ( 'NONE', #174, 0.2500000000000000000 ) ;
#309 = CLOSED_SHELL ( 'NONE', ( #61, #212, #162, #270 ) ) ;
ENDSEC;
END-ISO-10303-21;
