ISO-10303-21;
HEADER;
FILE_DESCRIPTION (( 'STEP AP214' ),
    '1' );
FILE_NAME ('06045.STEP',
    '2023-07-05T16:00:27',
    ( '' ),
    ( '' ),
    'SwSTEP 2.0',
    'SolidWorks 2023',
    '' );
FILE_SCHEMA (( 'AUTOMOTIVE_DESIGN' ));
ENDSEC;

DATA;
#1 = PRODUCT ( '06045', '06045', '', ( #38 ) ) ;
#2 = DIRECTION ( 'NONE',  ( -1.000000000000000000, 0.000000000000000000, 0.000000000000000000 ) ) ;
#3 = AXIS2_PLACEMENT_3D ( 'NONE', #23, #103, #125 ) ;
#4 =( CONVERSION_BASED_UNIT ( 'INCH', #186 ) LENGTH_UNIT ( ) NAMED_UNIT ( #30 ) );
#5 = FACE_OUTER_BOUND ( 'NONE', #195, .T. ) ;
#6 = VECTOR ( 'NONE', #162, 39.37007874015748854 ) ;
#7 = PLANE ( 'NONE',  #132 ) ;
#8 = DIRECTION ( 'NONE',  ( -1.228345323885430886E-16, 1.000000000000000000, -0.000000000000000000 ) ) ;
#9 = EDGE_CURVE ( 'NONE', #245, #181, #15, .T. ) ;
#10 = CIRCLE ( 'NONE', #233, 0.1249999999999999861 ) ;
#11 = AXIS2_PLACEMENT_3D ( 'NONE', #19, #41, #220 ) ;
#12 =( NAMED_UNIT ( * ) PLANE_ANGLE_UNIT ( ) SI_UNIT ( $, .RADIAN. ) );
#13 = ORIENTED_EDGE ( 'NONE', *, *, #25, .F. ) ;
#14 = SURFACE_STYLE_FILL_AREA ( #135 ) ;
#15 = LINE ( 'NONE', #32, #131 ) ;
#16 = ORIENTED_EDGE ( 'NONE', *, *, #25, .T. ) ;
#17 = CARTESIAN_POINT ( 'NONE',  ( 2.304996744654222029E-16, 0.1249999999999996253, 0.000000000000000000 ) ) ;
#18 = SURFACE_SIDE_STYLE ('',( #110 ) ) ;
#19 = CARTESIAN_POINT ( 'NONE',  ( -6.123233995736766036E-17, 2.500000000000000000, 0.000000000000000000 ) ) ;
#20 = FILL_AREA_STYLE_COLOUR ( '', #113 ) ;
#21 = DIRECTION ( 'NONE',  ( 0.000000000000000000, 1.000000000000000000, 0.000000000000000000 ) ) ;
#22 =( GEOMETRIC_REPRESENTATION_CONTEXT ( 3 ) GLOBAL_UNCERTAINTY_ASSIGNED_CONTEXT ( ( #69 ) ) GLOBAL_UNIT_ASSIGNED_CONTEXT ( ( #4, #138, #33 ) ) REPRESENTATION_CONTEXT ( 'NONE', 'WORKASPACE' ) );
#23 = CARTESIAN_POINT ( 'NONE',  ( -6.123233995736766036E-17, 2.500000000000000000, 0.000000000000000000 ) ) ;
#24 = CARTESIAN_POINT ( 'NONE',  ( -6.123233995736766036E-17, 2.500000000000000000, 0.000000000000000000 ) ) ;
#25 = EDGE_CURVE ( 'NONE', #146, #181, #96, .T. ) ;
#26 = DIRECTION ( 'NONE',  ( -1.228345323885430886E-16, 1.000000000000000000, -0.000000000000000000 ) ) ;
#27 = PRODUCT_DEFINITION_SHAPE ( 'NONE', 'NONE',  #208 ) ;
#28 =( GEOMETRIC_REPRESENTATION_CONTEXT ( 3 ) GLOBAL_UNCERTAINTY_ASSIGNED_CONTEXT ( ( #206 ) ) GLOBAL_UNIT_ASSIGNED_CONTEXT ( ( #65, #223, #148 ) ) REPRESENTATION_CONTEXT ( 'NONE', 'WORKASPACE' ) );
#29 = LENGTH_MEASURE_WITH_UNIT ( LENGTH_MEASURE( 0.02539999999999999897 ), #176 );
#30 = DIMENSIONAL_EXPONENTS ( 1.000000000000000000, 0.000000000000000000, 0.000000000000000000, 0.000000000000000000, 0.000000000000000000, 0.000000000000000000, 0.000000000000000000 ) ;
#31 = EDGE_CURVE ( 'NONE', #100, #50, #10, .T. ) ;
#32 = CARTESIAN_POINT ( 'NONE',  ( 0.1249999999999998335, 2.500000000000000000, 1.530808498934190276E-17 ) ) ;
#33 =( NAMED_UNIT ( * ) SI_UNIT ( $, .STERADIAN. ) SOLID_ANGLE_UNIT ( ) );
#34 = FILL_AREA_STYLE ('',( #75 ) ) ;
#35 = CIRCLE ( 'NONE', #11, 0.1250000000000000555 ) ;
#36 = DIRECTION ( 'NONE',  ( -1.228345323885430886E-16, 1.000000000000000000, -0.000000000000000000 ) ) ;
#37 = ADVANCED_FACE ( 'NONE', ( #121 ), #71, .T. ) ;
#38 = PRODUCT_CONTEXT ( 'NONE', #66, 'mechanical' ) ;
#39 = STYLED_ITEM ( 'NONE', ( #189 ), #116 ) ;
#40 = DIRECTION ( 'NONE',  ( -1.000000000000000000, -1.365923996832134074E-16, 0.000000000000000000 ) ) ;
#41 = DIRECTION ( 'NONE',  ( -1.228345323885430886E-16, 1.000000000000000000, -0.000000000000000000 ) ) ;
#42 =( NAMED_UNIT ( * ) SI_UNIT ( $, .STERADIAN. ) SOLID_ANGLE_UNIT ( ) );
#43 = CARTESIAN_POINT ( 'NONE',  ( 0.000000000000000000, 0.000000000000000000, 0.000000000000000000 ) ) ;
#44 = PLANE ( 'NONE',  #203 ) ;
#45 = PRESENTATION_LAYER_ASSIGNMENT (  '', '', ( #241 ) ) ;
#46 =( NAMED_UNIT ( * ) PLANE_ANGLE_UNIT ( ) SI_UNIT ( $, .RADIAN. ) );
#47 = EDGE_CURVE ( 'NONE', #217, #245, #219, .T. ) ;
#48 = SURFACE_SIDE_STYLE ('',( #92 ) ) ;
#49 = DIMENSIONAL_EXPONENTS ( 1.000000000000000000, 0.000000000000000000, 0.000000000000000000, 0.000000000000000000, 0.000000000000000000, 0.000000000000000000, 0.000000000000000000 ) ;
#50 = VERTEX_POINT ( 'NONE', #129 ) ;
#51 = SURFACE_SIDE_STYLE ('',( #14 ) ) ;
#52 = DIRECTION ( 'NONE',  ( 1.228345323885430886E-16, -1.000000000000000000, 0.000000000000000000 ) ) ;
#53 = COLOUR_RGB ( '',1.000000000000000000, 0.000000000000000000, 0.000000000000000000 ) ;
#54 = SURFACE_STYLE_USAGE ( .BOTH. , #178 ) ;
#55 = ADVANCED_FACE ( 'NONE', ( #262 ), #248, .T. ) ;
#56 = SURFACE_SIDE_STYLE ('',( #242 ) ) ;
#57 = VERTEX_POINT ( 'NONE', #112 ) ;
#58 = AXIS2_PLACEMENT_3D ( 'NONE', #177, #149, #88 ) ;
#59 = ORIENTED_EDGE ( 'NONE', *, *, #188, .T. ) ;
#60 = SHAPE_DEFINITION_REPRESENTATION ( #27, #207 ) ;
#61 = EDGE_CURVE ( 'NONE', #57, #100, #221, .T. ) ;
#62 = VECTOR ( 'NONE', #81, 39.37007874015748854 ) ;
#63 =( CONVERSION_BASED_UNIT ( 'INCH', #145 ) LENGTH_UNIT ( ) NAMED_UNIT ( #173 ) );
#64 =( NAMED_UNIT ( * ) PLANE_ANGLE_UNIT ( ) SI_UNIT ( $, .RADIAN. ) );
#65 =( CONVERSION_BASED_UNIT ( 'INCH', #198 ) LENGTH_UNIT ( ) NAMED_UNIT ( #49 ) );
#66 = APPLICATION_CONTEXT ( 'automotive_design' ) ;
#67 =( NAMED_UNIT ( * ) SI_UNIT ( $, .STERADIAN. ) SOLID_ANGLE_UNIT ( ) );
#68 = UNCERTAINTY_MEASURE_WITH_UNIT (LENGTH_MEASURE( 1.000000000000000082E-05 ), #143, 'distance_accuracy_value', 'NONE');
#69 = UNCERTAINTY_MEASURE_WITH_UNIT (LENGTH_MEASURE( 1.000000000000000082E-05 ), #4, 'distance_accuracy_value', 'NONE');
#70 = PRODUCT_DEFINITION_FORMATION_WITH_SPECIFIED_SOURCE ( 'ANY', '', #1, .NOT_KNOWN. ) ;
#71 = CONICAL_SURFACE ( 'NONE', #58, 39.37007874015762354, 0.7853981633974500554 ) ;
#72 = LINE ( 'NONE', #258, #263 ) ;
#73 = STYLED_ITEM ( 'NONE', ( #117 ), #226 ) ;
#74 =( LENGTH_UNIT ( ) NAMED_UNIT ( * ) SI_UNIT ( $, .METRE. ) );
#75 = FILL_AREA_STYLE_COLOUR ( '', #83 ) ;
#76 = FILL_AREA_STYLE_COLOUR ( '', #53 ) ;
#77 = ORIENTED_EDGE ( 'NONE', *, *, #9, .T. ) ;
#78 = EDGE_CURVE ( 'NONE', #50, #100, #247, .T. ) ;
#79 = DIRECTION ( 'NONE',  ( -0.000000000000000000, -1.000000000000000000, -0.000000000000000000 ) ) ;
#80 = AXIS2_PLACEMENT_3D ( 'NONE', #238, #8, #95 ) ;
#81 = DIRECTION ( 'NONE',  ( 0.000000000000000000, 0.7071067811865462405, 0.7071067811865486830 ) ) ;
#82 = ORIENTED_EDGE ( 'NONE', *, *, #47, .F. ) ;
#83 = COLOUR_RGB ( '',1.000000000000000000, 0.000000000000000000, 0.000000000000000000 ) ;
#84 = ORIENTED_EDGE ( 'NONE', *, *, #9, .F. ) ;
#85 = CARTESIAN_POINT ( 'NONE',  ( 0.000000000000000000, 0.1249999999999995559, 0.000000000000000000 ) ) ;
#86 = CYLINDRICAL_SURFACE ( 'NONE', #3, 0.1249999999999999029 ) ;
#87 = CONICAL_SURFACE ( 'NONE', #211, 39.37007874015762354, 0.7853981633974500554 ) ;
#88 = DIRECTION ( 'NONE',  ( 0.000000000000000000, 0.000000000000000000, 1.000000000000000000 ) ) ;
#89 = CARTESIAN_POINT ( 'NONE',  ( 0.1249999999999999584, 0.1249999999999996392, 1.530808498934190893E-17 ) ) ;
#90 = DIRECTION ( 'NONE',  ( -1.000000000000000000, -1.365923996832134074E-16, 0.000000000000000000 ) ) ;
#91 = CARTESIAN_POINT ( 'NONE',  ( 0.000000000000000000, 0.1249999999999995559, 0.000000000000000000 ) ) ;
#92 = SURFACE_STYLE_FILL_AREA ( #114 ) ;
#93 = DIRECTION ( 'NONE',  ( -1.228345323885430886E-16, 1.000000000000000000, -0.000000000000000000 ) ) ;
#94 = CARTESIAN_POINT ( 'NONE',  ( 0.1249999999999999861, 2.500000000000000000, 0.000000000000000000 ) ) ;
#95 = DIRECTION ( 'NONE',  ( -1.000000000000000000, 0.000000000000000000, 0.000000000000000000 ) ) ;
#96 = CIRCLE ( 'NONE', #80, 0.1250000000000000555 ) ;
#97 = MECHANICAL_DESIGN_GEOMETRIC_PRESENTATION_REPRESENTATION (  '', ( #39 ), #22 ) ;
#98 = ORIENTED_EDGE ( 'NONE', *, *, #252, .T. ) ;
#99 =( NAMED_UNIT ( * ) SI_UNIT ( $, .STERADIAN. ) SOLID_ANGLE_UNIT ( ) );
#100 = VERTEX_POINT ( 'NONE', #224 ) ;
#101 = FACE_OUTER_BOUND ( 'NONE', #141, .T. ) ;
#102 = ORIENTED_EDGE ( 'NONE', *, *, #31, .T. ) ;
#103 = DIRECTION ( 'NONE',  ( -1.228345323885430886E-16, 1.000000000000000000, -0.000000000000000000 ) ) ;
#104 = ORIENTED_EDGE ( 'NONE', *, *, #31, .F. ) ;
#105 =( NAMED_UNIT ( * ) SI_UNIT ( $, .STERADIAN. ) SOLID_ANGLE_UNIT ( ) );
#106 = SURFACE_STYLE_USAGE ( .BOTH. , #18 ) ;
#107 =( LENGTH_UNIT ( ) NAMED_UNIT ( * ) SI_UNIT ( $, .METRE. ) );
#108 = CLOSED_SHELL ( 'NONE', ( #237, #152, #55, #191 ) ) ;
#109 = AXIS2_PLACEMENT_3D ( 'NONE', #85, #21, #201 ) ;
#110 = SURFACE_STYLE_FILL_AREA ( #246 ) ;
#111 = AXIS2_PLACEMENT_3D ( 'NONE', #225, #205, #40 ) ;
#112 = CARTESIAN_POINT ( 'NONE',  ( 0.000000000000000000, 0.000000000000000000, 0.000000000000000000 ) ) ;
#113 = COLOUR_RGB ( '',0.7921568627450980005, 0.8196078431372548767, 0.9333333333333333481 ) ;
#114 = FILL_AREA_STYLE ('',( #204 ) ) ;
#115 = MANIFOLD_SOLID_BREP ( 'Revolve - Tool Body (Pointed)', #108 ) ;
#116 = MANIFOLD_SOLID_BREP ( 'Revolve - Cutting Edge', #153 ) ;
#117 = PRESENTATION_STYLE_ASSIGNMENT (( #218 ) ) ;
#118 = MECHANICAL_DESIGN_GEOMETRIC_PRESENTATION_REPRESENTATION (  '', ( #241 ), #250 ) ;
#119 = EDGE_LOOP ( 'NONE', ( #161, #77, #13, #192 ) ) ;
#120 = CARTESIAN_POINT ( 'NONE',  ( 0.000000000000000000, 0.1249999999999995559, 0.000000000000000000 ) ) ;
#121 = FACE_OUTER_BOUND ( 'NONE', #137, .T. ) ;
#122 = DIRECTION ( 'NONE',  ( 1.000000000000000000, 1.228345323885430886E-16, 0.000000000000000000 ) ) ;
#123 = COLOUR_RGB ( '',1.000000000000000000, 0.000000000000000000, 0.000000000000000000 ) ;
#124 = DIRECTION ( 'NONE',  ( 0.000000000000000000, 0.000000000000000000, -1.000000000000000000 ) ) ;
#125 = DIRECTION ( 'NONE',  ( -1.000000000000000000, 0.000000000000000000, 0.000000000000000000 ) ) ;
#126 =( CONVERSION_BASED_UNIT ( 'INCH', #264 ) LENGTH_UNIT ( ) NAMED_UNIT ( #190 ) );
#127 = FACE_OUTER_BOUND ( 'NONE', #119, .T. ) ;
#128 = DIRECTION ( 'NONE',  ( -1.228345323885430886E-16, 1.000000000000000000, -0.000000000000000000 ) ) ;
#129 = CARTESIAN_POINT ( 'NONE',  ( 0.000000000000000000, 0.1249999999999995559, 0.1249999999999999861 ) ) ;
#130 = PRODUCT_DEFINITION_CONTEXT ( 'detailed design', #175, 'design' ) ;
#131 = VECTOR ( 'NONE', #36, 39.37007874015748143 ) ;
#132 = AXIS2_PLACEMENT_3D ( 'NONE', #94, #52, #122 ) ;
#133 =( GEOMETRIC_REPRESENTATION_CONTEXT ( 3 ) GLOBAL_UNCERTAINTY_ASSIGNED_CONTEXT ( ( #227 ) ) GLOBAL_UNIT_ASSIGNED_CONTEXT ( ( #142, #12, #99 ) ) REPRESENTATION_CONTEXT ( 'NONE', 'WORKASPACE' ) );
#134 = AXIS2_PLACEMENT_3D ( 'NONE', #91, #168, #124 ) ;
#135 = FILL_AREA_STYLE ('',( #76 ) ) ;
#136 = CARTESIAN_POINT ( 'NONE',  ( 0.000000000000000000, 39.37007874015748143, 0.000000000000000000 ) ) ;
#137 = EDGE_LOOP ( 'NONE', ( #155, #197, #102 ) ) ;
#138 =( NAMED_UNIT ( * ) PLANE_ANGLE_UNIT ( ) SI_UNIT ( $, .RADIAN. ) );
#139 = ORIENTED_EDGE ( 'NONE', *, *, #251, .T. ) ;
#140 = CARTESIAN_POINT ( 'NONE',  ( 0.1249999999999999861, 2.500000000000000000, 1.530808498934191201E-17 ) ) ;
#141 = EDGE_LOOP ( 'NONE', ( #82, #240 ) ) ;
#142 =( CONVERSION_BASED_UNIT ( 'INCH', #29 ) LENGTH_UNIT ( ) NAMED_UNIT ( #209 ) );
#143 =( CONVERSION_BASED_UNIT ( 'INCH', #243 ) LENGTH_UNIT ( ) NAMED_UNIT ( #213 ) );
#144 = PRODUCT_RELATED_PRODUCT_CATEGORY ( 'part', '', ( #1 ) ) ;
#145 = LENGTH_MEASURE_WITH_UNIT ( LENGTH_MEASURE( 0.02539999999999999897 ), #150 );
#146 = VERTEX_POINT ( 'NONE', #234 ) ;
#147 = STYLED_ITEM ( 'NONE', ( #231 ), #184 ) ;
#148 =( NAMED_UNIT ( * ) SI_UNIT ( $, .STERADIAN. ) SOLID_ANGLE_UNIT ( ) );
#149 = DIRECTION ( 'NONE',  ( 0.000000000000000000, 1.000000000000000000, 0.000000000000000000 ) ) ;
#150 =( LENGTH_UNIT ( ) NAMED_UNIT ( * ) SI_UNIT ( $, .METRE. ) );
#151 = PRESENTATION_LAYER_ASSIGNMENT (  '', '', ( #73 ) ) ;
#152 = ADVANCED_FACE ( 'NONE', ( #101 ), #44, .F. ) ;
#153 = CLOSED_SHELL ( 'NONE', ( #37, #226, #184 ) ) ;
#154 = FILL_AREA_STYLE ('',( #236 ) ) ;
#155 = ORIENTED_EDGE ( 'NONE', *, *, #199, .F. ) ;
#156 = PLANE ( 'NONE',  #109 ) ;
#157 = ORIENTED_EDGE ( 'NONE', *, *, #61, .F. ) ;
#158 = DIRECTION ( 'NONE',  ( -1.228345323885430886E-16, 1.000000000000000000, 0.000000000000000000 ) ) ;
#159 =( LENGTH_UNIT ( ) NAMED_UNIT ( * ) SI_UNIT ( $, .METRE. ) );
#160 = DIRECTION ( 'NONE',  ( 0.000000000000000000, 0.000000000000000000, 1.000000000000000000 ) ) ;
#161 = ORIENTED_EDGE ( 'NONE', *, *, #47, .T. ) ;
#162 = DIRECTION ( 'NONE',  ( 8.659560562354947649E-17, 0.7071067811865462405, -0.7071067811865486830 ) ) ;
#163 = UNCERTAINTY_MEASURE_WITH_UNIT (LENGTH_MEASURE( 1.000000000000000082E-05 ), #63, 'distance_accuracy_value', 'NONE');
#164 = CIRCLE ( 'NONE', #232, 0.1249999999999997641 ) ;
#165 = PRESENTATION_LAYER_ASSIGNMENT (  '', '', ( #171 ) ) ;
#166 = DIRECTION ( 'NONE',  ( 0.000000000000000000, 0.000000000000000000, 1.000000000000000000 ) ) ;
#167 = MECHANICAL_DESIGN_GEOMETRIC_PRESENTATION_REPRESENTATION (  '', ( #73 ), #28 ) ;
#168 = DIRECTION ( 'NONE',  ( -0.000000000000000000, -1.000000000000000000, -0.000000000000000000 ) ) ;
#169 =( LENGTH_UNIT ( ) NAMED_UNIT ( * ) SI_UNIT ( $, .METRE. ) );
#170 = MECHANICAL_DESIGN_GEOMETRIC_PRESENTATION_REPRESENTATION (  '', ( #147 ), #133 ) ;
#171 = STYLED_ITEM ( 'NONE', ( #180 ), #37 ) ;
#172 = SURFACE_STYLE_USAGE ( .BOTH. , #51 ) ;
#173 = DIMENSIONAL_EXPONENTS ( 1.000000000000000000, 0.000000000000000000, 0.000000000000000000, 0.000000000000000000, 0.000000000000000000, 0.000000000000000000, 0.000000000000000000 ) ;
#174 = EDGE_LOOP ( 'NONE', ( #214, #104 ) ) ;
#175 = APPLICATION_CONTEXT ( 'automotive_design' ) ;
#176 =( LENGTH_UNIT ( ) NAMED_UNIT ( * ) SI_UNIT ( $, .METRE. ) );
#177 = CARTESIAN_POINT ( 'NONE',  ( 0.000000000000000000, 39.37007874015748143, 0.000000000000000000 ) ) ;
#178 = SURFACE_SIDE_STYLE ('',( #257 ) ) ;
#179 = LINE ( 'NONE', #254, #62 ) ;
#180 = PRESENTATION_STYLE_ASSIGNMENT (( #54 ) ) ;
#181 = VERTEX_POINT ( 'NONE', #140 ) ;
#182 =( GEOMETRIC_REPRESENTATION_CONTEXT ( 3 ) GLOBAL_UNCERTAINTY_ASSIGNED_CONTEXT ( ( #163 ) ) GLOBAL_UNIT_ASSIGNED_CONTEXT ( ( #63, #202, #105 ) ) REPRESENTATION_CONTEXT ( 'NONE', 'WORKASPACE' ) );
#183 = PRESENTATION_STYLE_ASSIGNMENT (( #106 ) ) ;
#184 = ADVANCED_FACE ( 'NONE', ( #5 ), #87, .T. ) ;
#185 = CARTESIAN_POINT ( 'NONE',  ( 0.000000000000000000, 0.000000000000000000, 0.000000000000000000 ) ) ;
#186 = LENGTH_MEASURE_WITH_UNIT ( LENGTH_MEASURE( 0.02539999999999999897 ), #169 );
#187 = PRESENTATION_LAYER_ASSIGNMENT (  '', '', ( #147 ) ) ;
#188 = EDGE_CURVE ( 'NONE', #217, #146, #72, .T. ) ;
#189 = PRESENTATION_STYLE_ASSIGNMENT (( #210 ) ) ;
#190 = DIMENSIONAL_EXPONENTS ( 1.000000000000000000, 0.000000000000000000, 0.000000000000000000, 0.000000000000000000, 0.000000000000000000, 0.000000000000000000, 0.000000000000000000 ) ;
#191 = ADVANCED_FACE ( 'NONE', ( #216 ), #7, .F. ) ;
#192 = ORIENTED_EDGE ( 'NONE', *, *, #188, .F. ) ;
#193 = DIRECTION ( 'NONE',  ( 0.000000000000000000, 1.000000000000000000, 0.000000000000000000 ) ) ;
#194 = ORIENTED_EDGE ( 'NONE', *, *, #199, .T. ) ;
#195 = EDGE_LOOP ( 'NONE', ( #157, #194, #260 ) ) ;
#196 = ORIENTED_EDGE ( 'NONE', *, *, #251, .F. ) ;
#197 = ORIENTED_EDGE ( 'NONE', *, *, #61, .T. ) ;
#198 = LENGTH_MEASURE_WITH_UNIT ( LENGTH_MEASURE( 0.02539999999999999897 ), #74 );
#199 = EDGE_CURVE ( 'NONE', #57, #50, #179, .T. ) ;
#200 = CARTESIAN_POINT ( 'NONE',  ( 2.304996744654222029E-16, 0.1249999999999995559, 0.000000000000000000 ) ) ;
#201 = DIRECTION ( 'NONE',  ( 0.000000000000000000, -0.000000000000000000, 1.000000000000000000 ) ) ;
#202 =( NAMED_UNIT ( * ) PLANE_ANGLE_UNIT ( ) SI_UNIT ( $, .RADIAN. ) );
#203 = AXIS2_PLACEMENT_3D ( 'NONE', #200, #158, #239 ) ;
#204 = FILL_AREA_STYLE_COLOUR ( '', #222 ) ;
#205 = DIRECTION ( 'NONE',  ( -1.228345323885430886E-16, 1.000000000000000000, -0.000000000000000000 ) ) ;
#206 = UNCERTAINTY_MEASURE_WITH_UNIT (LENGTH_MEASURE( 1.000000000000000082E-05 ), #65, 'distance_accuracy_value', 'NONE');
#207 = ADVANCED_BREP_SHAPE_REPRESENTATION ( '06045', ( #116, #115, #215 ), #182 ) ;
#208 = PRODUCT_DEFINITION ( 'UNKNOWN', '', #70, #130 ) ;
#209 = DIMENSIONAL_EXPONENTS ( 1.000000000000000000, 0.000000000000000000, 0.000000000000000000, 0.000000000000000000, 0.000000000000000000, 0.000000000000000000, 0.000000000000000000 ) ;
#210 = SURFACE_STYLE_USAGE ( .BOTH. , #48 ) ;
#211 = AXIS2_PLACEMENT_3D ( 'NONE', #136, #193, #160 ) ;
#212 = MECHANICAL_DESIGN_GEOMETRIC_PRESENTATION_REPRESENTATION (  '', ( #171 ), #230 ) ;
#213 = DIMENSIONAL_EXPONENTS ( 1.000000000000000000, 0.000000000000000000, 0.000000000000000000, 0.000000000000000000, 0.000000000000000000, 0.000000000000000000, 0.000000000000000000 ) ;
#214 = ORIENTED_EDGE ( 'NONE', *, *, #78, .F. ) ;
#215 = AXIS2_PLACEMENT_3D ( 'NONE', #43, #166, #244 ) ;
#216 = FACE_OUTER_BOUND ( 'NONE', #235, .T. ) ;
#217 = VERTEX_POINT ( 'NONE', #255 ) ;
#218 = SURFACE_STYLE_USAGE ( .BOTH. , #56 ) ;
#219 = CIRCLE ( 'NONE', #111, 0.1249999999999997641 ) ;
#220 = DIRECTION ( 'NONE',  ( -1.000000000000000000, 0.000000000000000000, 0.000000000000000000 ) ) ;
#221 = LINE ( 'NONE', #185, #6 ) ;
#222 = COLOUR_RGB ( '',0.7921568627450980005, 0.8196078431372548767, 0.9333333333333333481 ) ;
#223 =( NAMED_UNIT ( * ) PLANE_ANGLE_UNIT ( ) SI_UNIT ( $, .RADIAN. ) );
#224 = CARTESIAN_POINT ( 'NONE',  ( 1.530808498934191509E-17, 0.1249999999999995559, -0.1249999999999999861 ) ) ;
#225 = CARTESIAN_POINT ( 'NONE',  ( 2.304996744654222029E-16, 0.1249999999999996253, 0.000000000000000000 ) ) ;
#226 = ADVANCED_FACE ( 'NONE', ( #259 ), #156, .T. ) ;
#227 = UNCERTAINTY_MEASURE_WITH_UNIT (LENGTH_MEASURE( 1.000000000000000082E-05 ), #142, 'distance_accuracy_value', 'NONE');
#228 = PRESENTATION_LAYER_ASSIGNMENT (  '', '', ( #39 ) ) ;
#229 = UNCERTAINTY_MEASURE_WITH_UNIT (LENGTH_MEASURE( 1.000000000000000082E-05 ), #126, 'distance_accuracy_value', 'NONE');
#230 =( GEOMETRIC_REPRESENTATION_CONTEXT ( 3 ) GLOBAL_UNCERTAINTY_ASSIGNED_CONTEXT ( ( #68 ) ) GLOBAL_UNIT_ASSIGNED_CONTEXT ( ( #143, #46, #67 ) ) REPRESENTATION_CONTEXT ( 'NONE', 'WORKASPACE' ) );
#231 = PRESENTATION_STYLE_ASSIGNMENT (( #172 ) ) ;
#232 = AXIS2_PLACEMENT_3D ( 'NONE', #17, #128, #90 ) ;
#233 = AXIS2_PLACEMENT_3D ( 'NONE', #120, #79, #256 ) ;
#234 = CARTESIAN_POINT ( 'NONE',  ( -0.1250000000000001110, 2.500000000000000000, 0.000000000000000000 ) ) ;
#235 = EDGE_LOOP ( 'NONE', ( #16, #139 ) ) ;
#236 = FILL_AREA_STYLE_COLOUR ( '', #123 ) ;
#237 = ADVANCED_FACE ( 'NONE', ( #127 ), #86, .T. ) ;
#238 = CARTESIAN_POINT ( 'NONE',  ( -6.123233995736766036E-17, 2.500000000000000000, 0.000000000000000000 ) ) ;
#239 = DIRECTION ( 'NONE',  ( -1.000000000000000000, -1.228345323885430886E-16, 0.000000000000000000 ) ) ;
#240 = ORIENTED_EDGE ( 'NONE', *, *, #252, .F. ) ;
#241 = STYLED_ITEM ( 'NONE', ( #183 ), #115 ) ;
#242 = SURFACE_STYLE_FILL_AREA ( #154 ) ;
#243 = LENGTH_MEASURE_WITH_UNIT ( LENGTH_MEASURE( 0.02539999999999999897 ), #159 );
#244 = DIRECTION ( 'NONE',  ( 1.000000000000000000, 0.000000000000000000, 0.000000000000000000 ) ) ;
#245 = VERTEX_POINT ( 'NONE', #89 ) ;
#246 = FILL_AREA_STYLE ('',( #20 ) ) ;
#247 = CIRCLE ( 'NONE', #134, 0.1249999999999999861 ) ;
#248 = CYLINDRICAL_SURFACE ( 'NONE', #253, 0.1249999999999999029 ) ;
#249 = APPLICATION_PROTOCOL_DEFINITION ( 'draft international standard', 'automotive_design', 1998, #66 ) ;
#250 =( GEOMETRIC_REPRESENTATION_CONTEXT ( 3 ) GLOBAL_UNCERTAINTY_ASSIGNED_CONTEXT ( ( #229 ) ) GLOBAL_UNIT_ASSIGNED_CONTEXT ( ( #126, #64, #42 ) ) REPRESENTATION_CONTEXT ( 'NONE', 'WORKASPACE' ) );
#251 = EDGE_CURVE ( 'NONE', #181, #146, #35, .T. ) ;
#252 = EDGE_CURVE ( 'NONE', #245, #217, #164, .T. ) ;
#253 = AXIS2_PLACEMENT_3D ( 'NONE', #24, #26, #2 ) ;
#254 = CARTESIAN_POINT ( 'NONE',  ( 0.000000000000000000, 0.000000000000000000, 0.000000000000000000 ) ) ;
#255 = CARTESIAN_POINT ( 'NONE',  ( -0.1249999999999995143, 0.1249999999999996114, 0.000000000000000000 ) ) ;
#256 = DIRECTION ( 'NONE',  ( 0.000000000000000000, 0.000000000000000000, -1.000000000000000000 ) ) ;
#257 = SURFACE_STYLE_FILL_AREA ( #34 ) ;
#258 = CARTESIAN_POINT ( 'NONE',  ( -0.1249999999999999584, 2.500000000000000000, 0.000000000000000000 ) ) ;
#259 = FACE_OUTER_BOUND ( 'NONE', #174, .T. ) ;
#260 = ORIENTED_EDGE ( 'NONE', *, *, #78, .T. ) ;
#261 = EDGE_LOOP ( 'NONE', ( #84, #98, #59, #196 ) ) ;
#262 = FACE_OUTER_BOUND ( 'NONE', #261, .T. ) ;
#263 = VECTOR ( 'NONE', #93, 39.37007874015748143 ) ;
#264 = LENGTH_MEASURE_WITH_UNIT ( LENGTH_MEASURE( 0.02539999999999999897 ), #107 );
#265 = APPLICATION_PROTOCOL_DEFINITION ( 'draft international standard', 'automotive_design', 1998, #175 ) ;
ENDSEC;
END-ISO-10303-21;
