ISO-10303-21;
HEADER;
FILE_DESCRIPTION (( 'STEP AP214' ),
    '1' );
FILE_NAME ('Micro_SBM-500-2.STEP',
    '2021-09-02T17:02:33',
    ( '' ),
    ( '' ),
    'SwSTEP 2.0',
    'SolidWorks 2020',
    '' );
FILE_SCHEMA (( 'AUTOMOTIVE_DESIGN' ));
ENDSEC;

DATA;
#1 = DIRECTION ( 'NONE',  ( -1.000000000000000000, 0.0000000000000000000, 0.0000000000000000000 ) ) ;
#2 = DIRECTION ( 'NONE',  ( 0.0000000000000000000, 0.0000000000000000000, 1.000000000000000000 ) ) ;
#3 = ORIENTED_EDGE ( 'NONE', *, *, #332, .F. ) ;
#4 = CARTESIAN_POINT ( 'NONE',  ( 0.0000000000000000000, 0.0000000000000000000, 4.000000000000000000 ) ) ;
#5 = ADVANCED_FACE ( 'NONE', ( #296 ), #125, .T. ) ;
#6 = DIRECTION ( 'NONE',  ( 1.000000000000000000, 0.0000000000000000000, 0.0000000000000000000 ) ) ;
#7 = AXIS2_PLACEMENT_3D ( 'NONE', #278, #326, #196 ) ;
#8 = CARTESIAN_POINT ( 'NONE',  ( 0.0000000000000000000, 1.530808498934191201E-17, 3.414809992080329023E-17 ) ) ;
#9 = DIRECTION ( 'NONE',  ( 0.0000000000000000000, 0.0000000000000000000, -1.000000000000000000 ) ) ;
#10 = ORIENTED_EDGE ( 'NONE', *, *, #53, .F. ) ;
#11 = AXIS2_PLACEMENT_3D ( 'NONE', #77, #28, #269 ) ;
#12 = CIRCLE ( 'NONE', #244, 0.2500000000000000000 ) ;
#13 = FILL_AREA_STYLE_COLOUR ( '', #154 ) ;
#14 = EDGE_CURVE ( 'NONE', #201, #182, #79, .T. ) ;
#15 =( CONVERSION_BASED_UNIT ( 'INCH', #239 ) LENGTH_UNIT ( ) NAMED_UNIT ( #163 ) );
#16 = UNCERTAINTY_MEASURE_WITH_UNIT (LENGTH_MEASURE( 1.000000000000000082E-05 ), #198, 'distance_accuracy_value', 'NONE');
#17 = EDGE_LOOP ( 'NONE', ( #213, #69, #311, #100, #211 ) ) ;
#18 = AXIS2_PLACEMENT_3D ( 'NONE', #168, #36, #190 ) ;
#19 = CARTESIAN_POINT ( 'NONE',  ( 0.0000000000000000000, 0.0000000000000000000, 0.0000000000000000000 ) ) ;
#20 = ADVANCED_BREP_SHAPE_REPRESENTATION ( 'Micro_SBM-500-2', ( #270, #181 ), #200 ) ;
#21 = EDGE_CURVE ( 'NONE', #205, #93, #123, .T. ) ;
#22 = ORIENTED_EDGE ( 'NONE', *, *, #183, .F. ) ;
#23 = APPLICATION_PROTOCOL_DEFINITION ( 'draft international standard', 'automotive_design', 1998, #319 ) ;
#24 = ORIENTED_EDGE ( 'NONE', *, *, #21, .F. ) ;
#25 = AXIS2_PLACEMENT_3D ( 'NONE', #340, #27, #341 ) ;
#26 = DIRECTION ( 'NONE',  ( 0.0000000000000000000, 0.0000000000000000000, 1.000000000000000000 ) ) ;
#27 = DIRECTION ( 'NONE',  ( 0.0000000000000000000, 0.0000000000000000000, -1.000000000000000000 ) ) ;
#28 = DIRECTION ( 'NONE',  ( -0.0000000000000000000, -0.0000000000000000000, -1.000000000000000000 ) ) ;
#29 = DIRECTION ( 'NONE',  ( -0.0000000000000000000, -0.0000000000000000000, -1.000000000000000000 ) ) ;
#30 = ORIENTED_EDGE ( 'NONE', *, *, #252, .F. ) ;
#31 = FACE_OUTER_BOUND ( 'NONE', #224, .T. ) ;
#32 = VECTOR ( 'NONE', #54, 39.37007874015748143 ) ;
#33 = EDGE_CURVE ( 'NONE', #337, #283, #304, .T. ) ;
#34 = CYLINDRICAL_SURFACE ( 'NONE', #161, 0.2500000000000000000 ) ;
#35 = LINE ( 'NONE', #89, #250 ) ;
#36 = DIRECTION ( 'NONE',  ( 0.0000000000000000000, 0.0000000000000000000, 1.000000000000000000 ) ) ;
#37 = CLOSED_SHELL ( 'NONE', ( #248, #179, #95, #228, #62, #235, #310, #164, #115, #137, #5 ) ) ;
#38 = AXIS2_PLACEMENT_3D ( 'NONE', #285, #176, #71 ) ;
#39 = DIRECTION ( 'NONE',  ( -1.000000000000000000, 0.0000000000000000000, 0.0000000000000000000 ) ) ;
#40 = SURFACE_SIDE_STYLE ('',( #145 ) ) ;
#41 = VECTOR ( 'NONE', #29, 39.37007874015748143 ) ;
#42 = CIRCLE ( 'NONE', #188, 0.1999999999999999278 ) ;
#43 = CARTESIAN_POINT ( 'NONE',  ( 0.0000000000000000000, 0.0000000000000000000, 0.2500000000000000000 ) ) ;
#44 = EDGE_CURVE ( 'NONE', #93, #149, #295, .T. ) ;
#45 = VERTEX_POINT ( 'NONE', #246 ) ;
#46 = LINE ( 'NONE', #116, #327 ) ;
#47 = AXIS2_PLACEMENT_3D ( 'NONE', #157, #289, #48 ) ;
#48 = DIRECTION ( 'NONE',  ( -1.000000000000000000, 0.0000000000000000000, 0.0000000000000000000 ) ) ;
#49 = DIRECTION ( 'NONE',  ( 1.000000000000000000, 0.0000000000000000000, 0.0000000000000000000 ) ) ;
#50 = ORIENTED_EDGE ( 'NONE', *, *, #14, .F. ) ;
#51 = CARTESIAN_POINT ( 'NONE',  ( -0.2749999999999998002, 3.367778697655218793E-17, 1.799999999999997158 ) ) ;
#52 = VERTEX_POINT ( 'NONE', #320 ) ;
#53 = EDGE_CURVE ( 'NONE', #52, #233, #241, .T. ) ;
#54 = DIRECTION ( 'NONE',  ( -0.0000000000000000000, -0.0000000000000000000, -1.000000000000000000 ) ) ;
#55 = CARTESIAN_POINT ( 'NONE',  ( -0.2500000000000000000, 3.061616997868383018E-17, 1.500000000000000222 ) ) ;
#56 = EDGE_CURVE ( 'NONE', #45, #233, #58, .T. ) ;
#57 = CARTESIAN_POINT ( 'NONE',  ( -0.1999999999999999278, 0.0000000000000000000, 0.0000000000000000000 ) ) ;
#58 = CIRCLE ( 'NONE', #148, 0.2500000000000000000 ) ;
#59 = PRODUCT_DEFINITION_SHAPE ( 'NONE', 'NONE',  #317 ) ;
#60 = CARTESIAN_POINT ( 'NONE',  ( 0.0000000000000000000, 0.0000000000000000000, 4.000000000000000000 ) ) ;
#61 = DIRECTION ( 'NONE',  ( -0.0000000000000000000, -0.0000000000000000000, -1.000000000000000000 ) ) ;
#62 = ADVANCED_FACE ( 'NONE', ( #243 ), #268, .T. ) ;
#63 = CARTESIAN_POINT ( 'NONE',  ( 0.2500000000000000000, 3.061616997868383018E-17, 3.985000000000000320 ) ) ;
#64 = VECTOR ( 'NONE', #153, 39.37007874015748854 ) ;
#65 = STYLED_ITEM ( 'NONE', ( #72 ), #20 ) ;
#66 = CARTESIAN_POINT ( 'NONE',  ( 0.0000000000000000000, 0.0000000000000000000, 0.2500000000000000000 ) ) ;
#67 = DIRECTION ( 'NONE',  ( 0.0000000000000000000, 0.0000000000000000000, 1.000000000000000000 ) ) ;
#68 = PRODUCT_DEFINITION_CONTEXT ( 'detailed design', #291, 'design' ) ;
#69 = ORIENTED_EDGE ( 'NONE', *, *, #14, .T. ) ;
#70 = EDGE_CURVE ( 'NONE', #93, #45, #316, .T. ) ;
#71 = DIRECTION ( 'NONE',  ( 1.000000000000000000, 0.0000000000000000000, 0.0000000000000000000 ) ) ;
#72 = PRESENTATION_STYLE_ASSIGNMENT (( #122 ) ) ;
#73 = ORIENTED_EDGE ( 'NONE', *, *, #287, .F. ) ;
#74 = AXIS2_PLACEMENT_3D ( 'NONE', #142, #67, #281 ) ;
#75 =( CONVERSION_BASED_UNIT ( 'INCH', #151 ) LENGTH_UNIT ( ) NAMED_UNIT ( #194 ) );
#76 = EDGE_LOOP ( 'NONE', ( #159, #238, #247, #102 ) ) ;
#77 = CARTESIAN_POINT ( 'NONE',  ( 0.0000000000000000000, 0.0000000000000000000, 0.3999999999999999667 ) ) ;
#78 = SURFACE_SIDE_STYLE ('',( #99 ) ) ;
#79 = LINE ( 'NONE', #219, #41 ) ;
#80 = CARTESIAN_POINT ( 'NONE',  ( 0.0000000000000000000, 0.0000000000000000000, 0.2500000000000000000 ) ) ;
#81 = ORIENTED_EDGE ( 'NONE', *, *, #332, .T. ) ;
#82 = DIRECTION ( 'NONE',  ( 0.0000000000000000000, 0.0000000000000000000, 1.000000000000000000 ) ) ;
#83 = EDGE_CURVE ( 'NONE', #283, #144, #267, .T. ) ;
#84 = DIRECTION ( 'NONE',  ( -0.0000000000000000000, -0.0000000000000000000, -1.000000000000000000 ) ) ;
#85 = CYLINDRICAL_SURFACE ( 'NONE', #7, 0.2500000000000000000 ) ;
#86 = ORIENTED_EDGE ( 'NONE', *, *, #33, .F. ) ;
#87 = CARTESIAN_POINT ( 'NONE',  ( 0.2350000000000006251, 2.969768487932335429E-17, 4.000000000000000000 ) ) ;
#88 = EDGE_CURVE ( 'NONE', #149, #93, #12, .T. ) ;
#89 = CARTESIAN_POINT ( 'NONE',  ( -0.2350000000000006251, 0.0000000000000000000, 4.000000000000000000 ) ) ;
#90 = CONICAL_SURFACE ( 'NONE', #18, 0.2749999999999998002, 0.08314123188844135814 ) ;
#91 = PRESENTATION_STYLE_ASSIGNMENT (( #336 ) ) ;
#92 = CIRCLE ( 'NONE', #240, 0.2500000000000000000 ) ;
#93 = VERTEX_POINT ( 'NONE', #63 ) ;
#94 = DIRECTION ( 'NONE',  ( -0.0000000000000000000, -0.0000000000000000000, -1.000000000000000000 ) ) ;
#95 = ADVANCED_FACE ( 'NONE', ( #325 ), #273, .T. ) ;
#96 = ORIENTED_EDGE ( 'NONE', *, *, #186, .T. ) ;
#97 = CARTESIAN_POINT ( 'NONE',  ( 0.0000000000000000000, 0.0000000000000000000, 3.985000000000000320 ) ) ;
#98 = STYLED_ITEM ( 'NONE', ( #91 ), #270 ) ;
#99 = SURFACE_STYLE_FILL_AREA ( #293 ) ;
#100 = ORIENTED_EDGE ( 'NONE', *, *, #83, .F. ) ;
#101 = EDGE_CURVE ( 'NONE', #201, #52, #284, .T. ) ;
#102 = ORIENTED_EDGE ( 'NONE', *, *, #212, .F. ) ;
#103 = ORIENTED_EDGE ( 'NONE', *, *, #101, .T. ) ;
#104 = CIRCLE ( 'NONE', #232, 0.1999999999999999278 ) ;
#105 = CARTESIAN_POINT ( 'NONE',  ( 0.2749999999999998002, 0.0000000000000000000, 1.799999999999997158 ) ) ;
#106 = CARTESIAN_POINT ( 'NONE',  ( 0.0000000000000000000, 0.1999999999999999556, 0.3999999999999999667 ) ) ;
#107 = PRODUCT ( 'Micro_SBM-500-2', 'Micro_SBM-500-2', '', ( #342 ) ) ;
#108 = DIRECTION ( 'NONE',  ( 1.000000000000000000, 0.0000000000000000000, -0.0000000000000000000 ) ) ;
#109 = DIRECTION ( 'NONE',  ( -0.7071067811865394681, 0.0000000000000000000, -0.7071067811865555663 ) ) ;
#110 = AXIS2_PLACEMENT_3D ( 'NONE', #225, #82, #274 ) ;
#111 = DIRECTION ( 'NONE',  ( -0.0000000000000000000, -0.0000000000000000000, -1.000000000000000000 ) ) ;
#112 = ORIENTED_EDGE ( 'NONE', *, *, #212, .T. ) ;
#113 = DIRECTION ( 'NONE',  ( -0.0000000000000000000, -0.0000000000000000000, -1.000000000000000000 ) ) ;
#114 = ORIENTED_EDGE ( 'NONE', *, *, #88, .F. ) ;
#115 = ADVANCED_FACE ( 'NONE', ( #249 ), #85, .T. ) ;
#116 = CARTESIAN_POINT ( 'NONE',  ( -0.2500000000000000000, 0.0000000000000000000, 4.000000000000000000 ) ) ;
#117 = UNCERTAINTY_MEASURE_WITH_UNIT (LENGTH_MEASURE( 1.000000000000000082E-05 ), #75, 'distance_accuracy_value', 'NONE');
#118 = ORIENTED_EDGE ( 'NONE', *, *, #44, .F. ) ;
#119 = EDGE_CURVE ( 'NONE', #205, #167, #126, .T. ) ;
#120 = EDGE_LOOP ( 'NONE', ( #146, #318, #127, #3 ) ) ;
#121 = CIRCLE ( 'NONE', #257, 0.1999999999999999278 ) ;
#122 = SURFACE_STYLE_USAGE ( .BOTH. , #78 ) ;
#123 = LINE ( 'NONE', #242, #207 ) ;
#124 = DIRECTION ( 'NONE',  ( 0.0000000000000000000, 0.0000000000000000000, 1.000000000000000000 ) ) ;
#125 = CONICAL_SURFACE ( 'NONE', #25, 0.2350000000000006251, 0.7853981633974369547 ) ;
#126 = CIRCLE ( 'NONE', #226, 0.2350000000000006251 ) ;
#127 = ORIENTED_EDGE ( 'NONE', *, *, #287, .T. ) ;
#128 = ORIENTED_EDGE ( 'NONE', *, *, #21, .T. ) ;
#129 = PLANE ( 'NONE',  #288 ) ;
#130 = CARTESIAN_POINT ( 'NONE',  ( 0.0000000000000000000, 0.0000000000000000000, 4.000000000000000000 ) ) ;
#131 = DIRECTION ( 'NONE',  ( -0.0000000000000000000, -0.0000000000000000000, -1.000000000000000000 ) ) ;
#132 = CARTESIAN_POINT ( 'NONE',  ( -0.2500000000000000000, 0.0000000000000000000, 3.985000000000000320 ) ) ;
#133 = DIRECTION ( 'NONE',  ( -0.0000000000000000000, -0.0000000000000000000, -1.000000000000000000 ) ) ;
#134 = CONICAL_SURFACE ( 'NONE', #38, 0.2749999999999998002, 0.08314123188844135814 ) ;
#135 = ORIENTED_EDGE ( 'NONE', *, *, #150, .T. ) ;
#136 =( LENGTH_UNIT ( ) NAMED_UNIT ( * ) SI_UNIT ( $, .METRE. ) );
#137 = ADVANCED_FACE ( 'NONE', ( #165 ), #129, .T. ) ;
#138 = DIRECTION ( 'NONE',  ( 0.0000000000000000000, 0.0000000000000000000, 1.000000000000000000 ) ) ;
#139 = CARTESIAN_POINT ( 'NONE',  ( 2.449293598294705921E-17, -0.1999999999999999556, 0.3999999999999999667 ) ) ;
#140 =( GEOMETRIC_REPRESENTATION_CONTEXT ( 3 ) GLOBAL_UNCERTAINTY_ASSIGNED_CONTEXT ( ( #16 ) ) GLOBAL_UNIT_ASSIGNED_CONTEXT ( ( #198, #172, #339 ) ) REPRESENTATION_CONTEXT ( 'NONE', 'WORKASPACE' ) );
#141 =( GEOMETRIC_REPRESENTATION_CONTEXT ( 3 ) GLOBAL_UNCERTAINTY_ASSIGNED_CONTEXT ( ( #117 ) ) GLOBAL_UNIT_ASSIGNED_CONTEXT ( ( #75, #184, #155 ) ) REPRESENTATION_CONTEXT ( 'NONE', 'WORKASPACE' ) );
#142 = CARTESIAN_POINT ( 'NONE',  ( 0.0000000000000000000, 0.0000000000000000000, 4.000000000000000000 ) ) ;
#143 = VERTEX_POINT ( 'NONE', #8 ) ;
#144 = VERTEX_POINT ( 'NONE', #106 ) ;
#145 = SURFACE_STYLE_FILL_AREA ( #305 ) ;
#146 = ORIENTED_EDGE ( 'NONE', *, *, #223, .T. ) ;
#147 =( NAMED_UNIT ( * ) SI_UNIT ( $, .STERADIAN. ) SOLID_ANGLE_UNIT ( ) );
#148 = AXIS2_PLACEMENT_3D ( 'NONE', #345, #124, #294 ) ;
#149 = VERTEX_POINT ( 'NONE', #132 ) ;
#150 = EDGE_CURVE ( 'NONE', #52, #283, #301, .T. ) ;
#151 = LENGTH_MEASURE_WITH_UNIT ( LENGTH_MEASURE( 0.02539999999999999897 ), #245 );
#152 = ORIENTED_EDGE ( 'NONE', *, *, #88, .T. ) ;
#153 = DIRECTION ( 'NONE',  ( -0.08304547985374009789, 1.017013810865388104E-17, 0.9965457582448795648 ) ) ;
#154 = COLOUR_RGB ( '',0.7921568627450980005, 0.8196078431372548767, 0.9333333333333333481 ) ;
#155 =( NAMED_UNIT ( * ) SI_UNIT ( $, .STERADIAN. ) SOLID_ANGLE_UNIT ( ) );
#156 = CARTESIAN_POINT ( 'NONE',  ( 0.2500000000000000000, 3.061616997868383018E-17, 4.000000000000000000 ) ) ;
#157 = CARTESIAN_POINT ( 'NONE',  ( 0.0000000000000000000, 0.0000000000000000000, 0.3999999999999999667 ) ) ;
#158 = FACE_OUTER_BOUND ( 'NONE', #209, .T. ) ;
#159 = ORIENTED_EDGE ( 'NONE', *, *, #279, .F. ) ;
#160 = VECTOR ( 'NONE', #297, 39.37007874015748854 ) ;
#161 = AXIS2_PLACEMENT_3D ( 'NONE', #60, #131, #1 ) ;
#162 = FACE_OUTER_BOUND ( 'NONE', #218, .T. ) ;
#163 = DIMENSIONAL_EXPONENTS ( 1.000000000000000000, 0.0000000000000000000, 0.0000000000000000000, 0.0000000000000000000, 0.0000000000000000000, 0.0000000000000000000, 0.0000000000000000000 ) ;
#164 = ADVANCED_FACE ( 'NONE', ( #222 ), #193, .T. ) ;
#165 = FACE_OUTER_BOUND ( 'NONE', #216, .T. ) ;
#166 = DIMENSIONAL_EXPONENTS ( 1.000000000000000000, 0.0000000000000000000, 0.0000000000000000000, 0.0000000000000000000, 0.0000000000000000000, 0.0000000000000000000, 0.0000000000000000000 ) ;
#167 = VERTEX_POINT ( 'NONE', #275 ) ;
#168 = CARTESIAN_POINT ( 'NONE',  ( 0.0000000000000000000, 0.0000000000000000000, 1.799999999999997158 ) ) ;
#169 = ORIENTED_EDGE ( 'NONE', *, *, #271, .T. ) ;
#170 = DIRECTION ( 'NONE',  ( -1.000000000000000000, 0.0000000000000000000, 0.0000000000000000000 ) ) ;
#171 = CIRCLE ( 'NONE', #208, 0.2499999999999999722 ) ;
#172 =( NAMED_UNIT ( * ) PLANE_ANGLE_UNIT ( ) SI_UNIT ( $, .RADIAN. ) );
#173 = DIRECTION ( 'NONE',  ( -1.224646799147353207E-16, 1.000000000000000000, 0.0000000000000000000 ) ) ;
#174 = FACE_OUTER_BOUND ( 'NONE', #189, .T. ) ;
#175 = CONICAL_SURFACE ( 'NONE', #214, 0.2350000000000006251, 0.7853981633974369547 ) ;
#176 = DIRECTION ( 'NONE',  ( 0.0000000000000000000, 0.0000000000000000000, 1.000000000000000000 ) ) ;
#177 = UNCERTAINTY_MEASURE_WITH_UNIT (LENGTH_MEASURE( 1.000000000000000082E-05 ), #15, 'distance_accuracy_value', 'NONE');
#178 = DIRECTION ( 'NONE',  ( -0.0000000000000000000, -0.0000000000000000000, -1.000000000000000000 ) ) ;
#179 = ADVANCED_FACE ( 'NONE', ( #162 ), #34, .T. ) ;
#180 = DIRECTION ( 'NONE',  ( 1.000000000000000000, 0.0000000000000000000, 0.0000000000000000000 ) ) ;
#181 = AXIS2_PLACEMENT_3D ( 'NONE', #19, #26, #49 ) ;
#182 = VERTEX_POINT ( 'NONE', #253 ) ;
#183 = EDGE_CURVE ( 'NONE', #233, #45, #192, .T. ) ;
#184 =( NAMED_UNIT ( * ) PLANE_ANGLE_UNIT ( ) SI_UNIT ( $, .RADIAN. ) );
#185 = EDGE_LOOP ( 'NONE', ( #335, #231, #265, #266 ) ) ;
#186 = EDGE_CURVE ( 'NONE', #167, #149, #35, .T. ) ;
#187 = ORIENTED_EDGE ( 'NONE', *, *, #70, .T. ) ;
#188 = AXIS2_PLACEMENT_3D ( 'NONE', #307, #94, #230 ) ;
#189 = EDGE_LOOP ( 'NONE', ( #10, #202, #112, #22 ) ) ;
#190 = DIRECTION ( 'NONE',  ( 1.000000000000000000, 0.0000000000000000000, 0.0000000000000000000 ) ) ;
#191 = CARTESIAN_POINT ( 'NONE',  ( 0.0000000000000000000, 0.0000000000000000000, 0.8999999999999999112 ) ) ;
#192 = CIRCLE ( 'NONE', #110, 0.2500000000000000000 ) ;
#193 = CYLINDRICAL_SURFACE ( 'NONE', #263, 0.1999999999999999278 ) ;
#194 = DIMENSIONAL_EXPONENTS ( 1.000000000000000000, 0.0000000000000000000, 0.0000000000000000000, 0.0000000000000000000, 0.0000000000000000000, 0.0000000000000000000, 0.0000000000000000000 ) ;
#195 = LINE ( 'NONE', #105, #160 ) ;
#196 = DIRECTION ( 'NONE',  ( -1.000000000000000000, 0.0000000000000000000, 0.0000000000000000000 ) ) ;
#197 = ORIENTED_EDGE ( 'NONE', *, *, #33, .T. ) ;
#198 =( CONVERSION_BASED_UNIT ( 'INCH', #210 ) LENGTH_UNIT ( ) NAMED_UNIT ( #166 ) );
#199 = AXIS2_PLACEMENT_3D ( 'NONE', #80, #180, #344 ) ;
#200 =( GEOMETRIC_REPRESENTATION_CONTEXT ( 3 ) GLOBAL_UNCERTAINTY_ASSIGNED_CONTEXT ( ( #177 ) ) GLOBAL_UNIT_ASSIGNED_CONTEXT ( ( #15, #308, #147 ) ) REPRESENTATION_CONTEXT ( 'NONE', 'WORKASPACE' ) );
#201 = VERTEX_POINT ( 'NONE', #328 ) ;
#202 = ORIENTED_EDGE ( 'NONE', *, *, #101, .F. ) ;
#203 = DIRECTION ( 'NONE',  ( 0.0000000000000000000, 1.000000000000000000, 0.0000000000000000000 ) ) ;
#204 = ORIENTED_EDGE ( 'NONE', *, *, #56, .T. ) ;
#205 = VERTEX_POINT ( 'NONE', #87 ) ;
#206 = CARTESIAN_POINT ( 'NONE',  ( -0.1999999999999999278, 0.0000000000000000000, 0.3999999999999999667 ) ) ;
#207 = VECTOR ( 'NONE', #292, 39.37007874015748143 ) ;
#208 = AXIS2_PLACEMENT_3D ( 'NONE', #66, #261, #173 ) ;
#209 = EDGE_LOOP ( 'NONE', ( #73, #197, #236, #81 ) ) ;
#210 = LENGTH_MEASURE_WITH_UNIT ( LENGTH_MEASURE( 0.02539999999999999897 ), #136 );
#211 = ORIENTED_EDGE ( 'NONE', *, *, #150, .F. ) ;
#212 = EDGE_CURVE ( 'NONE', #201, #45, #195, .T. ) ;
#213 = ORIENTED_EDGE ( 'NONE', *, *, #279, .T. ) ;
#214 = AXIS2_PLACEMENT_3D ( 'NONE', #258, #9, #334 ) ;
#215 = MECHANICAL_DESIGN_GEOMETRIC_PRESENTATION_REPRESENTATION (  '', ( #65 ), #141 ) ;
#216 = EDGE_LOOP ( 'NONE', ( #169, #306 ) ) ;
#217 = SHAPE_DEFINITION_REPRESENTATION ( #59, #20 ) ;
#218 = EDGE_LOOP ( 'NONE', ( #152, #187, #204, #282 ) ) ;
#219 = CARTESIAN_POINT ( 'NONE',  ( 0.1999999999999999278, 2.449293598294705613E-17, 0.0000000000000000000 ) ) ;
#220 = AXIS2_PLACEMENT_3D ( 'NONE', #331, #309, #203 ) ;
#221 = DIRECTION ( 'NONE',  ( -1.000000000000000000, 0.0000000000000000000, 0.0000000000000000000 ) ) ;
#222 = FACE_OUTER_BOUND ( 'NONE', #262, .T. ) ;
#223 = EDGE_CURVE ( 'NONE', #144, #182, #121, .T. ) ;
#224 = EDGE_LOOP ( 'NONE', ( #302, #128, #114, #260 ) ) ;
#225 = CARTESIAN_POINT ( 'NONE',  ( 0.0000000000000000000, 0.0000000000000000000, 1.500000000000000222 ) ) ;
#226 = AXIS2_PLACEMENT_3D ( 'NONE', #130, #298, #6 ) ;
#227 = DIRECTION ( 'NONE',  ( 1.000000000000000000, 0.0000000000000000000, 0.0000000000000000000 ) ) ;
#228 = ADVANCED_FACE ( 'NONE', ( #323 ), #90, .T. ) ;
#229 = CARTESIAN_POINT ( 'NONE',  ( 0.0000000000000000000, 0.0000000000000000000, 0.0000000000000000000 ) ) ;
#230 = DIRECTION ( 'NONE',  ( -1.000000000000000000, 0.0000000000000000000, 0.0000000000000000000 ) ) ;
#231 = ORIENTED_EDGE ( 'NONE', *, *, #44, .T. ) ;
#232 = AXIS2_PLACEMENT_3D ( 'NONE', #237, #178, #39 ) ;
#233 = VERTEX_POINT ( 'NONE', #55 ) ;
#234 = SPHERICAL_SURFACE ( 'NONE', #220, 0.2499999999999999722 ) ;
#235 = ADVANCED_FACE ( 'NONE', ( #158 ), #234, .T. ) ;
#236 = ORIENTED_EDGE ( 'NONE', *, *, #83, .T. ) ;
#237 = CARTESIAN_POINT ( 'NONE',  ( 0.0000000000000000000, 0.0000000000000000000, 0.3999999999999999667 ) ) ;
#238 = ORIENTED_EDGE ( 'NONE', *, *, #53, .T. ) ;
#239 = LENGTH_MEASURE_WITH_UNIT ( LENGTH_MEASURE( 0.02539999999999999897 ), #259 );
#240 = AXIS2_PLACEMENT_3D ( 'NONE', #43, #280, #138 ) ;
#241 = LINE ( 'NONE', #51, #64 ) ;
#242 = CARTESIAN_POINT ( 'NONE',  ( 0.2350000000000006251, 2.877919977996287839E-17, 4.000000000000000000 ) ) ;
#243 = FACE_OUTER_BOUND ( 'NONE', #120, .T. ) ;
#244 = AXIS2_PLACEMENT_3D ( 'NONE', #264, #329, #227 ) ;
#245 =( LENGTH_UNIT ( ) NAMED_UNIT ( * ) SI_UNIT ( $, .METRE. ) );
#246 = CARTESIAN_POINT ( 'NONE',  ( 0.2500000000000000000, 0.0000000000000000000, 1.500000000000000222 ) ) ;
#247 = ORIENTED_EDGE ( 'NONE', *, *, #56, .F. ) ;
#248 = ADVANCED_FACE ( 'NONE', ( #31 ), #175, .T. ) ;
#249 = FACE_OUTER_BOUND ( 'NONE', #185, .T. ) ;
#250 = VECTOR ( 'NONE', #109, 39.37007874015748143 ) ;
#251 = CARTESIAN_POINT ( 'NONE',  ( 0.0000000000000000000, 0.0000000000000000000, 0.3999999999999999667 ) ) ;
#252 = EDGE_CURVE ( 'NONE', #182, #337, #104, .T. ) ;
#253 = CARTESIAN_POINT ( 'NONE',  ( 0.1999999999999999278, 2.449293598294705613E-17, 0.3999999999999999667 ) ) ;
#254 = DIRECTION ( 'NONE',  ( -0.0000000000000000000, -0.0000000000000000000, -1.000000000000000000 ) ) ;
#255 = VECTOR ( 'NONE', #111, 39.37007874015748143 ) ;
#256 = DIRECTION ( 'NONE',  ( -1.000000000000000000, 0.0000000000000000000, 0.0000000000000000000 ) ) ;
#257 = AXIS2_PLACEMENT_3D ( 'NONE', #251, #61, #221 ) ;
#258 = CARTESIAN_POINT ( 'NONE',  ( 0.0000000000000000000, 0.0000000000000000000, 4.000000000000000000 ) ) ;
#259 =( LENGTH_UNIT ( ) NAMED_UNIT ( * ) SI_UNIT ( $, .METRE. ) );
#260 = ORIENTED_EDGE ( 'NONE', *, *, #186, .F. ) ;
#261 = DIRECTION ( 'NONE',  ( 1.000000000000000000, 1.224646799147353207E-16, -0.0000000000000000000 ) ) ;
#262 = EDGE_LOOP ( 'NONE', ( #50, #103, #135, #86, #30 ) ) ;
#263 = AXIS2_PLACEMENT_3D ( 'NONE', #229, #133, #256 ) ;
#264 = CARTESIAN_POINT ( 'NONE',  ( 0.0000000000000000000, 0.0000000000000000000, 3.985000000000000320 ) ) ;
#265 = ORIENTED_EDGE ( 'NONE', *, *, #276, .T. ) ;
#266 = ORIENTED_EDGE ( 'NONE', *, *, #183, .T. ) ;
#267 = CIRCLE ( 'NONE', #47, 0.1999999999999999278 ) ;
#268 = SPHERICAL_SURFACE ( 'NONE', #199, 0.2499999999999999722 ) ;
#269 = DIRECTION ( 'NONE',  ( -1.000000000000000000, 0.0000000000000000000, 0.0000000000000000000 ) ) ;
#270 = MANIFOLD_SOLID_BREP ( 'Cut-Revolve3', #37 ) ;
#271 = EDGE_CURVE ( 'NONE', #167, #205, #321, .T. ) ;
#272 = AXIS2_PLACEMENT_3D ( 'NONE', #97, #314, #290 ) ;
#273 = CYLINDRICAL_SURFACE ( 'NONE', #313, 0.1999999999999999278 ) ;
#274 = DIRECTION ( 'NONE',  ( 1.000000000000000000, 0.0000000000000000000, 0.0000000000000000000 ) ) ;
#275 = CARTESIAN_POINT ( 'NONE',  ( -0.2350000000000006251, 0.0000000000000000000, 4.000000000000000000 ) ) ;
#276 = EDGE_CURVE ( 'NONE', #149, #233, #46, .T. ) ;
#277 = PRESENTATION_LAYER_ASSIGNMENT (  '', '', ( #65 ) ) ;
#278 = CARTESIAN_POINT ( 'NONE',  ( 0.0000000000000000000, 0.0000000000000000000, 4.000000000000000000 ) ) ;
#279 = EDGE_CURVE ( 'NONE', #52, #201, #42, .T. ) ;
#280 = DIRECTION ( 'NONE',  ( -1.000000000000000000, 0.0000000000000000000, 0.0000000000000000000 ) ) ;
#281 = DIRECTION ( 'NONE',  ( 1.000000000000000000, 0.0000000000000000000, 0.0000000000000000000 ) ) ;
#282 = ORIENTED_EDGE ( 'NONE', *, *, #276, .F. ) ;
#283 = VERTEX_POINT ( 'NONE', #206 ) ;
#284 = CIRCLE ( 'NONE', #343, 0.1999999999999999278 ) ;
#285 = CARTESIAN_POINT ( 'NONE',  ( 0.0000000000000000000, 0.0000000000000000000, 1.799999999999997158 ) ) ;
#286 = EDGE_LOOP ( 'NONE', ( #24, #324, #96, #118 ) ) ;
#287 = EDGE_CURVE ( 'NONE', #337, #143, #171, .T. ) ;
#288 = AXIS2_PLACEMENT_3D ( 'NONE', #4, #2, #108 ) ;
#289 = DIRECTION ( 'NONE',  ( -0.0000000000000000000, -0.0000000000000000000, -1.000000000000000000 ) ) ;
#290 = DIRECTION ( 'NONE',  ( 1.000000000000000000, 0.0000000000000000000, 0.0000000000000000000 ) ) ;
#291 = APPLICATION_CONTEXT ( 'automotive_design' ) ;
#292 = DIRECTION ( 'NONE',  ( 0.7071067811865394681, 8.659560562354834251E-17, -0.7071067811865555663 ) ) ;
#293 = FILL_AREA_STYLE ('',( #312 ) ) ;
#294 = DIRECTION ( 'NONE',  ( 1.000000000000000000, 0.0000000000000000000, 0.0000000000000000000 ) ) ;
#295 = CIRCLE ( 'NONE', #272, 0.2500000000000000000 ) ;
#296 = FACE_OUTER_BOUND ( 'NONE', #286, .T. ) ;
#297 = DIRECTION ( 'NONE',  ( 0.08304547985374009789, 0.0000000000000000000, 0.9965457582448795648 ) ) ;
#298 = DIRECTION ( 'NONE',  ( 0.0000000000000000000, 0.0000000000000000000, 1.000000000000000000 ) ) ;
#299 = MECHANICAL_DESIGN_GEOMETRIC_PRESENTATION_REPRESENTATION (  '', ( #98 ), #140 ) ;
#300 = CARTESIAN_POINT ( 'NONE',  ( 0.0000000000000000000, 0.0000000000000000000, 0.0000000000000000000 ) ) ;
#301 = LINE ( 'NONE', #57, #255 ) ;
#302 = ORIENTED_EDGE ( 'NONE', *, *, #119, .F. ) ;
#303 = DIRECTION ( 'NONE',  ( -1.000000000000000000, 0.0000000000000000000, 0.0000000000000000000 ) ) ;
#304 = CIRCLE ( 'NONE', #11, 0.1999999999999999278 ) ;
#305 = FILL_AREA_STYLE ('',( #13 ) ) ;
#306 = ORIENTED_EDGE ( 'NONE', *, *, #119, .T. ) ;
#307 = CARTESIAN_POINT ( 'NONE',  ( 0.0000000000000000000, 0.0000000000000000000, 0.8999999999999999112 ) ) ;
#308 =( NAMED_UNIT ( * ) PLANE_ANGLE_UNIT ( ) SI_UNIT ( $, .RADIAN. ) );
#309 = DIRECTION ( 'NONE',  ( 1.000000000000000000, 0.0000000000000000000, 0.0000000000000000000 ) ) ;
#310 = ADVANCED_FACE ( 'NONE', ( #174 ), #134, .T. ) ;
#311 = ORIENTED_EDGE ( 'NONE', *, *, #223, .F. ) ;
#312 = FILL_AREA_STYLE_COLOUR ( '', #322 ) ;
#313 = AXIS2_PLACEMENT_3D ( 'NONE', #300, #84, #303 ) ;
#314 = DIRECTION ( 'NONE',  ( 0.0000000000000000000, 0.0000000000000000000, -1.000000000000000000 ) ) ;
#315 = APPLICATION_PROTOCOL_DEFINITION ( 'draft international standard', 'automotive_design', 1998, #291 ) ;
#316 = LINE ( 'NONE', #156, #32 ) ;
#317 = PRODUCT_DEFINITION ( 'UNKNOWN', '', #333, #68 ) ;
#318 = ORIENTED_EDGE ( 'NONE', *, *, #252, .T. ) ;
#319 = APPLICATION_CONTEXT ( 'automotive_design' ) ;
#320 = CARTESIAN_POINT ( 'NONE',  ( -0.1999999999999999278, 2.755455298081544161E-17, 0.8999999999999999112 ) ) ;
#321 = CIRCLE ( 'NONE', #74, 0.2350000000000006251 ) ;
#322 = COLOUR_RGB ( '',0.7921568627450980005, 0.8196078431372548767, 0.9333333333333333481 ) ;
#323 = FACE_OUTER_BOUND ( 'NONE', #76, .T. ) ;
#324 = ORIENTED_EDGE ( 'NONE', *, *, #271, .F. ) ;
#325 = FACE_OUTER_BOUND ( 'NONE', #17, .T. ) ;
#326 = DIRECTION ( 'NONE',  ( -0.0000000000000000000, -0.0000000000000000000, -1.000000000000000000 ) ) ;
#327 = VECTOR ( 'NONE', #113, 39.37007874015748143 ) ;
#328 = CARTESIAN_POINT ( 'NONE',  ( 0.1999999999999999278, 0.0000000000000000000, 0.8999999999999999112 ) ) ;
#329 = DIRECTION ( 'NONE',  ( 0.0000000000000000000, 0.0000000000000000000, -1.000000000000000000 ) ) ;
#330 = PRODUCT_RELATED_PRODUCT_CATEGORY ( 'part', '', ( #107 ) ) ;
#331 = CARTESIAN_POINT ( 'NONE',  ( 0.0000000000000000000, 0.0000000000000000000, 0.2500000000000000000 ) ) ;
#332 = EDGE_CURVE ( 'NONE', #144, #143, #92, .T. ) ;
#333 = PRODUCT_DEFINITION_FORMATION_WITH_SPECIFIED_SOURCE ( 'ANY', '', #107, .NOT_KNOWN. ) ;
#334 = DIRECTION ( 'NONE',  ( -1.000000000000000000, 0.0000000000000000000, 0.0000000000000000000 ) ) ;
#335 = ORIENTED_EDGE ( 'NONE', *, *, #70, .F. ) ;
#336 = SURFACE_STYLE_USAGE ( .BOTH. , #40 ) ;
#337 = VERTEX_POINT ( 'NONE', #139 ) ;
#338 = PRESENTATION_LAYER_ASSIGNMENT (  '', '', ( #98 ) ) ;
#339 =( NAMED_UNIT ( * ) SI_UNIT ( $, .STERADIAN. ) SOLID_ANGLE_UNIT ( ) );
#340 = CARTESIAN_POINT ( 'NONE',  ( 0.0000000000000000000, 0.0000000000000000000, 4.000000000000000000 ) ) ;
#341 = DIRECTION ( 'NONE',  ( -1.000000000000000000, 0.0000000000000000000, 0.0000000000000000000 ) ) ;
#342 = PRODUCT_CONTEXT ( 'NONE', #319, 'mechanical' ) ;
#343 = AXIS2_PLACEMENT_3D ( 'NONE', #191, #254, #170 ) ;
#344 = DIRECTION ( 'NONE',  ( 0.0000000000000000000, 1.000000000000000000, 0.0000000000000000000 ) ) ;
#345 = CARTESIAN_POINT ( 'NONE',  ( 0.0000000000000000000, 0.0000000000000000000, 1.500000000000000222 ) ) ;
ENDSEC;
END-ISO-10303-21;
