ISO-10303-21;
HEADER;
FILE_DESCRIPTION (( 'STEP AP214' ),
    '1' );
FILE_NAME ('86025.STEP',
    '2023-06-30T23:56:27',
    ( '' ),
    ( '' ),
    'SwSTEP 2.0',
    'SolidWorks 2023',
    '' );
FILE_SCHEMA (( 'AUTOMOTIVE_DESIGN' ));
ENDSEC;

DATA;
#1 = PRESENTATION_LAYER_ASSIGNMENT (  '', '', ( #328 ) ) ;
#2 = DIMENSIONAL_EXPONENTS ( 1.000000000000000000, 0.000000000000000000, 0.000000000000000000, 0.000000000000000000, 0.000000000000000000, 0.000000000000000000, 0.000000000000000000 ) ;
#3 = CARTESIAN_POINT ( 'NONE',  ( -1.913510623667738847E-17, 0.1562499999999999722, 0.000000000000000000 ) ) ;
#4 = ORIENTED_EDGE ( 'NONE', *, *, #184, .T. ) ;
#5 =( NAMED_UNIT ( * ) SI_UNIT ( $, .STERADIAN. ) SOLID_ANGLE_UNIT ( ) );
#6 = CIRCLE ( 'NONE', #215, 0.1562499999999998335 ) ;
#7 = VERTEX_POINT ( 'NONE', #319 ) ;
#8 = AXIS2_PLACEMENT_3D ( 'NONE', #200, #127, #176 ) ;
#9 = SURFACE_STYLE_FILL_AREA ( #331 ) ;
#10 = ORIENTED_EDGE ( 'NONE', *, *, #49, .F. ) ;
#11 =( CONVERSION_BASED_UNIT ( 'INCH', #63 ) LENGTH_UNIT ( ) NAMED_UNIT ( #207 ) );
#12 = ORIENTED_EDGE ( 'NONE', *, *, #59, .F. ) ;
#13 = PRESENTATION_STYLE_ASSIGNMENT (( #359 ) ) ;
#14 = ADVANCED_FACE ( 'NONE', ( #64 ), #93, .F. ) ;
#15 =( NAMED_UNIT ( * ) SI_UNIT ( $, .STERADIAN. ) SOLID_ANGLE_UNIT ( ) );
#16 = AXIS2_PLACEMENT_3D ( 'NONE', #172, #124, #324 ) ;
#17 = COLOUR_RGB ( '',0.7921568627450980005, 0.8196078431372548767, 0.9333333333333333481 ) ;
#18 =( LENGTH_UNIT ( ) NAMED_UNIT ( * ) SI_UNIT ( $, .METRE. ) );
#19 = VERTEX_POINT ( 'NONE', #31 ) ;
#20 =( GEOMETRIC_REPRESENTATION_CONTEXT ( 3 ) GLOBAL_UNCERTAINTY_ASSIGNED_CONTEXT ( ( #98 ) ) GLOBAL_UNIT_ASSIGNED_CONTEXT ( ( #258, #89, #346 ) ) REPRESENTATION_CONTEXT ( 'NONE', 'WORKASPACE' ) );
#21 = VERTEX_POINT ( 'NONE', #229 ) ;
#22 = CARTESIAN_POINT ( 'NONE',  ( 1.913510623667738231E-17, 0.000000000000000000, 0.1562499999999999167 ) ) ;
#23 = LINE ( 'NONE', #22, #76 ) ;
#24 = PRESENTATION_LAYER_ASSIGNMENT (  '', '', ( #210 ) ) ;
#25 = ADVANCED_FACE ( 'NONE', ( #88 ), #60, .T. ) ;
#26 = SURFACE_STYLE_FILL_AREA ( #294 ) ;
#27 = EDGE_LOOP ( 'NONE', ( #4, #181, #45, #10, #284 ) ) ;
#28 = PRESENTATION_STYLE_ASSIGNMENT (( #298 ) ) ;
#29 = CIRCLE ( 'NONE', #149, 0.1562499999999996392 ) ;
#30 =( NAMED_UNIT ( * ) PLANE_ANGLE_UNIT ( ) SI_UNIT ( $, .RADIAN. ) );
#31 = CARTESIAN_POINT ( 'NONE',  ( -0.1562499999999995004, 3.000000000000000444, 0.000000000000000000 ) ) ;
#32 = PRODUCT_DEFINITION_FORMATION_WITH_SPECIFIED_SOURCE ( 'ANY', '', #77, .NOT_KNOWN. ) ;
#33 = DIRECTION ( 'NONE',  ( -1.000000000000000000, 0.000000000000000000, 0.000000000000000000 ) ) ;
#34 = PRESENTATION_STYLE_ASSIGNMENT (( #275 ) ) ;
#35 = CARTESIAN_POINT ( 'NONE',  ( 0.000000000000000000, 0.1562500000000000000, 0.000000000000000000 ) ) ;
#36 = FACE_OUTER_BOUND ( 'NONE', #66, .T. ) ;
#37 =( NAMED_UNIT ( * ) SI_UNIT ( $, .STERADIAN. ) SOLID_ANGLE_UNIT ( ) );
#38 = FILL_AREA_STYLE_COLOUR ( '', #241 ) ;
#39 =( NAMED_UNIT ( * ) SI_UNIT ( $, .STERADIAN. ) SOLID_ANGLE_UNIT ( ) );
#40 = FILL_AREA_STYLE_COLOUR ( '', #167 ) ;
#41 = SURFACE_STYLE_FILL_AREA ( #239 ) ;
#42 = CLOSED_SHELL ( 'NONE', ( #211, #347, #313, #221, #69 ) ) ;
#43 =( GEOMETRIC_REPRESENTATION_CONTEXT ( 3 ) GLOBAL_UNCERTAINTY_ASSIGNED_CONTEXT ( ( #71 ) ) GLOBAL_UNIT_ASSIGNED_CONTEXT ( ( #340, #138, #15 ) ) REPRESENTATION_CONTEXT ( 'NONE', 'WORKASPACE' ) );
#44 =( CONVERSION_BASED_UNIT ( 'INCH', #322 ) LENGTH_UNIT ( ) NAMED_UNIT ( #148 ) );
#45 = ORIENTED_EDGE ( 'NONE', *, *, #230, .F. ) ;
#46 = DIRECTION ( 'NONE',  ( -1.000000000000000000, 0.000000000000000000, 0.000000000000000000 ) ) ;
#47 = CIRCLE ( 'NONE', #338, 0.1562499999999996669 ) ;
#48 = CIRCLE ( 'NONE', #274, 0.1562500000000000000 ) ;
#49 = EDGE_CURVE ( 'NONE', #295, #79, #74, .T. ) ;
#50 = CIRCLE ( 'NONE', #55, 0.1562499999999999722 ) ;
#51 = DIRECTION ( 'NONE',  ( 0.000000000000000000, 0.000000000000000000, -1.000000000000000000 ) ) ;
#52 = DIRECTION ( 'NONE',  ( -1.791585858666558541E-17, 1.000000000000000000, -0.000000000000000000 ) ) ;
#53 = SURFACE_SIDE_STYLE ('',( #26 ) ) ;
#54 = CARTESIAN_POINT ( 'NONE',  ( 1.836970198721029688E-16, 3.000000000000000444, 0.000000000000000000 ) ) ;
#55 = AXIS2_PLACEMENT_3D ( 'NONE', #35, #213, #334 ) ;
#56 = DIRECTION ( 'NONE',  ( 0.000000000000000000, 0.000000000000000000, -1.000000000000000000 ) ) ;
#57 = MECHANICAL_DESIGN_GEOMETRIC_PRESENTATION_REPRESENTATION (  '', ( #315 ), #373 ) ;
#58 = CARTESIAN_POINT ( 'NONE',  ( 0.1562499999999998335, 3.000000000000000444, 0.000000000000000000 ) ) ;
#59 = EDGE_CURVE ( 'NONE', #21, #290, #110, .T. ) ;
#60 = CYLINDRICAL_SURFACE ( 'NONE', #232, 0.1562499999999996669 ) ;
#61 =( CONVERSION_BASED_UNIT ( 'INCH', #264 ) LENGTH_UNIT ( ) NAMED_UNIT ( #259 ) );
#62 = DIRECTION ( 'NONE',  ( 1.000000000000000000, 0.000000000000000000, 0.000000000000000000 ) ) ;
#63 = LENGTH_MEASURE_WITH_UNIT ( LENGTH_MEASURE( 0.02539999999999999897 ), #270 );
#64 = FACE_OUTER_BOUND ( 'NONE', #260, .T. ) ;
#65 =( LENGTH_UNIT ( ) NAMED_UNIT ( * ) SI_UNIT ( $, .METRE. ) );
#66 = EDGE_LOOP ( 'NONE', ( #190, #360 ) ) ;
#67 = MECHANICAL_DESIGN_GEOMETRIC_PRESENTATION_REPRESENTATION (  '', ( #210 ), #288 ) ;
#68 = SURFACE_SIDE_STYLE ('',( #9 ) ) ;
#69 = ADVANCED_FACE ( 'NONE', ( #226 ), #175, .T. ) ;
#70 = DIRECTION ( 'NONE',  ( -0.000000000000000000, -1.000000000000000000, -0.000000000000000000 ) ) ;
#71 = UNCERTAINTY_MEASURE_WITH_UNIT (LENGTH_MEASURE( 1.000000000000000082E-05 ), #340, 'distance_accuracy_value', 'NONE');
#72 =( LENGTH_UNIT ( ) NAMED_UNIT ( * ) SI_UNIT ( $, .METRE. ) );
#73 = DIRECTION ( 'NONE',  ( 1.000000000000000000, 0.000000000000000000, -1.224646799147353207E-16 ) ) ;
#74 = CIRCLE ( 'NONE', #118, 0.1562499999999999722 ) ;
#75 = FILL_AREA_STYLE_COLOUR ( '', #255 ) ;
#76 = VECTOR ( 'NONE', #152, 39.37007874015748143 ) ;
#77 = PRODUCT ( '86025', '86025', '', ( #114 ) ) ;
#78 = APPLICATION_PROTOCOL_DEFINITION ( 'draft international standard', 'automotive_design', 1998, #223 ) ;
#79 = VERTEX_POINT ( 'NONE', #349 ) ;
#80 = MECHANICAL_DESIGN_GEOMETRIC_PRESENTATION_REPRESENTATION (  '', ( #129 ), #263 ) ;
#81 = FACE_OUTER_BOUND ( 'NONE', #354, .T. ) ;
#82 = LINE ( 'NONE', #249, #191 ) ;
#83 = DIRECTION ( 'NONE',  ( -1.000000000000000000, 0.000000000000000000, 0.000000000000000000 ) ) ;
#84 = EDGE_CURVE ( 'NONE', #290, #21, #29, .T. ) ;
#85 = PLANE ( 'NONE',  #101 ) ;
#86 = ORIENTED_EDGE ( 'NONE', *, *, #115, .T. ) ;
#87 = CARTESIAN_POINT ( 'NONE',  ( 0.000000000000000000, 0.1562500000000000000, 0.000000000000000000 ) ) ;
#88 = FACE_OUTER_BOUND ( 'NONE', #219, .T. ) ;
#89 =( NAMED_UNIT ( * ) PLANE_ANGLE_UNIT ( ) SI_UNIT ( $, .RADIAN. ) );
#90 = MECHANICAL_DESIGN_GEOMETRIC_PRESENTATION_REPRESENTATION (  '', ( #369 ), #20 ) ;
#91 = DIRECTION ( 'NONE',  ( -1.791585858666558541E-17, 1.000000000000000000, -0.000000000000000000 ) ) ;
#92 = AXIS2_PLACEMENT_3D ( 'NONE', #303, #168, #246 ) ;
#93 = PLANE ( 'NONE',  #16 ) ;
#94 = CARTESIAN_POINT ( 'NONE',  ( 2.150497723987677532E-16, 1.250000000000000000, 0.000000000000000000 ) ) ;
#95 = DIRECTION ( 'NONE',  ( -1.791585858666558541E-17, 1.000000000000000000, -0.000000000000000000 ) ) ;
#96 = ORIENTED_EDGE ( 'NONE', *, *, #182, .F. ) ;
#97 = DIRECTION ( 'NONE',  ( 1.791585858666558541E-17, -1.000000000000000000, 0.000000000000000000 ) ) ;
#98 = UNCERTAINTY_MEASURE_WITH_UNIT (LENGTH_MEASURE( 1.000000000000000082E-05 ), #258, 'distance_accuracy_value', 'NONE');
#99 = COLOUR_RGB ( '',0.7921568627450980005, 0.8196078431372548767, 0.9333333333333333481 ) ;
#100 = ORIENTED_EDGE ( 'NONE', *, *, #193, .T. ) ;
#101 = AXIS2_PLACEMENT_3D ( 'NONE', #58, #97, #166 ) ;
#102 =( CONVERSION_BASED_UNIT ( 'INCH', #161 ) LENGTH_UNIT ( ) NAMED_UNIT ( #173 ) );
#103 =( LENGTH_UNIT ( ) NAMED_UNIT ( * ) SI_UNIT ( $, .METRE. ) );
#104 = MANIFOLD_SOLID_BREP ( 'Revolve - Cutting Edge', #42 ) ;
#105 = DIRECTION ( 'NONE',  ( 0.000000000000000000, 0.000000000000000000, -1.000000000000000000 ) ) ;
#106 = UNCERTAINTY_MEASURE_WITH_UNIT (LENGTH_MEASURE( 1.000000000000000082E-05 ), #44, 'distance_accuracy_value', 'NONE');
#107 = CARTESIAN_POINT ( 'NONE',  ( -1.913510623667738847E-17, 0.1562499999999999722, 0.000000000000000000 ) ) ;
#108 = PRODUCT_DEFINITION_SHAPE ( 'NONE', 'NONE',  #153 ) ;
#109 = ORIENTED_EDGE ( 'NONE', *, *, #332, .F. ) ;
#110 = CIRCLE ( 'NONE', #121, 0.1562499999999996392 ) ;
#111 = LENGTH_MEASURE_WITH_UNIT ( LENGTH_MEASURE( 0.02539999999999999897 ), #18 );
#112 = AXIS2_PLACEMENT_3D ( 'NONE', #317, #243, #105 ) ;
#113 = SURFACE_SIDE_STYLE ('',( #372 ) ) ;
#114 = PRODUCT_CONTEXT ( 'NONE', #223, 'mechanical' ) ;
#115 = EDGE_CURVE ( 'NONE', #21, #19, #82, .T. ) ;
#116 = VERTEX_POINT ( 'NONE', #146 ) ;
#117 = EDGE_CURVE ( 'NONE', #131, #19, #355, .T. ) ;
#118 = AXIS2_PLACEMENT_3D ( 'NONE', #87, #234, #199 ) ;
#119 =( GEOMETRIC_REPRESENTATION_CONTEXT ( 3 ) GLOBAL_UNCERTAINTY_ASSIGNED_CONTEXT ( ( #141 ) ) GLOBAL_UNIT_ASSIGNED_CONTEXT ( ( #126, #305, #5 ) ) REPRESENTATION_CONTEXT ( 'NONE', 'WORKASPACE' ) );
#120 = CARTESIAN_POINT ( 'NONE',  ( 1.836970198721029688E-16, 3.000000000000000444, 0.000000000000000000 ) ) ;
#121 = AXIS2_PLACEMENT_3D ( 'NONE', #159, #91, #122 ) ;
#122 = DIRECTION ( 'NONE',  ( -1.000000000000000000, 0.000000000000000000, 0.000000000000000000 ) ) ;
#123 = EDGE_CURVE ( 'NONE', #7, #237, #23, .T. ) ;
#124 = DIRECTION ( 'NONE',  ( -1.791585858666558541E-17, 1.000000000000000000, 0.000000000000000000 ) ) ;
#125 = DIMENSIONAL_EXPONENTS ( 1.000000000000000000, 0.000000000000000000, 0.000000000000000000, 0.000000000000000000, 0.000000000000000000, 0.000000000000000000, 0.000000000000000000 ) ;
#126 =( CONVERSION_BASED_UNIT ( 'INCH', #301 ) LENGTH_UNIT ( ) NAMED_UNIT ( #2 ) );
#127 = DIRECTION ( 'NONE',  ( -0.000000000000000000, -1.000000000000000000, -0.000000000000000000 ) ) ;
#128 = DIRECTION ( 'NONE',  ( 0.000000000000000000, 0.000000000000000000, -1.000000000000000000 ) ) ;
#129 = STYLED_ITEM ( 'NONE', ( #34 ), #313 ) ;
#130 = CIRCLE ( 'NONE', #112, 0.1562499999999999722 ) ;
#131 = VERTEX_POINT ( 'NONE', #195 ) ;
#132 =( NAMED_UNIT ( * ) SI_UNIT ( $, .STERADIAN. ) SOLID_ANGLE_UNIT ( ) );
#133 = SURFACE_STYLE_USAGE ( .BOTH. , #353 ) ;
#134 = ORIENTED_EDGE ( 'NONE', *, *, #230, .T. ) ;
#135 = FILL_AREA_STYLE_COLOUR ( '', #17 ) ;
#136 = FILL_AREA_STYLE_COLOUR ( '', #256 ) ;
#137 = CARTESIAN_POINT ( 'NONE',  ( 0.000000000000000000, 1.250000000000000000, 0.000000000000000000 ) ) ;
#138 =( NAMED_UNIT ( * ) PLANE_ANGLE_UNIT ( ) SI_UNIT ( $, .RADIAN. ) );
#139 = ORIENTED_EDGE ( 'NONE', *, *, #332, .T. ) ;
#140 = PRESENTATION_LAYER_ASSIGNMENT (  '', '', ( #316 ) ) ;
#141 = UNCERTAINTY_MEASURE_WITH_UNIT (LENGTH_MEASURE( 1.000000000000000082E-05 ), #126, 'distance_accuracy_value', 'NONE');
#142 = EDGE_CURVE ( 'NONE', #7, #171, #224, .T. ) ;
#143 = ORIENTED_EDGE ( 'NONE', *, *, #252, .T. ) ;
#144 = FACE_OUTER_BOUND ( 'NONE', #326, .T. ) ;
#145 = PRESENTATION_LAYER_ASSIGNMENT (  '', '', ( #315 ) ) ;
#146 = CARTESIAN_POINT ( 'NONE',  ( -0.1562500000000000000, 0.1562500000000000000, 1.913510623667738847E-17 ) ) ;
#147 = CARTESIAN_POINT ( 'NONE',  ( 0.000000000000000000, 1.250000000000000000, -0.1562499999999998335 ) ) ;
#148 = DIMENSIONAL_EXPONENTS ( 1.000000000000000000, 0.000000000000000000, 0.000000000000000000, 0.000000000000000000, 0.000000000000000000, 0.000000000000000000, 0.000000000000000000 ) ;
#149 = AXIS2_PLACEMENT_3D ( 'NONE', #94, #357, #304 ) ;
#150 = ORIENTED_EDGE ( 'NONE', *, *, #252, .F. ) ;
#151 = LENGTH_MEASURE_WITH_UNIT ( LENGTH_MEASURE( 0.02539999999999999897 ), #103 );
#152 = DIRECTION ( 'NONE',  ( -0.000000000000000000, -1.000000000000000000, -0.000000000000000000 ) ) ;
#153 = PRODUCT_DEFINITION ( 'UNKNOWN', '', #32, #186 ) ;
#154 = CYLINDRICAL_SURFACE ( 'NONE', #282, 0.1562499999999996669 ) ;
#155 = DIRECTION ( 'NONE',  ( 0.000000000000000000, 0.000000000000000000, -1.000000000000000000 ) ) ;
#156 = AXIS2_PLACEMENT_3D ( 'NONE', #268, #309, #261 ) ;
#157 = DIRECTION ( 'NONE',  ( 0.000000000000000000, 0.000000000000000000, 1.000000000000000000 ) ) ;
#158 = SPHERICAL_SURFACE ( 'NONE', #356, 0.1562500000000000000 ) ;
#159 = CARTESIAN_POINT ( 'NONE',  ( 2.150497723987677532E-16, 1.250000000000000000, 0.000000000000000000 ) ) ;
#160 = ORIENTED_EDGE ( 'NONE', *, *, #115, .F. ) ;
#161 = LENGTH_MEASURE_WITH_UNIT ( LENGTH_MEASURE( 0.02539999999999999897 ), #65 );
#162 = ORIENTED_EDGE ( 'NONE', *, *, #117, .F. ) ;
#163 = ADVANCED_BREP_SHAPE_REPRESENTATION ( '86025', ( #104, #228, #194 ), #119 ) ;
#164 = UNCERTAINTY_MEASURE_WITH_UNIT (LENGTH_MEASURE( 1.000000000000000082E-05 ), #11, 'distance_accuracy_value', 'NONE');
#165 = COLOUR_RGB ( '',1.000000000000000000, 0.000000000000000000, 0.000000000000000000 ) ;
#166 = DIRECTION ( 'NONE',  ( 1.000000000000000000, 1.791585858666558541E-17, 0.000000000000000000 ) ) ;
#167 = COLOUR_RGB ( '',1.000000000000000000, 0.000000000000000000, 0.000000000000000000 ) ;
#168 = DIRECTION ( 'NONE',  ( 0.000000000000000000, 1.000000000000000000, 0.000000000000000000 ) ) ;
#169 = CYLINDRICAL_SURFACE ( 'NONE', #318, 0.1562499999999999167 ) ;
#170 = CARTESIAN_POINT ( 'NONE',  ( 0.000000000000000000, 0.000000000000000000, 0.000000000000000000 ) ) ;
#171 = VERTEX_POINT ( 'NONE', #147 ) ;
#172 = CARTESIAN_POINT ( 'NONE',  ( 2.150497723987677532E-16, 1.250000000000000000, 0.000000000000000000 ) ) ;
#173 = DIMENSIONAL_EXPONENTS ( 1.000000000000000000, 0.000000000000000000, 0.000000000000000000, 0.000000000000000000, 0.000000000000000000, 0.000000000000000000, 0.000000000000000000 ) ;
#174 = ORIENTED_EDGE ( 'NONE', *, *, #335, .F. ) ;
#175 = SPHERICAL_SURFACE ( 'NONE', #281, 0.1562500000000000000 ) ;
#176 = DIRECTION ( 'NONE',  ( 0.000000000000000000, 0.000000000000000000, -1.000000000000000000 ) ) ;
#177 = CARTESIAN_POINT ( 'NONE',  ( 1.836970198721029688E-16, 3.000000000000000444, 0.000000000000000000 ) ) ;
#178 = DIRECTION ( 'NONE',  ( -0.000000000000000000, -1.000000000000000000, -0.000000000000000000 ) ) ;
#179 = DIRECTION ( 'NONE',  ( -1.791585858666558541E-17, 1.000000000000000000, -0.000000000000000000 ) ) ;
#180 = CARTESIAN_POINT ( 'NONE',  ( 0.1562499999999998335, 1.250000000000000000, 1.913510623667735149E-17 ) ) ;
#181 = ORIENTED_EDGE ( 'NONE', *, *, #123, .T. ) ;
#182 = EDGE_CURVE ( 'NONE', #19, #131, #47, .T. ) ;
#183 = LINE ( 'NONE', #203, #370 ) ;
#184 = EDGE_CURVE ( 'NONE', #171, #7, #6, .T. ) ;
#185 = SURFACE_SIDE_STYLE ('',( #323 ) ) ;
#186 = PRODUCT_DEFINITION_CONTEXT ( 'detailed design', #285, 'design' ) ;
#187 = AXIS2_PLACEMENT_3D ( 'NONE', #352, #321, #51 ) ;
#188 = FILL_AREA_STYLE ('',( #75 ) ) ;
#189 =( NAMED_UNIT ( * ) PLANE_ANGLE_UNIT ( ) SI_UNIT ( $, .RADIAN. ) );
#190 = ORIENTED_EDGE ( 'NONE', *, *, #184, .F. ) ;
#191 = VECTOR ( 'NONE', #289, 39.37007874015748143 ) ;
#192 = STYLED_ITEM ( 'NONE', ( #13 ), #347 ) ;
#193 = EDGE_CURVE ( 'NONE', #237, #116, #50, .T. ) ;
#195 = CARTESIAN_POINT ( 'NONE',  ( 0.1562499999999998335, 3.000000000000000444, 1.913510623667735149E-17 ) ) ;
#194 = AXIS2_PLACEMENT_3D ( 'NONE', #170, #248, #371 ) ;
#196 = DIRECTION ( 'NONE',  ( -1.791585858666558541E-17, 1.000000000000000000, -0.000000000000000000 ) ) ;
#197 = FILL_AREA_STYLE_COLOUR ( '', #165 ) ;
#198 = PRODUCT_RELATED_PRODUCT_CATEGORY ( 'part', '', ( #77 ) ) ;
#199 = DIRECTION ( 'NONE',  ( 0.000000000000000000, 0.000000000000000000, -1.000000000000000000 ) ) ;
#200 = CARTESIAN_POINT ( 'NONE',  ( 0.000000000000000000, 0.000000000000000000, 0.000000000000000000 ) ) ;
#201 =( LENGTH_UNIT ( ) NAMED_UNIT ( * ) SI_UNIT ( $, .METRE. ) );
#202 = EDGE_CURVE ( 'NONE', #116, #295, #262, .T. ) ;
#203 = CARTESIAN_POINT ( 'NONE',  ( 0.1562499999999998335, 3.000000000000000444, 1.913510623667735149E-17 ) ) ;
#204 = FILL_AREA_STYLE ('',( #40 ) ) ;
#205 = SURFACE_SIDE_STYLE ('',( #41 ) ) ;
#206 = FACE_OUTER_BOUND ( 'NONE', #27, .T. ) ;
#207 = DIMENSIONAL_EXPONENTS ( 1.000000000000000000, 0.000000000000000000, 0.000000000000000000, 0.000000000000000000, 0.000000000000000000, 0.000000000000000000, 0.000000000000000000 ) ;
#208 = CARTESIAN_POINT ( 'NONE',  ( 1.836970198721029688E-16, 3.000000000000000444, 0.000000000000000000 ) ) ;
#209 = MECHANICAL_DESIGN_GEOMETRIC_PRESENTATION_REPRESENTATION (  '', ( #328 ), #286 ) ;
#210 = STYLED_ITEM ( 'NONE', ( #212 ), #228 ) ;
#211 = ADVANCED_FACE ( 'NONE', ( #341 ), #158, .T. ) ;
#212 = PRESENTATION_STYLE_ASSIGNMENT (( #276 ) ) ;
#213 = DIRECTION ( 'NONE',  ( -0.000000000000000000, -1.000000000000000000, -0.000000000000000000 ) ) ;
#214 = CARTESIAN_POINT ( 'NONE',  ( 1.913510623667738847E-17, 0.1562500000000000000, 0.1562499999999999722 ) ) ;
#215 = AXIS2_PLACEMENT_3D ( 'NONE', #137, #70, #155 ) ;
#216 =( GEOMETRIC_REPRESENTATION_CONTEXT ( 3 ) GLOBAL_UNCERTAINTY_ASSIGNED_CONTEXT ( ( #336 ) ) GLOBAL_UNIT_ASSIGNED_CONTEXT ( ( #61, #314, #240 ) ) REPRESENTATION_CONTEXT ( 'NONE', 'WORKASPACE' ) );
#217 = SURFACE_STYLE_USAGE ( .BOTH. , #113 ) ;
#218 = CARTESIAN_POINT ( 'NONE',  ( 0.000000000000000000, 0.000000000000000000, -0.1562499999999999167 ) ) ;
#219 = EDGE_LOOP ( 'NONE', ( #367, #227, #96, #160 ) ) ;
#220 = APPLICATION_PROTOCOL_DEFINITION ( 'draft international standard', 'automotive_design', 1998, #285 ) ;
#221 = ADVANCED_FACE ( 'NONE', ( #144 ), #266, .T. ) ;
#222 = EDGE_LOOP ( 'NONE', ( #100, #143, #109, #134 ) ) ;
#223 = APPLICATION_CONTEXT ( 'automotive_design' ) ;
#224 = CIRCLE ( 'NONE', #187, 0.1562499999999998335 ) ;
#225 = CIRCLE ( 'NONE', #310, 0.1562500000000000000 ) ;
#226 = FACE_OUTER_BOUND ( 'NONE', #337, .T. ) ;
#227 = ORIENTED_EDGE ( 'NONE', *, *, #335, .T. ) ;
#228 = MANIFOLD_SOLID_BREP ( 'Revolve - Tool Body (Straight Shanked)', #363 ) ;
#229 = CARTESIAN_POINT ( 'NONE',  ( -0.1562499999999994171, 1.250000000000000000, 0.000000000000000000 ) ) ;
#230 = EDGE_CURVE ( 'NONE', #79, #237, #130, .T. ) ;
#231 = DIRECTION ( 'NONE',  ( 0.000000000000000000, 0.000000000000000000, 1.000000000000000000 ) ) ;
#232 = AXIS2_PLACEMENT_3D ( 'NONE', #177, #179, #302 ) ;
#233 = FILL_AREA_STYLE_COLOUR ( '', #99 ) ;
#234 = DIRECTION ( 'NONE',  ( -0.000000000000000000, -1.000000000000000000, -0.000000000000000000 ) ) ;
#235 = PLANE ( 'NONE',  #92 ) ;
#236 =( LENGTH_UNIT ( ) NAMED_UNIT ( * ) SI_UNIT ( $, .METRE. ) );
#237 = VERTEX_POINT ( 'NONE', #214 ) ;
#238 =( LENGTH_UNIT ( ) NAMED_UNIT ( * ) SI_UNIT ( $, .METRE. ) );
#239 = FILL_AREA_STYLE ('',( #135 ) ) ;
#240 =( NAMED_UNIT ( * ) SI_UNIT ( $, .STERADIAN. ) SOLID_ANGLE_UNIT ( ) );
#241 = COLOUR_RGB ( '',1.000000000000000000, 0.000000000000000000, 0.000000000000000000 ) ;
#242 = ADVANCED_FACE ( 'NONE', ( #81 ), #85, .F. ) ;
#243 = DIRECTION ( 'NONE',  ( -0.000000000000000000, -1.000000000000000000, -0.000000000000000000 ) ) ;
#244 = DIRECTION ( 'NONE',  ( -1.000000000000000000, 0.000000000000000000, 0.000000000000000000 ) ) ;
#245 = ORIENTED_EDGE ( 'NONE', *, *, #142, .T. ) ;
#246 = DIRECTION ( 'NONE',  ( 0.000000000000000000, -0.000000000000000000, 1.000000000000000000 ) ) ;
#247 = AXIS2_PLACEMENT_3D ( 'NONE', #54, #52, #83 ) ;
#248 = DIRECTION ( 'NONE',  ( 0.000000000000000000, 0.000000000000000000, 1.000000000000000000 ) ) ;
#249 = CARTESIAN_POINT ( 'NONE',  ( -0.1562499999999995004, 3.000000000000000444, 0.000000000000000000 ) ) ;
#250 = DIRECTION ( 'NONE',  ( -0.000000000000000000, -1.000000000000000000, -0.000000000000000000 ) ) ;
#251 = FILL_AREA_STYLE ('',( #38 ) ) ;
#252 = EDGE_CURVE ( 'NONE', #116, #361, #225, .T. ) ;
#253 = ORIENTED_EDGE ( 'NONE', *, *, #193, .F. ) ;
#254 = CARTESIAN_POINT ( 'NONE',  ( -1.913510623667738847E-17, 0.1562499999999999722, 0.000000000000000000 ) ) ;
#255 = COLOUR_RGB ( '',1.000000000000000000, 0.000000000000000000, 0.000000000000000000 ) ;
#256 = COLOUR_RGB ( '',1.000000000000000000, 0.000000000000000000, 0.000000000000000000 ) ;
#257 = DIMENSIONAL_EXPONENTS ( 1.000000000000000000, 0.000000000000000000, 0.000000000000000000, 0.000000000000000000, 0.000000000000000000, 0.000000000000000000, 0.000000000000000000 ) ;
#258 =( CONVERSION_BASED_UNIT ( 'INCH', #151 ) LENGTH_UNIT ( ) NAMED_UNIT ( #125 ) );
#259 = DIMENSIONAL_EXPONENTS ( 1.000000000000000000, 0.000000000000000000, 0.000000000000000000, 0.000000000000000000, 0.000000000000000000, 0.000000000000000000, 0.000000000000000000 ) ;
#260 = EDGE_LOOP ( 'NONE', ( #12, #278 ) ) ;
#261 = DIRECTION ( 'NONE',  ( 0.000000000000000000, 0.000000000000000000, -1.000000000000000000 ) ) ;
#262 = CIRCLE ( 'NONE', #156, 0.1562499999999999722 ) ;
#263 =( GEOMETRIC_REPRESENTATION_CONTEXT ( 3 ) GLOBAL_UNCERTAINTY_ASSIGNED_CONTEXT ( ( #164 ) ) GLOBAL_UNIT_ASSIGNED_CONTEXT ( ( #11, #30, #132 ) ) REPRESENTATION_CONTEXT ( 'NONE', 'WORKASPACE' ) );
#264 = LENGTH_MEASURE_WITH_UNIT ( LENGTH_MEASURE( 0.02539999999999999897 ), #201 );
#265 = UNCERTAINTY_MEASURE_WITH_UNIT (LENGTH_MEASURE( 1.000000000000000082E-05 ), #343, 'distance_accuracy_value', 'NONE');
#266 = CYLINDRICAL_SURFACE ( 'NONE', #8, 0.1562499999999999167 ) ;
#267 = ORIENTED_EDGE ( 'NONE', *, *, #182, .T. ) ;
#268 = CARTESIAN_POINT ( 'NONE',  ( 0.000000000000000000, 0.1562500000000000000, 0.000000000000000000 ) ) ;
#269 = DIRECTION ( 'NONE',  ( 1.000000000000000000, 0.000000000000000000, 0.000000000000000000 ) ) ;
#270 =( LENGTH_UNIT ( ) NAMED_UNIT ( * ) SI_UNIT ( $, .METRE. ) );
#271 = SURFACE_STYLE_FILL_AREA ( #325 ) ;
#272 = DIRECTION ( 'NONE',  ( -1.791585858666558541E-17, 1.000000000000000000, -0.000000000000000000 ) ) ;
#273 = LENGTH_MEASURE_WITH_UNIT ( LENGTH_MEASURE( 0.02539999999999999897 ), #72 );
#274 = AXIS2_PLACEMENT_3D ( 'NONE', #254, #56, #46 ) ;
#275 = SURFACE_STYLE_USAGE ( .BOTH. , #185 ) ;
#276 = SURFACE_STYLE_USAGE ( .BOTH. , #205 ) ;
#277 = PRESENTATION_STYLE_ASSIGNMENT (( #339 ) ) ;
#278 = ORIENTED_EDGE ( 'NONE', *, *, #84, .F. ) ;
#279 = CARTESIAN_POINT ( 'NONE',  ( -9.567553118338692694E-18, -3.414809992080329023E-17, 0.000000000000000000 ) ) ;
#280 = UNCERTAINTY_MEASURE_WITH_UNIT (LENGTH_MEASURE( 1.000000000000000082E-05 ), #102, 'distance_accuracy_value', 'NONE');
#281 = AXIS2_PLACEMENT_3D ( 'NONE', #296, #231, #269 ) ;
#282 = AXIS2_PLACEMENT_3D ( 'NONE', #208, #95, #244 ) ;
#283 = SURFACE_SIDE_STYLE ('',( #311 ) ) ;
#284 = ORIENTED_EDGE ( 'NONE', *, *, #330, .F. ) ;
#285 = APPLICATION_CONTEXT ( 'automotive_design' ) ;
#286 =( GEOMETRIC_REPRESENTATION_CONTEXT ( 3 ) GLOBAL_UNCERTAINTY_ASSIGNED_CONTEXT ( ( #106 ) ) GLOBAL_UNIT_ASSIGNED_CONTEXT ( ( #44, #364, #39 ) ) REPRESENTATION_CONTEXT ( 'NONE', 'WORKASPACE' ) );
#287 = MECHANICAL_DESIGN_GEOMETRIC_PRESENTATION_REPRESENTATION (  '', ( #192 ), #216 ) ;
#288 =( GEOMETRIC_REPRESENTATION_CONTEXT ( 3 ) GLOBAL_UNCERTAINTY_ASSIGNED_CONTEXT ( ( #280 ) ) GLOBAL_UNIT_ASSIGNED_CONTEXT ( ( #102, #365, #37 ) ) REPRESENTATION_CONTEXT ( 'NONE', 'WORKASPACE' ) );
#289 = DIRECTION ( 'NONE',  ( -1.791585858666558541E-17, 1.000000000000000000, -0.000000000000000000 ) ) ;
#290 = VERTEX_POINT ( 'NONE', #180 ) ;
#291 =( NAMED_UNIT ( * ) SI_UNIT ( $, .STERADIAN. ) SOLID_ANGLE_UNIT ( ) );
#292 = PRESENTATION_LAYER_ASSIGNMENT (  '', '', ( #369 ) ) ;
#293 = PRESENTATION_LAYER_ASSIGNMENT (  '', '', ( #192 ) ) ;
#294 = FILL_AREA_STYLE ('',( #197 ) ) ;
#295 = VERTEX_POINT ( 'NONE', #308 ) ;
#296 = CARTESIAN_POINT ( 'NONE',  ( -1.913510623667738847E-17, 0.1562499999999999722, 0.000000000000000000 ) ) ;
#297 = CARTESIAN_POINT ( 'NONE',  ( 0.000000000000000000, 0.000000000000000000, 0.000000000000000000 ) ) ;
#298 = SURFACE_STYLE_USAGE ( .BOTH. , #53 ) ;
#299 = FACE_OUTER_BOUND ( 'NONE', #366, .T. ) ;
#300 = MECHANICAL_DESIGN_GEOMETRIC_PRESENTATION_REPRESENTATION (  '', ( #316 ), #43 ) ;
#301 = LENGTH_MEASURE_WITH_UNIT ( LENGTH_MEASURE( 0.02539999999999999897 ), #236 );
#302 = DIRECTION ( 'NONE',  ( -1.000000000000000000, 0.000000000000000000, 0.000000000000000000 ) ) ;
#303 = CARTESIAN_POINT ( 'NONE',  ( 0.000000000000000000, 1.250000000000000000, 0.000000000000000000 ) ) ;
#304 = DIRECTION ( 'NONE',  ( -1.000000000000000000, 0.000000000000000000, 0.000000000000000000 ) ) ;
#305 =( NAMED_UNIT ( * ) PLANE_ANGLE_UNIT ( ) SI_UNIT ( $, .RADIAN. ) );
#306 = ADVANCED_FACE ( 'NONE', ( #299 ), #154, .T. ) ;
#307 = PRESENTATION_STYLE_ASSIGNMENT (( #217 ) ) ;
#308 = CARTESIAN_POINT ( 'NONE',  ( 0.000000000000000000, 0.1562500000000000000, -0.1562499999999999722 ) ) ;
#309 = DIRECTION ( 'NONE',  ( -0.000000000000000000, -1.000000000000000000, -0.000000000000000000 ) ) ;
#310 = AXIS2_PLACEMENT_3D ( 'NONE', #107, #333, #73 ) ;
#311 = SURFACE_STYLE_FILL_AREA ( #188 ) ;
#312 = ORIENTED_EDGE ( 'NONE', *, *, #330, .T. ) ;
#313 = ADVANCED_FACE ( 'NONE', ( #36 ), #235, .T. ) ;
#314 =( NAMED_UNIT ( * ) PLANE_ANGLE_UNIT ( ) SI_UNIT ( $, .RADIAN. ) );
#315 = STYLED_ITEM ( 'NONE', ( #277 ), #211 ) ;
#316 = STYLED_ITEM ( 'NONE', ( #307 ), #221 ) ;
#317 = CARTESIAN_POINT ( 'NONE',  ( 0.000000000000000000, 0.1562500000000000000, 0.000000000000000000 ) ) ;
#318 = AXIS2_PLACEMENT_3D ( 'NONE', #297, #178, #128 ) ;
#319 = CARTESIAN_POINT ( 'NONE',  ( 1.913510623667737923E-17, 1.250000000000000000, 0.1562499999999998335 ) ) ;
#320 = ORIENTED_EDGE ( 'NONE', *, *, #49, .T. ) ;
#321 = DIRECTION ( 'NONE',  ( -0.000000000000000000, -1.000000000000000000, -0.000000000000000000 ) ) ;
#322 = LENGTH_MEASURE_WITH_UNIT ( LENGTH_MEASURE( 0.02539999999999999897 ), #238 );
#323 = SURFACE_STYLE_FILL_AREA ( #204 ) ;
#324 = DIRECTION ( 'NONE',  ( -1.000000000000000000, -1.791585858666558541E-17, 0.000000000000000000 ) ) ;
#325 = FILL_AREA_STYLE ('',( #233 ) ) ;
#326 = EDGE_LOOP ( 'NONE', ( #342, #245, #312, #345, #253 ) ) ;
#327 = PRESENTATION_STYLE_ASSIGNMENT (( #133 ) ) ;
#328 = STYLED_ITEM ( 'NONE', ( #327 ), #104 ) ;
#329 = PRESENTATION_LAYER_ASSIGNMENT (  '', '', ( #129 ) ) ;
#330 = EDGE_CURVE ( 'NONE', #171, #295, #368, .T. ) ;
#331 = FILL_AREA_STYLE ('',( #136 ) ) ;
#332 = EDGE_CURVE ( 'NONE', #79, #361, #48, .T. ) ;
#333 = DIRECTION ( 'NONE',  ( 1.224646799147353207E-16, -0.000000000000000000, 1.000000000000000000 ) ) ;
#334 = DIRECTION ( 'NONE',  ( 0.000000000000000000, 0.000000000000000000, -1.000000000000000000 ) ) ;
#335 = EDGE_CURVE ( 'NONE', #290, #131, #183, .T. ) ;
#336 = UNCERTAINTY_MEASURE_WITH_UNIT (LENGTH_MEASURE( 1.000000000000000082E-05 ), #61, 'distance_accuracy_value', 'NONE');
#337 = EDGE_LOOP ( 'NONE', ( #150, #344, #320, #139 ) ) ;
#338 = AXIS2_PLACEMENT_3D ( 'NONE', #120, #196, #33 ) ;
#339 = SURFACE_STYLE_USAGE ( .BOTH. , #283 ) ;
#340 =( CONVERSION_BASED_UNIT ( 'INCH', #273 ) LENGTH_UNIT ( ) NAMED_UNIT ( #257 ) );
#341 = FACE_OUTER_BOUND ( 'NONE', #222, .T. ) ;
#342 = ORIENTED_EDGE ( 'NONE', *, *, #123, .F. ) ;
#343 =( CONVERSION_BASED_UNIT ( 'INCH', #111 ) LENGTH_UNIT ( ) NAMED_UNIT ( #351 ) );
#344 = ORIENTED_EDGE ( 'NONE', *, *, #202, .T. ) ;
#345 = ORIENTED_EDGE ( 'NONE', *, *, #202, .F. ) ;
#346 =( NAMED_UNIT ( * ) SI_UNIT ( $, .STERADIAN. ) SOLID_ANGLE_UNIT ( ) );
#347 = ADVANCED_FACE ( 'NONE', ( #206 ), #169, .T. ) ;
#348 = SHAPE_DEFINITION_REPRESENTATION ( #108, #163 ) ;
#349 = CARTESIAN_POINT ( 'NONE',  ( 0.1562499999999999722, 0.1562500000000000000, 0.000000000000000000 ) ) ;
#350 = ORIENTED_EDGE ( 'NONE', *, *, #117, .T. ) ;
#351 = DIMENSIONAL_EXPONENTS ( 1.000000000000000000, 0.000000000000000000, 0.000000000000000000, 0.000000000000000000, 0.000000000000000000, 0.000000000000000000, 0.000000000000000000 ) ;
#352 = CARTESIAN_POINT ( 'NONE',  ( 0.000000000000000000, 1.250000000000000000, 0.000000000000000000 ) ) ;
#353 = SURFACE_SIDE_STYLE ('',( #271 ) ) ;
#354 = EDGE_LOOP ( 'NONE', ( #267, #350 ) ) ;
#355 = CIRCLE ( 'NONE', #247, 0.1562499999999996669 ) ;
#356 = AXIS2_PLACEMENT_3D ( 'NONE', #3, #157, #62 ) ;
#357 = DIRECTION ( 'NONE',  ( -1.791585858666558541E-17, 1.000000000000000000, -0.000000000000000000 ) ) ;
#358 = ORIENTED_EDGE ( 'NONE', *, *, #84, .T. ) ;
#359 = SURFACE_STYLE_USAGE ( .BOTH. , #68 ) ;
#360 = ORIENTED_EDGE ( 'NONE', *, *, #142, .F. ) ;
#361 = VERTEX_POINT ( 'NONE', #279 ) ;
#362 = VECTOR ( 'NONE', #250, 39.37007874015748143 ) ;
#363 = CLOSED_SHELL ( 'NONE', ( #25, #14, #306, #242 ) ) ;
#364 =( NAMED_UNIT ( * ) PLANE_ANGLE_UNIT ( ) SI_UNIT ( $, .RADIAN. ) );
#365 =( NAMED_UNIT ( * ) PLANE_ANGLE_UNIT ( ) SI_UNIT ( $, .RADIAN. ) );
#366 = EDGE_LOOP ( 'NONE', ( #174, #358, #86, #162 ) ) ;
#367 = ORIENTED_EDGE ( 'NONE', *, *, #59, .T. ) ;
#368 = LINE ( 'NONE', #218, #362 ) ;
#369 = STYLED_ITEM ( 'NONE', ( #28 ), #69 ) ;
#370 = VECTOR ( 'NONE', #272, 39.37007874015748143 ) ;
#371 = DIRECTION ( 'NONE',  ( 1.000000000000000000, 0.000000000000000000, 0.000000000000000000 ) ) ;
#372 = SURFACE_STYLE_FILL_AREA ( #251 ) ;
#373 =( GEOMETRIC_REPRESENTATION_CONTEXT ( 3 ) GLOBAL_UNCERTAINTY_ASSIGNED_CONTEXT ( ( #265 ) ) GLOBAL_UNIT_ASSIGNED_CONTEXT ( ( #343, #189, #291 ) ) REPRESENTATION_CONTEXT ( 'NONE', 'WORKASPACE' ) );
ENDSEC;
END-ISO-10303-21;
