ISO-10303-21;
HEADER;
FILE_DESCRIPTION (( 'STEP AP214' ),
    '1' );
FILE_NAME ('Micro_GEM-031-3X.STEP',
    '2021-09-01T18:47:50',
    ( '' ),
    ( '' ),
    'SwSTEP 2.0',
    'SolidWorks 2020',
    '' );
FILE_SCHEMA (( 'AUTOMOTIVE_DESIGN' ));
ENDSEC;

DATA;
#1 = ORIENTED_EDGE ( 'NONE', *, *, #251, .T. ) ;
#2 = AXIS2_PLACEMENT_3D ( 'NONE', #59, #128, #217 ) ;
#3 = VECTOR ( 'NONE', #239, 39.37007874015748143 ) ;
#4 = MECHANICAL_DESIGN_GEOMETRIC_PRESENTATION_REPRESENTATION (  '', ( #48 ), #208 ) ;
#5 = ORIENTED_EDGE ( 'NONE', *, *, #94, .T. ) ;
#6 = CARTESIAN_POINT ( 'NONE',  ( 0.0000000000000000000, 0.0000000000000000000, 1.500000000000000222 ) ) ;
#7 = DIRECTION ( 'NONE',  ( -1.224646799147353700E-16, -0.0000000000000000000, -1.000000000000000000 ) ) ;
#8 =( CONVERSION_BASED_UNIT ( 'INCH', #271 ) LENGTH_UNIT ( ) NAMED_UNIT ( #125 ) );
#9 = PLANE ( 'NONE',  #126 ) ;
#10 = PRODUCT_CONTEXT ( 'NONE', #249, 'mechanical' ) ;
#11 = ORIENTED_EDGE ( 'NONE', *, *, #105, .F. ) ;
#12 = CIRCLE ( 'NONE', #289, 0.06250000000000002776 ) ;
#13 = ADVANCED_FACE ( 'NONE', ( #284 ), #99, .T. ) ;
#14 = ORIENTED_EDGE ( 'NONE', *, *, #91, .F. ) ;
#15 = DIRECTION ( 'NONE',  ( -1.000000000000000000, 0.0000000000000000000, 1.224646799147353700E-16 ) ) ;
#16 = CARTESIAN_POINT ( 'NONE',  ( 0.0000000000000000000, 0.0000000000000000000, 0.0000000000000000000 ) ) ;
#17 = CYLINDRICAL_SURFACE ( 'NONE', #203, 0.06250000000000002776 ) ;
#18 = PRESENTATION_STYLE_ASSIGNMENT (( #225 ) ) ;
#19 = ADVANCED_FACE ( 'NONE', ( #179 ), #9, .F. ) ;
#20 = DIRECTION ( 'NONE',  ( 0.1736481776669314414, 0.0000000000000000000, 0.9848077530122077983 ) ) ;
#21 = CIRCLE ( 'NONE', #190, 0.01558440000000001387 ) ;
#22 = SURFACE_STYLE_FILL_AREA ( #88 ) ;
#23 = DIRECTION ( 'NONE',  ( 1.000000000000000000, 0.0000000000000000000, 0.0000000000000000000 ) ) ;
#24 = ORIENTED_EDGE ( 'NONE', *, *, #49, .F. ) ;
#25 = CARTESIAN_POINT ( 'NONE',  ( -0.06250000000000002776, 0.0000000000000000000, 1.500000000000000222 ) ) ;
#26 = VERTEX_POINT ( 'NONE', #124 ) ;
#27 = FILL_AREA_STYLE_COLOUR ( '', #273 ) ;
#28 = ORIENTED_EDGE ( 'NONE', *, *, #94, .F. ) ;
#29 = ORIENTED_EDGE ( 'NONE', *, *, #135, .F. ) ;
#30 = ORIENTED_EDGE ( 'NONE', *, *, #285, .F. ) ;
#31 = CARTESIAN_POINT ( 'NONE',  ( 0.0000000000000000000, 0.0000000000000000000, 0.0000000000000000000 ) ) ;
#32 =( LENGTH_UNIT ( ) NAMED_UNIT ( * ) SI_UNIT ( $, .METRE. ) );
#33 = CARTESIAN_POINT ( 'NONE',  ( 4.213661705584326685E-17, 0.0000000000000000000, 0.3440715893364552080 ) ) ;
#34 =( NAMED_UNIT ( * ) PLANE_ANGLE_UNIT ( ) SI_UNIT ( $, .RADIAN. ) );
#35 = ADVANCED_FACE ( 'NONE', ( #176 ), #200, .T. ) ;
#36 = CARTESIAN_POINT ( 'NONE',  ( 0.0000000000000000000, 0.0000000000000000000, 1.500000000000000222 ) ) ;
#37 = FACE_OUTER_BOUND ( 'NONE', #98, .T. ) ;
#38 = CONICAL_SURFACE ( 'NONE', #280, 0.01558440000000000519, 0.1745329251994339470 ) ;
#39 = ORIENTED_EDGE ( 'NONE', *, *, #65, .F. ) ;
#40 = EDGE_CURVE ( 'NONE', #26, #299, #12, .T. ) ;
#41 = FACE_OUTER_BOUND ( 'NONE', #117, .T. ) ;
#42 = CARTESIAN_POINT ( 'NONE',  ( 0.01558440000000001560, 1.908538557663202632E-18, 0.0000000000000000000 ) ) ;
#43 = CIRCLE ( 'NONE', #212, 0.06250000000000002776 ) ;
#44 = CYLINDRICAL_SURFACE ( 'NONE', #221, 0.06250000000000002776 ) ;
#45 = EDGE_CURVE ( 'NONE', #281, #145, #43, .T. ) ;
#46 = DIRECTION ( 'NONE',  ( 1.224646799147353700E-16, 0.0000000000000000000, 1.000000000000000000 ) ) ;
#47 = CIRCLE ( 'NONE', #87, 0.06250000000000002776 ) ;
#48 = STYLED_ITEM ( 'NONE', ( #296 ), #188 ) ;
#49 = EDGE_CURVE ( 'NONE', #167, #210, #110, .T. ) ;
#50 = DIRECTION ( 'NONE',  ( -1.000000000000000000, 0.0000000000000000000, 0.0000000000000000000 ) ) ;
#51 = EDGE_LOOP ( 'NONE', ( #1, #5 ) ) ;
#52 = ORIENTED_EDGE ( 'NONE', *, *, #135, .T. ) ;
#53 = VECTOR ( 'NONE', #288, 39.37007874015748854 ) ;
#54 = ORIENTED_EDGE ( 'NONE', *, *, #49, .T. ) ;
#55 = DIRECTION ( 'NONE',  ( 1.000000000000000000, 0.0000000000000000000, 0.0000000000000000000 ) ) ;
#56 = VECTOR ( 'NONE', #235, 39.37007874015748143 ) ;
#57 = CONICAL_SURFACE ( 'NONE', #297, 0.01558440000000000519, 0.1745329251994339470 ) ;
#58 = CARTESIAN_POINT ( 'NONE',  ( -0.01558439999999999652, 1.908538557663201862E-18, 0.07800000000000009703 ) ) ;
#59 = CARTESIAN_POINT ( 'NONE',  ( 0.0000000000000000000, 0.0000000000000000000, 1.500000000000000222 ) ) ;
#60 = DIMENSIONAL_EXPONENTS ( 1.000000000000000000, 0.0000000000000000000, 0.0000000000000000000, 0.0000000000000000000, 0.0000000000000000000, 0.0000000000000000000, 0.0000000000000000000 ) ;
#61 = DIRECTION ( 'NONE',  ( 1.000000000000000000, 0.0000000000000000000, 0.0000000000000000000 ) ) ;
#62 = DIRECTION ( 'NONE',  ( 0.0000000000000000000, 0.0000000000000000000, 1.000000000000000000 ) ) ;
#63 = DIRECTION ( 'NONE',  ( 1.000000000000000000, 0.0000000000000000000, 0.0000000000000000000 ) ) ;
#64 = CIRCLE ( 'NONE', #137, 0.01558440000000001387 ) ;
#65 = EDGE_CURVE ( 'NONE', #214, #146, #144, .T. ) ;
#66 = SURFACE_SIDE_STYLE ('',( #22 ) ) ;
#67 = CARTESIAN_POINT ( 'NONE',  ( 0.01558440000000001387, 0.0000000000000000000, 0.07800000000000009703 ) ) ;
#68 = VECTOR ( 'NONE', #219, 39.37007874015748143 ) ;
#69 = ADVANCED_FACE ( 'NONE', ( #37 ), #247, .T. ) ;
#70 = CARTESIAN_POINT ( 'NONE',  ( 9.552245033349369302E-18, 0.0000000000000000000, 0.07800000000000009703 ) ) ;
#71 = DIRECTION ( 'NONE',  ( -1.224646799147353700E-16, -0.0000000000000000000, -1.000000000000000000 ) ) ;
#72 = EDGE_CURVE ( 'NONE', #167, #209, #76, .T. ) ;
#73 = COLOUR_RGB ( '',0.7921568627450980005, 0.8196078431372548767, 0.9333333333333333481 ) ;
#74 = LINE ( 'NONE', #95, #222 ) ;
#75 = ORIENTED_EDGE ( 'NONE', *, *, #142, .T. ) ;
#76 = CIRCLE ( 'NONE', #180, 0.01558440000000000519 ) ;
#77 = CARTESIAN_POINT ( 'NONE',  ( 0.0000000000000000000, 0.0000000000000000000, 1.485000000000000764 ) ) ;
#78 = CARTESIAN_POINT ( 'NONE',  ( 0.06250000000000002776, 7.654042494670959086E-18, 1.485000000000000764 ) ) ;
#79 = ORIENTED_EDGE ( 'NONE', *, *, #72, .T. ) ;
#80 = DIRECTION ( 'NONE',  ( -1.224646799147353700E-16, -0.0000000000000000000, -1.000000000000000000 ) ) ;
#81 = AXIS2_PLACEMENT_3D ( 'NONE', #129, #199, #148 ) ;
#82 = PRODUCT_DEFINITION_FORMATION_WITH_SPECIFIED_SOURCE ( 'ANY', '', #172, .NOT_KNOWN. ) ;
#83 = ORIENTED_EDGE ( 'NONE', *, *, #237, .F. ) ;
#84 = DIRECTION ( 'NONE',  ( -1.224646799147353700E-16, -0.0000000000000000000, -1.000000000000000000 ) ) ;
#85 = EDGE_CURVE ( 'NONE', #209, #167, #207, .T. ) ;
#86 = CARTESIAN_POINT ( 'NONE',  ( 4.213661705584326685E-17, 0.0000000000000000000, 0.3440715893364552080 ) ) ;
#87 = AXIS2_PLACEMENT_3D ( 'NONE', #86, #264, #63 ) ;
#88 = FILL_AREA_STYLE ('',( #283 ) ) ;
#89 = DIRECTION ( 'NONE',  ( 1.000000000000000000, 0.0000000000000000000, 0.0000000000000000000 ) ) ;
#90 = DIRECTION ( 'NONE',  ( 1.000000000000000000, 0.0000000000000000000, 0.0000000000000000000 ) ) ;
#91 = EDGE_CURVE ( 'NONE', #145, #281, #47, .T. ) ;
#92 = DIRECTION ( 'NONE',  ( -1.000000000000000000, 0.0000000000000000000, 1.224646799147353700E-16 ) ) ;
#93 = APPLICATION_PROTOCOL_DEFINITION ( 'draft international standard', 'automotive_design', 1998, #249 ) ;
#94 = EDGE_CURVE ( 'NONE', #210, #106, #64, .T. ) ;
#95 = CARTESIAN_POINT ( 'NONE',  ( 0.06250000000000002776, 7.654042494670959086E-18, 1.500000000000000222 ) ) ;
#96 = EDGE_LOOP ( 'NONE', ( #24, #79, #173, #28 ) ) ;
#97 = AXIS2_PLACEMENT_3D ( 'NONE', #133, #201, #134 ) ;
#98 = EDGE_LOOP ( 'NONE', ( #29, #83, #119, #143 ) ) ;
#99 = CONICAL_SURFACE ( 'NONE', #265, 0.04750000000000064587, 0.7853981633974466137 ) ;
#100 = AXIS2_PLACEMENT_3D ( 'NONE', #195, #114, #90 ) ;
#101 = AXIS2_PLACEMENT_3D ( 'NONE', #154, #261, #61 ) ;
#102 = ORIENTED_EDGE ( 'NONE', *, *, #293, .F. ) ;
#103 = DIRECTION ( 'NONE',  ( 0.0000000000000000000, 0.0000000000000000000, 1.000000000000000000 ) ) ;
#104 = UNCERTAINTY_MEASURE_WITH_UNIT (LENGTH_MEASURE( 1.000000000000000082E-05 ), #174, 'distance_accuracy_value', 'NONE');
#105 = EDGE_CURVE ( 'NONE', #209, #145, #107, .T. ) ;
#106 = VERTEX_POINT ( 'NONE', #193 ) ;
#107 = LINE ( 'NONE', #58, #56 ) ;
#108 = DIRECTION ( 'NONE',  ( -1.000000000000000000, 0.0000000000000000000, 0.0000000000000000000 ) ) ;
#109 = DIRECTION ( 'NONE',  ( -1.224646799147353700E-16, -0.0000000000000000000, -1.000000000000000000 ) ) ;
#110 = LINE ( 'NONE', #122, #68 ) ;
#111 = CYLINDRICAL_SURFACE ( 'NONE', #97, 0.01558440000000000866 ) ;
#112 = DIRECTION ( 'NONE',  ( -0.0000000000000000000, -0.0000000000000000000, -1.000000000000000000 ) ) ;
#113 = DIRECTION ( 'NONE',  ( -0.0000000000000000000, -0.0000000000000000000, -1.000000000000000000 ) ) ;
#114 = DIRECTION ( 'NONE',  ( 0.0000000000000000000, 0.0000000000000000000, -1.000000000000000000 ) ) ;
#115 = ORIENTED_EDGE ( 'NONE', *, *, #65, .T. ) ;
#116 = CIRCLE ( 'NONE', #100, 0.06250000000000002776 ) ;
#117 = EDGE_LOOP ( 'NONE', ( #215, #54, #234, #211 ) ) ;
#118 = UNCERTAINTY_MEASURE_WITH_UNIT (LENGTH_MEASURE( 1.000000000000000082E-05 ), #8, 'distance_accuracy_value', 'NONE');
#119 = ORIENTED_EDGE ( 'NONE', *, *, #147, .T. ) ;
#120 = PRESENTATION_LAYER_ASSIGNMENT (  '', '', ( #226 ) ) ;
#121 = ORIENTED_EDGE ( 'NONE', *, *, #40, .T. ) ;
#122 = CARTESIAN_POINT ( 'NONE',  ( 0.01558440000000000866, 1.908538557663202247E-18, -1.908538557663203017E-18 ) ) ;
#123 = SHAPE_DEFINITION_REPRESENTATION ( #150, #188 ) ;
#124 = CARTESIAN_POINT ( 'NONE',  ( -0.06250000000000002776, 0.0000000000000000000, 1.485000000000000764 ) ) ;
#125 = DIMENSIONAL_EXPONENTS ( 1.000000000000000000, 0.0000000000000000000, 0.0000000000000000000, 0.0000000000000000000, 0.0000000000000000000, 0.0000000000000000000, 0.0000000000000000000 ) ;
#126 = AXIS2_PLACEMENT_3D ( 'NONE', #31, #263, #287 ) ;
#127 = AXIS2_PLACEMENT_3D ( 'NONE', #16, #223, #92 ) ;
#128 = DIRECTION ( 'NONE',  ( 0.0000000000000000000, 0.0000000000000000000, -1.000000000000000000 ) ) ;
#129 = CARTESIAN_POINT ( 'NONE',  ( 9.552245033349369302E-18, 0.0000000000000000000, 0.07800000000000009703 ) ) ;
#130 = MANIFOLD_SOLID_BREP ( 'Cut-Revolve1', #155 ) ;
#131 = EDGE_CURVE ( 'NONE', #299, #26, #116, .T. ) ;
#132 =( NAMED_UNIT ( * ) SI_UNIT ( $, .STERADIAN. ) SOLID_ANGLE_UNIT ( ) );
#133 = CARTESIAN_POINT ( 'NONE',  ( 0.0000000000000000000, 0.0000000000000000000, 0.0000000000000000000 ) ) ;
#134 = DIRECTION ( 'NONE',  ( -1.000000000000000000, 0.0000000000000000000, 1.224646799147353700E-16 ) ) ;
#135 = EDGE_CURVE ( 'NONE', #214, #299, #183, .T. ) ;
#136 =( NAMED_UNIT ( * ) PLANE_ANGLE_UNIT ( ) SI_UNIT ( $, .RADIAN. ) );
#137 = AXIS2_PLACEMENT_3D ( 'NONE', #158, #7, #15 ) ;
#138 = EDGE_LOOP ( 'NONE', ( #11, #275, #75, #187 ) ) ;
#139 = CARTESIAN_POINT ( 'NONE',  ( -0.01558440000000000866, 0.0000000000000000000, 1.908538557663203017E-18 ) ) ;
#140 = EDGE_LOOP ( 'NONE', ( #30, #151, #169, #286 ) ) ;
#141 = DIRECTION ( 'NONE',  ( -1.000000000000000000, 0.0000000000000000000, 1.224646799147353700E-16 ) ) ;
#142 = EDGE_CURVE ( 'NONE', #167, #281, #159, .T. ) ;
#143 = ORIENTED_EDGE ( 'NONE', *, *, #131, .F. ) ;
#144 = CIRCLE ( 'NONE', #184, 0.04750000000000064587 ) ;
#145 = VERTEX_POINT ( 'NONE', #220 ) ;
#146 = VERTEX_POINT ( 'NONE', #162 ) ;
#147 = EDGE_CURVE ( 'NONE', #146, #26, #248, .T. ) ;
#148 = DIRECTION ( 'NONE',  ( -1.000000000000000000, 0.0000000000000000000, 0.0000000000000000000 ) ) ;
#149 = VECTOR ( 'NONE', #20, 39.37007874015748143 ) ;
#150 = PRODUCT_DEFINITION_SHAPE ( 'NONE', 'NONE',  #291 ) ;
#151 = ORIENTED_EDGE ( 'NONE', *, *, #131, .T. ) ;
#152 =( NAMED_UNIT ( * ) SI_UNIT ( $, .STERADIAN. ) SOLID_ANGLE_UNIT ( ) );
#153 = DIRECTION ( 'NONE',  ( -1.000000000000000000, 0.0000000000000000000, 0.0000000000000000000 ) ) ;
#154 = CARTESIAN_POINT ( 'NONE',  ( 0.0000000000000000000, 0.0000000000000000000, 0.0000000000000000000 ) ) ;
#155 = CLOSED_SHELL ( 'NONE', ( #170, #278, #13, #232, #163, #35, #69, #218, #196, #19 ) ) ;
#156 = DIRECTION ( 'NONE',  ( 1.000000000000000000, 0.0000000000000000000, 0.0000000000000000000 ) ) ;
#157 = AXIS2_PLACEMENT_3D ( 'NONE', #6, #103, #194 ) ;
#158 = CARTESIAN_POINT ( 'NONE',  ( 2.337285635691549169E-34, 0.0000000000000000000, 1.908538557663203788E-18 ) ) ;
#159 = LINE ( 'NONE', #67, #149 ) ;
#160 =( LENGTH_UNIT ( ) NAMED_UNIT ( * ) SI_UNIT ( $, .METRE. ) );
#161 = VECTOR ( 'NONE', #294, 39.37007874015748854 ) ;
#162 = CARTESIAN_POINT ( 'NONE',  ( -0.04750000000000064587, 0.0000000000000000000, 1.500000000000000222 ) ) ;
#163 = ADVANCED_FACE ( 'NONE', ( #185 ), #44, .T. ) ;
#164 = FACE_OUTER_BOUND ( 'NONE', #191, .T. ) ;
#165 = ORIENTED_EDGE ( 'NONE', *, *, #85, .F. ) ;
#166 =( NAMED_UNIT ( * ) PLANE_ANGLE_UNIT ( ) SI_UNIT ( $, .RADIAN. ) );
#167 = VERTEX_POINT ( 'NONE', #292 ) ;
#168 = DIRECTION ( 'NONE',  ( 1.224646799147353700E-16, 0.0000000000000000000, 1.000000000000000000 ) ) ;
#169 = ORIENTED_EDGE ( 'NONE', *, *, #293, .T. ) ;
#170 = ADVANCED_FACE ( 'NONE', ( #41 ), #204, .T. ) ;
#171 = DIMENSIONAL_EXPONENTS ( 1.000000000000000000, 0.0000000000000000000, 0.0000000000000000000, 0.0000000000000000000, 0.0000000000000000000, 0.0000000000000000000, 0.0000000000000000000 ) ;
#172 = PRODUCT ( 'Micro_GEM-031-3X', 'Micro_GEM-031-3X', '', ( #10 ) ) ;
#173 = ORIENTED_EDGE ( 'NONE', *, *, #257, .T. ) ;
#174 =( CONVERSION_BASED_UNIT ( 'INCH', #229 ) LENGTH_UNIT ( ) NAMED_UNIT ( #60 ) );
#175 = PRODUCT_DEFINITION_CONTEXT ( 'detailed design', #260, 'design' ) ;
#176 = FACE_OUTER_BOUND ( 'NONE', #277, .T. ) ;
#177 = DIRECTION ( 'NONE',  ( 0.0000000000000000000, 0.0000000000000000000, -1.000000000000000000 ) ) ;
#178 = DIRECTION ( 'NONE',  ( 1.000000000000000000, 0.0000000000000000000, 0.0000000000000000000 ) ) ;
#179 = FACE_OUTER_BOUND ( 'NONE', #51, .T. ) ;
#180 = AXIS2_PLACEMENT_3D ( 'NONE', #258, #109, #153 ) ;
#181 = PRESENTATION_LAYER_ASSIGNMENT (  '', '', ( #48 ) ) ;
#182 = FACE_OUTER_BOUND ( 'NONE', #240, .T. ) ;
#183 = LINE ( 'NONE', #268, #53 ) ;
#184 = AXIS2_PLACEMENT_3D ( 'NONE', #259, #244, #156 ) ;
#185 = FACE_OUTER_BOUND ( 'NONE', #140, .T. ) ;
#186 = LENGTH_MEASURE_WITH_UNIT ( LENGTH_MEASURE( 0.02539999999999999897 ), #160 );
#187 = ORIENTED_EDGE ( 'NONE', *, *, #45, .T. ) ;
#188 = ADVANCED_BREP_SHAPE_REPRESENTATION ( 'Micro_GEM-031-3X', ( #130, #101 ), #231 ) ;
#189 = ORIENTED_EDGE ( 'NONE', *, *, #91, .T. ) ;
#190 = AXIS2_PLACEMENT_3D ( 'NONE', #298, #80, #141 ) ;
#191 = EDGE_LOOP ( 'NONE', ( #165, #228, #189, #254 ) ) ;
#192 = LINE ( 'NONE', #139, #266 ) ;
#193 = CARTESIAN_POINT ( 'NONE',  ( -0.01558440000000001387, 0.0000000000000000000, 3.817077115326407575E-18 ) ) ;
#194 = DIRECTION ( 'NONE',  ( 1.000000000000000000, 0.0000000000000000000, 0.0000000000000000000 ) ) ;
#195 = CARTESIAN_POINT ( 'NONE',  ( 0.0000000000000000000, 0.0000000000000000000, 1.485000000000000764 ) ) ;
#196 = ADVANCED_FACE ( 'NONE', ( #269 ), #111, .T. ) ;
#197 = AXIS2_PLACEMENT_3D ( 'NONE', #242, #62, #216 ) ;
#198 = DIRECTION ( 'NONE',  ( 0.0000000000000000000, 0.0000000000000000000, -1.000000000000000000 ) ) ;
#199 = DIRECTION ( 'NONE',  ( -1.224646799147353700E-16, -0.0000000000000000000, -1.000000000000000000 ) ) ;
#200 = PLANE ( 'NONE',  #197 ) ;
#201 = DIRECTION ( 'NONE',  ( -1.224646799147353700E-16, -0.0000000000000000000, -1.000000000000000000 ) ) ;
#202 = FACE_OUTER_BOUND ( 'NONE', #138, .T. ) ;
#203 = AXIS2_PLACEMENT_3D ( 'NONE', #267, #112, #50 ) ;
#204 = CYLINDRICAL_SURFACE ( 'NONE', #127, 0.01558440000000000866 ) ;
#205 = LINE ( 'NONE', #25, #3 ) ;
#206 =( NAMED_UNIT ( * ) SI_UNIT ( $, .STERADIAN. ) SOLID_ANGLE_UNIT ( ) );
#207 = CIRCLE ( 'NONE', #81, 0.01558440000000000519 ) ;
#208 =( GEOMETRIC_REPRESENTATION_CONTEXT ( 3 ) GLOBAL_UNCERTAINTY_ASSIGNED_CONTEXT ( ( #118 ) ) GLOBAL_UNIT_ASSIGNED_CONTEXT ( ( #8, #34, #152 ) ) REPRESENTATION_CONTEXT ( 'NONE', 'WORKASPACE' ) );
#209 = VERTEX_POINT ( 'NONE', #250 ) ;
#210 = VERTEX_POINT ( 'NONE', #42 ) ;
#211 = ORIENTED_EDGE ( 'NONE', *, *, #257, .F. ) ;
#212 = AXIS2_PLACEMENT_3D ( 'NONE', #33, #84, #178 ) ;
#213 = FILL_AREA_STYLE ('',( #27 ) ) ;
#214 = VERTEX_POINT ( 'NONE', #290 ) ;
#215 = ORIENTED_EDGE ( 'NONE', *, *, #85, .T. ) ;
#216 = DIRECTION ( 'NONE',  ( 1.000000000000000000, 0.0000000000000000000, -0.0000000000000000000 ) ) ;
#217 = DIRECTION ( 'NONE',  ( -1.000000000000000000, 0.0000000000000000000, 0.0000000000000000000 ) ) ;
#218 = ADVANCED_FACE ( 'NONE', ( #202 ), #38, .T. ) ;
#219 = DIRECTION ( 'NONE',  ( -1.224646799147353700E-16, -0.0000000000000000000, -1.000000000000000000 ) ) ;
#220 = CARTESIAN_POINT ( 'NONE',  ( -0.06249999999999997918, 0.0000000000000000000, 0.3440715893364552080 ) ) ;
#221 = AXIS2_PLACEMENT_3D ( 'NONE', #245, #113, #270 ) ;
#222 = VECTOR ( 'NONE', #253, 39.37007874015748143 ) ;
#223 = DIRECTION ( 'NONE',  ( -1.224646799147353700E-16, -0.0000000000000000000, -1.000000000000000000 ) ) ;
#224 = CARTESIAN_POINT ( 'NONE',  ( -0.04750000000000064587, 0.0000000000000000000, 1.500000000000000222 ) ) ;
#225 = SURFACE_STYLE_USAGE ( .BOTH. , #66 ) ;
#226 = STYLED_ITEM ( 'NONE', ( #18 ), #130 ) ;
#227 = ORIENTED_EDGE ( 'NONE', *, *, #40, .F. ) ;
#228 = ORIENTED_EDGE ( 'NONE', *, *, #105, .T. ) ;
#229 = LENGTH_MEASURE_WITH_UNIT ( LENGTH_MEASURE( 0.02539999999999999897 ), #252 );
#230 = MECHANICAL_DESIGN_GEOMETRIC_PRESENTATION_REPRESENTATION (  '', ( #226 ), #272 ) ;
#231 =( GEOMETRIC_REPRESENTATION_CONTEXT ( 3 ) GLOBAL_UNCERTAINTY_ASSIGNED_CONTEXT ( ( #104 ) ) GLOBAL_UNIT_ASSIGNED_CONTEXT ( ( #174, #166, #206 ) ) REPRESENTATION_CONTEXT ( 'NONE', 'WORKASPACE' ) );
#232 = ADVANCED_FACE ( 'NONE', ( #182 ), #17, .T. ) ;
#233 = ORIENTED_EDGE ( 'NONE', *, *, #237, .T. ) ;
#234 = ORIENTED_EDGE ( 'NONE', *, *, #251, .F. ) ;
#235 = DIRECTION ( 'NONE',  ( -0.1736481776669312194, 2.126576849575783625E-17, 0.9848077530122077983 ) ) ;
#236 = SURFACE_SIDE_STYLE ('',( #295 ) ) ;
#237 = EDGE_CURVE ( 'NONE', #146, #214, #243, .T. ) ;
#238 = EDGE_LOOP ( 'NONE', ( #39, #52, #227, #256 ) ) ;
#239 = DIRECTION ( 'NONE',  ( -0.0000000000000000000, -0.0000000000000000000, -1.000000000000000000 ) ) ;
#240 = EDGE_LOOP ( 'NONE', ( #121, #279, #14, #102 ) ) ;
#241 = APPLICATION_PROTOCOL_DEFINITION ( 'draft international standard', 'automotive_design', 1998, #260 ) ;
#242 = CARTESIAN_POINT ( 'NONE',  ( 0.0000000000000000000, 0.0000000000000000000, 1.500000000000000222 ) ) ;
#243 = CIRCLE ( 'NONE', #157, 0.04750000000000064587 ) ;
#244 = DIRECTION ( 'NONE',  ( 0.0000000000000000000, 0.0000000000000000000, 1.000000000000000000 ) ) ;
#245 = CARTESIAN_POINT ( 'NONE',  ( 0.0000000000000000000, 0.0000000000000000000, 1.500000000000000222 ) ) ;
#246 =( CONVERSION_BASED_UNIT ( 'INCH', #186 ) LENGTH_UNIT ( ) NAMED_UNIT ( #171 ) );
#247 = CONICAL_SURFACE ( 'NONE', #2, 0.04750000000000064587, 0.7853981633974466137 ) ;
#248 = LINE ( 'NONE', #224, #161 ) ;
#249 = APPLICATION_CONTEXT ( 'automotive_design' ) ;
#250 = CARTESIAN_POINT ( 'NONE',  ( -0.01558439999999999652, 4.781290526167081051E-18, 0.07800000000000009703 ) ) ;
#251 = EDGE_CURVE ( 'NONE', #106, #210, #21, .T. ) ;
#252 =( LENGTH_UNIT ( ) NAMED_UNIT ( * ) SI_UNIT ( $, .METRE. ) );
#253 = DIRECTION ( 'NONE',  ( -0.0000000000000000000, -0.0000000000000000000, -1.000000000000000000 ) ) ;
#254 = ORIENTED_EDGE ( 'NONE', *, *, #142, .F. ) ;
#255 = UNCERTAINTY_MEASURE_WITH_UNIT (LENGTH_MEASURE( 1.000000000000000082E-05 ), #246, 'distance_accuracy_value', 'NONE');
#256 = ORIENTED_EDGE ( 'NONE', *, *, #147, .F. ) ;
#257 = EDGE_CURVE ( 'NONE', #209, #106, #192, .T. ) ;
#258 = CARTESIAN_POINT ( 'NONE',  ( 9.552245033349369302E-18, 0.0000000000000000000, 0.07800000000000009703 ) ) ;
#259 = CARTESIAN_POINT ( 'NONE',  ( 0.0000000000000000000, 0.0000000000000000000, 1.500000000000000222 ) ) ;
#260 = APPLICATION_CONTEXT ( 'automotive_design' ) ;
#261 = DIRECTION ( 'NONE',  ( 0.0000000000000000000, 0.0000000000000000000, 1.000000000000000000 ) ) ;
#262 = PRODUCT_RELATED_PRODUCT_CATEGORY ( 'part', '', ( #172 ) ) ;
#263 = DIRECTION ( 'NONE',  ( 0.0000000000000000000, 0.0000000000000000000, 1.000000000000000000 ) ) ;
#264 = DIRECTION ( 'NONE',  ( -1.224646799147353700E-16, -0.0000000000000000000, -1.000000000000000000 ) ) ;
#265 = AXIS2_PLACEMENT_3D ( 'NONE', #36, #177, #108 ) ;
#266 = VECTOR ( 'NONE', #71, 39.37007874015748143 ) ;
#267 = CARTESIAN_POINT ( 'NONE',  ( 0.0000000000000000000, 0.0000000000000000000, 1.500000000000000222 ) ) ;
#268 = CARTESIAN_POINT ( 'NONE',  ( 0.04750000000000064587, 5.817072295950006528E-18, 1.500000000000000222 ) ) ;
#269 = FACE_OUTER_BOUND ( 'NONE', #96, .T. ) ;
#270 = DIRECTION ( 'NONE',  ( -1.000000000000000000, 0.0000000000000000000, 0.0000000000000000000 ) ) ;
#271 = LENGTH_MEASURE_WITH_UNIT ( LENGTH_MEASURE( 0.02539999999999999897 ), #32 );
#272 =( GEOMETRIC_REPRESENTATION_CONTEXT ( 3 ) GLOBAL_UNCERTAINTY_ASSIGNED_CONTEXT ( ( #255 ) ) GLOBAL_UNIT_ASSIGNED_CONTEXT ( ( #246, #136, #132 ) ) REPRESENTATION_CONTEXT ( 'NONE', 'WORKASPACE' ) );
#273 = COLOUR_RGB ( '',0.7921568627450980005, 0.8196078431372548767, 0.9333333333333333481 ) ;
#274 = CARTESIAN_POINT ( 'NONE',  ( 9.552245033349369302E-18, 0.0000000000000000000, 0.07800000000000009703 ) ) ;
#275 = ORIENTED_EDGE ( 'NONE', *, *, #72, .F. ) ;
#276 = CARTESIAN_POINT ( 'NONE',  ( 0.06250000000000006939, 7.654042494670963708E-18, 0.3440715893364552080 ) ) ;
#277 = EDGE_LOOP ( 'NONE', ( #233, #115 ) ) ;
#278 = ADVANCED_FACE ( 'NONE', ( #164 ), #57, .T. ) ;
#279 = ORIENTED_EDGE ( 'NONE', *, *, #285, .T. ) ;
#280 = AXIS2_PLACEMENT_3D ( 'NONE', #70, #46, #89 ) ;
#281 = VERTEX_POINT ( 'NONE', #276 ) ;
#282 = SURFACE_STYLE_USAGE ( .BOTH. , #236 ) ;
#283 = FILL_AREA_STYLE_COLOUR ( '', #73 ) ;
#284 = FACE_OUTER_BOUND ( 'NONE', #238, .T. ) ;
#285 = EDGE_CURVE ( 'NONE', #299, #281, #74, .T. ) ;
#286 = ORIENTED_EDGE ( 'NONE', *, *, #45, .F. ) ;
#287 = DIRECTION ( 'NONE',  ( 1.000000000000000000, 0.0000000000000000000, -0.0000000000000000000 ) ) ;
#288 = DIRECTION ( 'NONE',  ( 0.7071067811865462405, 8.659560562354916834E-17, -0.7071067811865486830 ) ) ;
#289 = AXIS2_PLACEMENT_3D ( 'NONE', #77, #198, #55 ) ;
#290 = CARTESIAN_POINT ( 'NONE',  ( 0.04750000000000064587, 6.735557395310483192E-18, 1.500000000000000222 ) ) ;
#291 = PRODUCT_DEFINITION ( 'UNKNOWN', '', #82, #175 ) ;
#292 = CARTESIAN_POINT ( 'NONE',  ( 0.01558440000000001387, 0.0000000000000000000, 0.07800000000000009703 ) ) ;
#293 = EDGE_CURVE ( 'NONE', #26, #145, #205, .T. ) ;
#294 = DIRECTION ( 'NONE',  ( -0.7071067811865462405, 0.0000000000000000000, -0.7071067811865486830 ) ) ;
#295 = SURFACE_STYLE_FILL_AREA ( #213 ) ;
#296 = PRESENTATION_STYLE_ASSIGNMENT (( #282 ) ) ;
#297 = AXIS2_PLACEMENT_3D ( 'NONE', #274, #168, #23 ) ;
#298 = CARTESIAN_POINT ( 'NONE',  ( 2.337285635691549169E-34, 0.0000000000000000000, 1.908538557663203788E-18 ) ) ;
#299 = VERTEX_POINT ( 'NONE', #78 ) ;
ENDSEC;
END-ISO-10303-21;
