ISO-10303-21;
HEADER;
FILE_DESCRIPTION (( 'STEP AP214' ),
    '1' );
FILE_NAME ('07008.STEP',
    '2023-07-12T13:04:53',
    ( '' ),
    ( '' ),
    'SwSTEP 2.0',
    'SolidWorks 2023',
    '' );
FILE_SCHEMA (( 'AUTOMOTIVE_DESIGN' ));
ENDSEC;

DATA;
#1 = DIRECTION ( 'NONE',  ( -1.000000000000000000, -1.644639139670155606E-16, 0.000000000000000000 ) ) ;
#2 = ORIENTED_EDGE ( 'NONE', *, *, #42, .T. ) ;
#3 = CIRCLE ( 'NONE', #131, 0.1249999999999999861 ) ;
#4 = COLOUR_RGB ( '',0.7921568627450980005, 0.8196078431372548767, 0.9333333333333333481 ) ;
#5 = UNCERTAINTY_MEASURE_WITH_UNIT (LENGTH_MEASURE( 1.000000000000000082E-05 ), #64, 'distance_accuracy_value', 'NONE');
#6 = ORIENTED_EDGE ( 'NONE', *, *, #89, .T. ) ;
#7 =( LENGTH_UNIT ( ) NAMED_UNIT ( * ) SI_UNIT ( $, .METRE. ) );
#8 = DIRECTION ( 'NONE',  ( -1.644639139670155606E-16, 1.000000000000000000, 0.000000000000000000 ) ) ;
#9 = DIMENSIONAL_EXPONENTS ( 1.000000000000000000, 0.000000000000000000, 0.000000000000000000, 0.000000000000000000, 0.000000000000000000, 0.000000000000000000, 0.000000000000000000 ) ;
#10 = CLOSED_SHELL ( 'NONE', ( #15, #174, #70, #199 ) ) ;
#11 =( NAMED_UNIT ( * ) SI_UNIT ( $, .STERADIAN. ) SOLID_ANGLE_UNIT ( ) );
#12 = STYLED_ITEM ( 'NONE', ( #102 ), #281 ) ;
#13 =( NAMED_UNIT ( * ) PLANE_ANGLE_UNIT ( ) SI_UNIT ( $, .RADIAN. ) );
#14 = CARTESIAN_POINT ( 'NONE',  ( 3.329439742278320982E-16, 0.09499999999999966804, 0.000000000000000000 ) ) ;
#15 = ADVANCED_FACE ( 'NONE', ( #146 ), #100, .T. ) ;
#16 = EDGE_CURVE ( 'NONE', #172, #269, #163, .T. ) ;
#17 = DIRECTION ( 'NONE',  ( -1.000000000000000000, 0.000000000000000000, 0.000000000000000000 ) ) ;
#18 = CIRCLE ( 'NONE', #132, 0.1249999999999999029 ) ;
#19 =( NAMED_UNIT ( * ) SI_UNIT ( $, .STERADIAN. ) SOLID_ANGLE_UNIT ( ) );
#20 = CYLINDRICAL_SURFACE ( 'NONE', #21, 0.1249999999999997641 ) ;
#21 = AXIS2_PLACEMENT_3D ( 'NONE', #139, #287, #17 ) ;
#22 = MECHANICAL_DESIGN_GEOMETRIC_PRESENTATION_REPRESENTATION (  '', ( #12 ), #304 ) ;
#23 = CARTESIAN_POINT ( 'NONE',  ( 3.329439742278320982E-16, 0.09499999999999966804, 0.000000000000000000 ) ) ;
#24 =( NAMED_UNIT ( * ) SI_UNIT ( $, .STERADIAN. ) SOLID_ANGLE_UNIT ( ) );
#25 = CARTESIAN_POINT ( 'NONE',  ( 4.057256849602484823E-34, -2.466958709505233440E-18, 0.000000000000000000 ) ) ;
#26 = SURFACE_SIDE_STYLE ('',( #239 ) ) ;
#27 = AXIS2_PLACEMENT_3D ( 'NONE', #23, #91, #136 ) ;
#28 = STYLED_ITEM ( 'NONE', ( #166 ), #282 ) ;
#29 = FILL_AREA_STYLE ('',( #197 ) ) ;
#30 = FILL_AREA_STYLE_COLOUR ( '', #255 ) ;
#31 = DIRECTION ( 'NONE',  ( 1.000000000000000000, 1.644639139670155606E-16, 0.000000000000000000 ) ) ;
#32 = VERTEX_POINT ( 'NONE', #112 ) ;
#33 = AXIS2_PLACEMENT_3D ( 'NONE', #279, #65, #41 ) ;
#34 = CARTESIAN_POINT ( 'NONE',  ( 0.000000000000000000, 0.000000000000000000, 0.000000000000000000 ) ) ;
#35 =( NAMED_UNIT ( * ) SI_UNIT ( $, .STERADIAN. ) SOLID_ANGLE_UNIT ( ) );
#36 = DIMENSIONAL_EXPONENTS ( 1.000000000000000000, 0.000000000000000000, 0.000000000000000000, 0.000000000000000000, 0.000000000000000000, 0.000000000000000000, 0.000000000000000000 ) ;
#37 = CARTESIAN_POINT ( 'NONE',  ( 6.123233995736772199E-17, 2.500000000000000000, 0.000000000000000000 ) ) ;
#38 =( GEOMETRIC_REPRESENTATION_CONTEXT ( 3 ) GLOBAL_UNCERTAINTY_ASSIGNED_CONTEXT ( ( #207 ) ) GLOBAL_UNIT_ASSIGNED_CONTEXT ( ( #307, #119, #19 ) ) REPRESENTATION_CONTEXT ( 'NONE', 'WORKASPACE' ) );
#39 = AXIS2_PLACEMENT_3D ( 'NONE', #123, #169, #142 ) ;
#40 = CARTESIAN_POINT ( 'NONE',  ( -1.562407182686642119E-17, 0.09499999999999965417, 0.000000000000000000 ) ) ;
#41 = DIRECTION ( 'NONE',  ( 1.000000000000000000, 1.365923996832131856E-16, 0.000000000000000000 ) ) ;
#42 = EDGE_CURVE ( 'NONE', #75, #293, #3, .T. ) ;
#43 = PRODUCT_DEFINITION_SHAPE ( 'NONE', 'NONE',  #249 ) ;
#44 = AXIS2_PLACEMENT_3D ( 'NONE', #188, #115, #1 ) ;
#45 = SURFACE_STYLE_USAGE ( .BOTH. , #159 ) ;
#46 = SURFACE_STYLE_FILL_AREA ( #260 ) ;
#47 = FACE_OUTER_BOUND ( 'NONE', #125, .T. ) ;
#48 = DIRECTION ( 'NONE',  ( 1.644639139670155606E-16, -1.000000000000000000, -0.000000000000000000 ) ) ;
#49 =( LENGTH_UNIT ( ) NAMED_UNIT ( * ) SI_UNIT ( $, .METRE. ) );
#50 = ORIENTED_EDGE ( 'NONE', *, *, #305, .F. ) ;
#51 = FILL_AREA_STYLE ('',( #265 ) ) ;
#52 = ORIENTED_EDGE ( 'NONE', *, *, #218, .T. ) ;
#53 = EDGE_LOOP ( 'NONE', ( #202, #242 ) ) ;
#54 = DIRECTION ( 'NONE',  ( 1.644639139670155606E-16, -1.000000000000000000, -0.000000000000000000 ) ) ;
#55 = ORIENTED_EDGE ( 'NONE', *, *, #72, .T. ) ;
#56 = MECHANICAL_DESIGN_GEOMETRIC_PRESENTATION_REPRESENTATION (  '', ( #272 ), #234 ) ;
#57 = AXIS2_PLACEMENT_3D ( 'NONE', #34, #111, #250 ) ;
#58 =( NAMED_UNIT ( * ) PLANE_ANGLE_UNIT ( ) SI_UNIT ( $, .RADIAN. ) );
#59 = CARTESIAN_POINT ( 'NONE',  ( -0.1249999999999992784, 0.09499999999999965417, 0.000000000000000000 ) ) ;
#60 =( NAMED_UNIT ( * ) SI_UNIT ( $, .STERADIAN. ) SOLID_ANGLE_UNIT ( ) );
#61 = DIMENSIONAL_EXPONENTS ( 1.000000000000000000, 0.000000000000000000, 0.000000000000000000, 0.000000000000000000, 0.000000000000000000, 0.000000000000000000, 0.000000000000000000 ) ;
#62 = FACE_OUTER_BOUND ( 'NONE', #227, .T. ) ;
#63 = CONICAL_SURFACE ( 'NONE', #99, 0.02999999999999999889, 0.7853981633974500554 ) ;
#64 =( CONVERSION_BASED_UNIT ( 'INCH', #84 ) LENGTH_UNIT ( ) NAMED_UNIT ( #230 ) );
#65 = DIRECTION ( 'NONE',  ( 1.644639139670155606E-16, -1.000000000000000000, -0.000000000000000000 ) ) ;
#66 = PRESENTATION_STYLE_ASSIGNMENT (( #45 ) ) ;
#67 = DIRECTION ( 'NONE',  ( -1.000000000000000000, 0.000000000000000000, 0.000000000000000000 ) ) ;
#68 = ADVANCED_FACE ( 'NONE', ( #62 ), #247, .F. ) ;
#69 = CYLINDRICAL_SURFACE ( 'NONE', #259, 0.1249999999999997641 ) ;
#70 = ADVANCED_FACE ( 'NONE', ( #183 ), #63, .T. ) ;
#71 = FILL_AREA_STYLE_COLOUR ( '', #236 ) ;
#72 = EDGE_CURVE ( 'NONE', #293, #75, #137, .T. ) ;
#73 = STYLED_ITEM ( 'NONE', ( #66 ), #174 ) ;
#74 = SURFACE_STYLE_USAGE ( .BOTH. , #194 ) ;
#75 = VERTEX_POINT ( 'NONE', #109 ) ;
#76 = ORIENTED_EDGE ( 'NONE', *, *, #162, .T. ) ;
#77 = SURFACE_STYLE_FILL_AREA ( #51 ) ;
#78 = ORIENTED_EDGE ( 'NONE', *, *, #72, .F. ) ;
#79 = ADVANCED_FACE ( 'NONE', ( #113 ), #209, .F. ) ;
#80 = VERTEX_POINT ( 'NONE', #186 ) ;
#81 = COLOUR_RGB ( '',1.000000000000000000, 0.000000000000000000, 0.000000000000000000 ) ;
#82 = CIRCLE ( 'NONE', #39, 0.02999999999999999889 ) ;
#83 = DIRECTION ( 'NONE',  ( -1.129778105074695746E-16, 1.000000000000000000, -0.000000000000000000 ) ) ;
#84 = LENGTH_MEASURE_WITH_UNIT ( LENGTH_MEASURE( 0.02539999999999999897 ), #152 );
#85 = UNCERTAINTY_MEASURE_WITH_UNIT (LENGTH_MEASURE( 1.000000000000000082E-05 ), #261, 'distance_accuracy_value', 'NONE');
#86 = PRODUCT ( '07008', '07008', '', ( #134 ) ) ;
#87 = DIRECTION ( 'NONE',  ( -1.000000000000000000, -1.644639139670155606E-16, 0.000000000000000000 ) ) ;
#88 = PRESENTATION_LAYER_ASSIGNMENT (  '', '', ( #240 ) ) ;
#89 = EDGE_CURVE ( 'NONE', #101, #290, #156, .T. ) ;
#90 = DIRECTION ( 'NONE',  ( -1.000000000000000000, -1.129778105074695746E-16, 0.000000000000000000 ) ) ;
#91 = DIRECTION ( 'NONE',  ( -1.129778105074695746E-16, 1.000000000000000000, -0.000000000000000000 ) ) ;
#92 = FILL_AREA_STYLE_COLOUR ( '', #246 ) ;
#93 = CIRCLE ( 'NONE', #27, 0.1249999999999996253 ) ;
#94 = PRESENTATION_STYLE_ASSIGNMENT (( #117 ) ) ;
#95 = PRESENTATION_LAYER_ASSIGNMENT (  '', '', ( #12 ) ) ;
#96 = CARTESIAN_POINT ( 'NONE',  ( -0.1249999999999996947, 2.500000000000000000, 0.000000000000000000 ) ) ;
#97 = SURFACE_SIDE_STYLE ('',( #46 ) ) ;
#98 = CARTESIAN_POINT ( 'NONE',  ( 0.1249999999999998335, 2.500000000000000000, 1.530808498934188736E-17 ) ) ;
#99 = AXIS2_PLACEMENT_3D ( 'NONE', #228, #8, #87 ) ;
#100 = CONICAL_SURFACE ( 'NONE', #232, 0.02999999999999999889, 0.7853981633974500554 ) ;
#101 = VERTEX_POINT ( 'NONE', #59 ) ;
#102 = PRESENTATION_STYLE_ASSIGNMENT (( #144 ) ) ;
#103 = LENGTH_MEASURE_WITH_UNIT ( LENGTH_MEASURE( 0.02539999999999999897 ), #222 );
#104 = ORIENTED_EDGE ( 'NONE', *, *, #248, .F. ) ;
#105 = EDGE_LOOP ( 'NONE', ( #243, #107 ) ) ;
#106 = VECTOR ( 'NONE', #286, 39.37007874015748143 ) ;
#107 = ORIENTED_EDGE ( 'NONE', *, *, #162, .F. ) ;
#108 = EDGE_CURVE ( 'NONE', #80, #293, #153, .T. ) ;
#109 = CARTESIAN_POINT ( 'NONE',  ( -0.1250000000000000278, 0.09499999999999964029, 0.000000000000000000 ) ) ;
#110 = STYLED_ITEM ( 'NONE', ( #251 ), #70 ) ;
#111 = DIRECTION ( 'NONE',  ( 0.000000000000000000, 0.000000000000000000, 1.000000000000000000 ) ) ;
#112 = CARTESIAN_POINT ( 'NONE',  ( -0.02999999999999999889, -9.867834838020933759E-18, 0.000000000000000000 ) ) ;
#113 = FACE_OUTER_BOUND ( 'NONE', #105, .T. ) ;
#114 = AXIS2_PLACEMENT_3D ( 'NONE', #244, #54, #196 ) ;
#115 = DIRECTION ( 'NONE',  ( -1.644639139670155606E-16, 1.000000000000000000, 0.000000000000000000 ) ) ;
#116 = PLANE ( 'NONE',  #145 ) ;
#117 = SURFACE_STYLE_USAGE ( .BOTH. , #97 ) ;
#118 = MECHANICAL_DESIGN_GEOMETRIC_PRESENTATION_REPRESENTATION (  '', ( #110 ), #297 ) ;
#119 =( NAMED_UNIT ( * ) PLANE_ANGLE_UNIT ( ) SI_UNIT ( $, .RADIAN. ) );
#120 = ORIENTED_EDGE ( 'NONE', *, *, #16, .T. ) ;
#121 = CARTESIAN_POINT ( 'NONE',  ( -0.02999999999999999889, -9.867834838020933759E-18, 0.000000000000000000 ) ) ;
#122 = SURFACE_STYLE_USAGE ( .BOTH. , #26 ) ;
#123 = CARTESIAN_POINT ( 'NONE',  ( 8.114513699204969647E-34, -4.933917419010466879E-18, 0.000000000000000000 ) ) ;
#124 =( NAMED_UNIT ( * ) PLANE_ANGLE_UNIT ( ) SI_UNIT ( $, .RADIAN. ) );
#125 = EDGE_LOOP ( 'NONE', ( #50, #76, #201, #104 ) ) ;
#126 = LINE ( 'NONE', #121, #151 ) ;
#127 = APPLICATION_PROTOCOL_DEFINITION ( 'draft international standard', 'automotive_design', 1998, #210 ) ;
#128 =( NAMED_UNIT ( * ) PLANE_ANGLE_UNIT ( ) SI_UNIT ( $, .RADIAN. ) );
#129 = LENGTH_MEASURE_WITH_UNIT ( LENGTH_MEASURE( 0.02539999999999999897 ), #276 );
#130 = SURFACE_SIDE_STYLE ('',( #155 ) ) ;
#131 = AXIS2_PLACEMENT_3D ( 'NONE', #40, #157, #154 ) ;
#132 = AXIS2_PLACEMENT_3D ( 'NONE', #262, #225, #268 ) ;
#133 = SURFACE_STYLE_USAGE ( .BOTH. , #130 ) ;
#134 = PRODUCT_CONTEXT ( 'NONE', #210, 'mechanical' ) ;
#135 = FILL_AREA_STYLE ('',( #254 ) ) ;
#136 = DIRECTION ( 'NONE',  ( -1.000000000000000000, -1.365923996832135800E-16, 0.000000000000000000 ) ) ;
#137 = CIRCLE ( 'NONE', #33, 0.1249999999999999861 ) ;
#138 = APPLICATION_CONTEXT ( 'automotive_design' ) ;
#139 = CARTESIAN_POINT ( 'NONE',  ( 6.123233995736772199E-17, 2.500000000000000000, 0.000000000000000000 ) ) ;
#140 = MECHANICAL_DESIGN_GEOMETRIC_PRESENTATION_REPRESENTATION (  '', ( #73 ), #38 ) ;
#141 = LENGTH_MEASURE_WITH_UNIT ( LENGTH_MEASURE( 0.02539999999999999897 ), #212 );
#142 = DIRECTION ( 'NONE',  ( 1.000000000000000000, 1.644639139670155606E-16, 0.000000000000000000 ) ) ;
#143 = FILL_AREA_STYLE ('',( #30 ) ) ;
#144 = SURFACE_STYLE_USAGE ( .BOTH. , #223 ) ;
#145 = AXIS2_PLACEMENT_3D ( 'NONE', #25, #48, #31 ) ;
#146 = FACE_OUTER_BOUND ( 'NONE', #167, .T. ) ;
#147 = LENGTH_MEASURE_WITH_UNIT ( LENGTH_MEASURE( 0.02539999999999999897 ), #49 );
#148 = CARTESIAN_POINT ( 'NONE',  ( 8.114513699204969647E-34, -4.933917419010466879E-18, 0.000000000000000000 ) ) ;
#149 = EDGE_LOOP ( 'NONE', ( #6, #264, #170, #175 ) ) ;
#150 = DIRECTION ( 'NONE',  ( 1.000000000000000000, 1.129778105074695746E-16, 0.000000000000000000 ) ) ;
#151 = VECTOR ( 'NONE', #226, 39.37007874015748854 ) ;
#152 =( LENGTH_UNIT ( ) NAMED_UNIT ( * ) SI_UNIT ( $, .METRE. ) );
#153 = LINE ( 'NONE', #192, #106 ) ;
#154 = DIRECTION ( 'NONE',  ( 1.000000000000000000, 1.365923996832131856E-16, 0.000000000000000000 ) ) ;
#155 = SURFACE_STYLE_FILL_AREA ( #135 ) ;
#156 = CIRCLE ( 'NONE', #178, 0.1249999999999996253 ) ;
#157 = DIRECTION ( 'NONE',  ( 1.644639139670155606E-16, -1.000000000000000000, -0.000000000000000000 ) ) ;
#158 = LENGTH_MEASURE_WITH_UNIT ( LENGTH_MEASURE( 0.02539999999999999897 ), #190 );
#159 = SURFACE_SIDE_STYLE ('',( #161 ) ) ;
#160 = FACE_OUTER_BOUND ( 'NONE', #291, .T. ) ;
#161 = SURFACE_STYLE_FILL_AREA ( #285 ) ;
#162 = EDGE_CURVE ( 'NONE', #290, #101, #93, .T. ) ;
#163 = CIRCLE ( 'NONE', #288, 0.1249999999999999029 ) ;
#164 =( NAMED_UNIT ( * ) PLANE_ANGLE_UNIT ( ) SI_UNIT ( $, .RADIAN. ) );
#165 = PRODUCT_DEFINITION_CONTEXT ( 'detailed design', #138, 'design' ) ;
#166 = PRESENTATION_STYLE_ASSIGNMENT (( #74 ) ) ;
#167 = EDGE_LOOP ( 'NONE', ( #245, #195, #55, #198 ) ) ;
#168 = ADVANCED_FACE ( 'NONE', ( #47 ), #20, .T. ) ;
#169 = DIRECTION ( 'NONE',  ( 1.644639139670155606E-16, -1.000000000000000000, -0.000000000000000000 ) ) ;
#170 = ORIENTED_EDGE ( 'NONE', *, *, #16, .F. ) ;
#171 = PRODUCT_DEFINITION_FORMATION_WITH_SPECIFIED_SOURCE ( 'ANY', '', #86, .NOT_KNOWN. ) ;
#172 = VERTEX_POINT ( 'NONE', #213 ) ;
#173 =( CONVERSION_BASED_UNIT ( 'INCH', #147 ) LENGTH_UNIT ( ) NAMED_UNIT ( #36 ) );
#174 = ADVANCED_FACE ( 'NONE', ( #160 ), #217, .T. ) ;
#175 = ORIENTED_EDGE ( 'NONE', *, *, #182, .F. ) ;
#176 = DIRECTION ( 'NONE',  ( -1.129778105074695746E-16, 1.000000000000000000, -0.000000000000000000 ) ) ;
#177 = DIRECTION ( 'NONE',  ( -1.129778105074695746E-16, 1.000000000000000000, -0.000000000000000000 ) ) ;
#178 = AXIS2_PLACEMENT_3D ( 'NONE', #203, #177, #274 ) ;
#179 = ADVANCED_BREP_SHAPE_REPRESENTATION ( '07008', ( #282, #281, #57 ), #256 ) ;
#180 = DIMENSIONAL_EXPONENTS ( 1.000000000000000000, 0.000000000000000000, 0.000000000000000000, 0.000000000000000000, 0.000000000000000000, 0.000000000000000000, 0.000000000000000000 ) ;
#181 = UNCERTAINTY_MEASURE_WITH_UNIT (LENGTH_MEASURE( 1.000000000000000082E-05 ), #231, 'distance_accuracy_value', 'NONE');
#182 = EDGE_CURVE ( 'NONE', #101, #172, #309, .T. ) ;
#183 = FACE_OUTER_BOUND ( 'NONE', #271, .T. ) ;
#184 = MECHANICAL_DESIGN_GEOMETRIC_PRESENTATION_REPRESENTATION (  '', ( #240 ), #303 ) ;
#185 = ADVANCED_FACE ( 'NONE', ( #258 ), #69, .T. ) ;
#186 = CARTESIAN_POINT ( 'NONE',  ( 0.02999999999999999889, 0.000000000000000000, 9.491012693391986370E-18 ) ) ;
#187 = UNCERTAINTY_MEASURE_WITH_UNIT (LENGTH_MEASURE( 1.000000000000000082E-05 ), #241, 'distance_accuracy_value', 'NONE');
#188 = CARTESIAN_POINT ( 'NONE',  ( -1.562407182686641811E-17, 0.09499999999999961253, 0.000000000000000000 ) ) ;
#189 = PRESENTATION_LAYER_ASSIGNMENT (  '', '', ( #272 ) ) ;
#190 =( LENGTH_UNIT ( ) NAMED_UNIT ( * ) SI_UNIT ( $, .METRE. ) );
#191 = UNCERTAINTY_MEASURE_WITH_UNIT (LENGTH_MEASURE( 1.000000000000000082E-05 ), #173, 'distance_accuracy_value', 'NONE');
#192 = CARTESIAN_POINT ( 'NONE',  ( 0.02999999999999999889, 0.000000000000000000, 3.673940397442059190E-18 ) ) ;
#193 = CLOSED_SHELL ( 'NONE', ( #185, #79, #168, #68 ) ) ;
#194 = SURFACE_SIDE_STYLE ('',( #77 ) ) ;
#195 = ORIENTED_EDGE ( 'NONE', *, *, #108, .T. ) ;
#196 = DIRECTION ( 'NONE',  ( 1.000000000000000000, 1.644639139670155606E-16, 0.000000000000000000 ) ) ;
#197 = FILL_AREA_STYLE_COLOUR ( '', #4 ) ;
#198 = ORIENTED_EDGE ( 'NONE', *, *, #218, .F. ) ;
#199 = ADVANCED_FACE ( 'NONE', ( #216 ), #116, .T. ) ;
#200 = LINE ( 'NONE', #98, #215 ) ;
#201 = ORIENTED_EDGE ( 'NONE', *, *, #182, .T. ) ;
#202 = ORIENTED_EDGE ( 'NONE', *, *, #208, .T. ) ;
#203 = CARTESIAN_POINT ( 'NONE',  ( 3.329439742278320982E-16, 0.09499999999999966804, 0.000000000000000000 ) ) ;
#204 = DIMENSIONAL_EXPONENTS ( 1.000000000000000000, 0.000000000000000000, 0.000000000000000000, 0.000000000000000000, 0.000000000000000000, 0.000000000000000000, 0.000000000000000000 ) ;
#205 = AXIS2_PLACEMENT_3D ( 'NONE', #14, #302, #90 ) ;
#206 = PRESENTATION_LAYER_ASSIGNMENT (  '', '', ( #28 ) ) ;
#207 = UNCERTAINTY_MEASURE_WITH_UNIT (LENGTH_MEASURE( 1.000000000000000082E-05 ), #307, 'distance_accuracy_value', 'NONE');
#208 = EDGE_CURVE ( 'NONE', #32, #80, #214, .T. ) ;
#209 = PLANE ( 'NONE',  #205 ) ;
#210 = APPLICATION_CONTEXT ( 'automotive_design' ) ;
#211 = CARTESIAN_POINT ( 'NONE',  ( 6.123233995736772199E-17, 2.500000000000000000, 0.000000000000000000 ) ) ;
#212 =( LENGTH_UNIT ( ) NAMED_UNIT ( * ) SI_UNIT ( $, .METRE. ) );
#213 = CARTESIAN_POINT ( 'NONE',  ( -0.1249999999999998335, 2.500000000000000000, 0.000000000000000000 ) ) ;
#214 = CIRCLE ( 'NONE', #114, 0.02999999999999999889 ) ;
#215 = VECTOR ( 'NONE', #176, 39.37007874015748143 ) ;
#216 = FACE_OUTER_BOUND ( 'NONE', #53, .T. ) ;
#217 = PLANE ( 'NONE',  #44 ) ;
#218 = EDGE_CURVE ( 'NONE', #32, #75, #126, .T. ) ;
#219 = ORIENTED_EDGE ( 'NONE', *, *, #248, .T. ) ;
#220 = VECTOR ( 'NONE', #306, 39.37007874015748143 ) ;
#221 = COLOUR_RGB ( '',0.7921568627450980005, 0.8196078431372548767, 0.9333333333333333481 ) ;
#222 =( LENGTH_UNIT ( ) NAMED_UNIT ( * ) SI_UNIT ( $, .METRE. ) );
#223 = SURFACE_SIDE_STYLE ('',( #294 ) ) ;
#224 =( CONVERSION_BASED_UNIT ( 'INCH', #103 ) LENGTH_UNIT ( ) NAMED_UNIT ( #61 ) );
#225 = DIRECTION ( 'NONE',  ( -1.129778105074695746E-16, 1.000000000000000000, -0.000000000000000000 ) ) ;
#226 = DIRECTION ( 'NONE',  ( -0.7071067811865487940, 0.7071067811865461294, 0.000000000000000000 ) ) ;
#227 = EDGE_LOOP ( 'NONE', ( #120, #219 ) ) ;
#228 = CARTESIAN_POINT ( 'NONE',  ( 8.114513699204969647E-34, -4.933917419010466879E-18, 0.000000000000000000 ) ) ;
#229 = DIRECTION ( 'NONE',  ( -1.000000000000000000, 0.000000000000000000, 0.000000000000000000 ) ) ;
#230 = DIMENSIONAL_EXPONENTS ( 1.000000000000000000, 0.000000000000000000, 0.000000000000000000, 0.000000000000000000, 0.000000000000000000, 0.000000000000000000, 0.000000000000000000 ) ;
#231 =( CONVERSION_BASED_UNIT ( 'INCH', #129 ) LENGTH_UNIT ( ) NAMED_UNIT ( #180 ) );
#232 = AXIS2_PLACEMENT_3D ( 'NONE', #148, #233, #296 ) ;
#233 = DIRECTION ( 'NONE',  ( -1.644639139670155606E-16, 1.000000000000000000, 0.000000000000000000 ) ) ;
#234 =( GEOMETRIC_REPRESENTATION_CONTEXT ( 3 ) GLOBAL_UNCERTAINTY_ASSIGNED_CONTEXT ( ( #300 ) ) GLOBAL_UNIT_ASSIGNED_CONTEXT ( ( #224, #128, #35 ) ) REPRESENTATION_CONTEXT ( 'NONE', 'WORKASPACE' ) );
#235 = MECHANICAL_DESIGN_GEOMETRIC_PRESENTATION_REPRESENTATION (  '', ( #28 ), #299 ) ;
#236 = COLOUR_RGB ( '',1.000000000000000000, 0.000000000000000000, 0.000000000000000000 ) ;
#237 =( NAMED_UNIT ( * ) PLANE_ANGLE_UNIT ( ) SI_UNIT ( $, .RADIAN. ) );
#238 = ORIENTED_EDGE ( 'NONE', *, *, #42, .F. ) ;
#239 = SURFACE_STYLE_FILL_AREA ( #143 ) ;
#240 = STYLED_ITEM ( 'NONE', ( #94 ), #199 ) ;
#241 =( CONVERSION_BASED_UNIT ( 'INCH', #292 ) LENGTH_UNIT ( ) NAMED_UNIT ( #9 ) );
#242 = ORIENTED_EDGE ( 'NONE', *, *, #270, .T. ) ;
#243 = ORIENTED_EDGE ( 'NONE', *, *, #89, .F. ) ;
#244 = CARTESIAN_POINT ( 'NONE',  ( 8.114513699204969647E-34, -4.933917419010466879E-18, 0.000000000000000000 ) ) ;
#245 = ORIENTED_EDGE ( 'NONE', *, *, #270, .F. ) ;
#246 = COLOUR_RGB ( '',1.000000000000000000, 0.000000000000000000, 0.000000000000000000 ) ;
#247 = PLANE ( 'NONE',  #308 ) ;
#248 = EDGE_CURVE ( 'NONE', #269, #172, #18, .T. ) ;
#249 = PRODUCT_DEFINITION ( 'UNKNOWN', '', #171, #165 ) ;
#250 = DIRECTION ( 'NONE',  ( 1.000000000000000000, 0.000000000000000000, 0.000000000000000000 ) ) ;
#251 = PRESENTATION_STYLE_ASSIGNMENT (( #133 ) ) ;
#252 = DIMENSIONAL_EXPONENTS ( 1.000000000000000000, 0.000000000000000000, 0.000000000000000000, 0.000000000000000000, 0.000000000000000000, 0.000000000000000000, 0.000000000000000000 ) ;
#253 = CARTESIAN_POINT ( 'NONE',  ( 0.1249999999999999306, 0.09499999999999968192, 1.530808498934189352E-17 ) ) ;
#254 = FILL_AREA_STYLE_COLOUR ( '', #81 ) ;
#255 = COLOUR_RGB ( '',1.000000000000000000, 0.000000000000000000, 0.000000000000000000 ) ;
#256 =( GEOMETRIC_REPRESENTATION_CONTEXT ( 3 ) GLOBAL_UNCERTAINTY_ASSIGNED_CONTEXT ( ( #5 ) ) GLOBAL_UNIT_ASSIGNED_CONTEXT ( ( #64, #58, #11 ) ) REPRESENTATION_CONTEXT ( 'NONE', 'WORKASPACE' ) );
#257 =( NAMED_UNIT ( * ) SI_UNIT ( $, .STERADIAN. ) SOLID_ANGLE_UNIT ( ) );
#258 = FACE_OUTER_BOUND ( 'NONE', #149, .T. ) ;
#259 = AXIS2_PLACEMENT_3D ( 'NONE', #211, #283, #67 ) ;
#260 = FILL_AREA_STYLE ('',( #92 ) ) ;
#261 =( CONVERSION_BASED_UNIT ( 'INCH', #158 ) LENGTH_UNIT ( ) NAMED_UNIT ( #252 ) );
#262 = CARTESIAN_POINT ( 'NONE',  ( 6.123233995736772199E-17, 2.500000000000000000, 0.000000000000000000 ) ) ;
#263 =( NAMED_UNIT ( * ) SI_UNIT ( $, .STERADIAN. ) SOLID_ANGLE_UNIT ( ) );
#264 = ORIENTED_EDGE ( 'NONE', *, *, #305, .T. ) ;
#265 = FILL_AREA_STYLE_COLOUR ( '', #221 ) ;
#266 = ORIENTED_EDGE ( 'NONE', *, *, #208, .F. ) ;
#267 = PRESENTATION_STYLE_ASSIGNMENT (( #122 ) ) ;
#268 = DIRECTION ( 'NONE',  ( -1.000000000000000000, 0.000000000000000000, 0.000000000000000000 ) ) ;
#269 = VERTEX_POINT ( 'NONE', #289 ) ;
#270 = EDGE_CURVE ( 'NONE', #80, #32, #82, .T. ) ;
#271 = EDGE_LOOP ( 'NONE', ( #295, #266, #52, #2 ) ) ;
#272 = STYLED_ITEM ( 'NONE', ( #267 ), #15 ) ;
#273 = PRESENTATION_LAYER_ASSIGNMENT (  '', '', ( #110 ) ) ;
#274 = DIRECTION ( 'NONE',  ( -1.000000000000000000, -1.365923996832135800E-16, 0.000000000000000000 ) ) ;
#275 = SHAPE_DEFINITION_REPRESENTATION ( #43, #179 ) ;
#276 =( LENGTH_UNIT ( ) NAMED_UNIT ( * ) SI_UNIT ( $, .METRE. ) );
#277 = CARTESIAN_POINT ( 'NONE',  ( 0.1249999999999999584, 0.09499999999999966804, 1.530808498934191201E-17 ) ) ;
#278 = DIRECTION ( 'NONE',  ( 1.129778105074695746E-16, -1.000000000000000000, 0.000000000000000000 ) ) ;
#279 = CARTESIAN_POINT ( 'NONE',  ( -1.562407182686642119E-17, 0.09499999999999965417, 0.000000000000000000 ) ) ;
#280 = PRESENTATION_LAYER_ASSIGNMENT (  '', '', ( #73 ) ) ;
#281 = MANIFOLD_SOLID_BREP ( 'Revolve - Tool Body (Tipped Off)', #193 ) ;
#282 = MANIFOLD_SOLID_BREP ( 'Revolve - Cutting Edge', #10 ) ;
#283 = DIRECTION ( 'NONE',  ( -1.129778105074695746E-16, 1.000000000000000000, -0.000000000000000000 ) ) ;
#284 = PRODUCT_RELATED_PRODUCT_CATEGORY ( 'part', '', ( #86 ) ) ;
#285 = FILL_AREA_STYLE ('',( #71 ) ) ;
#286 = DIRECTION ( 'NONE',  ( 0.7071067811865486830, 0.7071067811865464625, 8.659560562354948882E-17 ) ) ;
#287 = DIRECTION ( 'NONE',  ( -1.129778105074695746E-16, 1.000000000000000000, -0.000000000000000000 ) ) ;
#288 = AXIS2_PLACEMENT_3D ( 'NONE', #37, #83, #229 ) ;
#289 = CARTESIAN_POINT ( 'NONE',  ( 0.1249999999999999445, 2.500000000000000000, 1.530808498934189352E-17 ) ) ;
#290 = VERTEX_POINT ( 'NONE', #253 ) ;
#291 = EDGE_LOOP ( 'NONE', ( #238, #78 ) ) ;
#292 = LENGTH_MEASURE_WITH_UNIT ( LENGTH_MEASURE( 0.02539999999999999897 ), #7 );
#293 = VERTEX_POINT ( 'NONE', #277 ) ;
#294 = SURFACE_STYLE_FILL_AREA ( #29 ) ;
#295 = ORIENTED_EDGE ( 'NONE', *, *, #108, .F. ) ;
#296 = DIRECTION ( 'NONE',  ( -1.000000000000000000, -1.644639139670155606E-16, 0.000000000000000000 ) ) ;
#297 =( GEOMETRIC_REPRESENTATION_CONTEXT ( 3 ) GLOBAL_UNCERTAINTY_ASSIGNED_CONTEXT ( ( #181 ) ) GLOBAL_UNIT_ASSIGNED_CONTEXT ( ( #231, #13, #257 ) ) REPRESENTATION_CONTEXT ( 'NONE', 'WORKASPACE' ) );
#298 = APPLICATION_PROTOCOL_DEFINITION ( 'draft international standard', 'automotive_design', 1998, #138 ) ;
#299 =( GEOMETRIC_REPRESENTATION_CONTEXT ( 3 ) GLOBAL_UNCERTAINTY_ASSIGNED_CONTEXT ( ( #191 ) ) GLOBAL_UNIT_ASSIGNED_CONTEXT ( ( #173, #124, #60 ) ) REPRESENTATION_CONTEXT ( 'NONE', 'WORKASPACE' ) );
#300 = UNCERTAINTY_MEASURE_WITH_UNIT (LENGTH_MEASURE( 1.000000000000000082E-05 ), #224, 'distance_accuracy_value', 'NONE');
#301 = CARTESIAN_POINT ( 'NONE',  ( 0.1249999999999999584, 2.500000000000000000, 0.000000000000000000 ) ) ;
#302 = DIRECTION ( 'NONE',  ( -1.129778105074695746E-16, 1.000000000000000000, 0.000000000000000000 ) ) ;
#303 =( GEOMETRIC_REPRESENTATION_CONTEXT ( 3 ) GLOBAL_UNCERTAINTY_ASSIGNED_CONTEXT ( ( #85 ) ) GLOBAL_UNIT_ASSIGNED_CONTEXT ( ( #261, #237, #263 ) ) REPRESENTATION_CONTEXT ( 'NONE', 'WORKASPACE' ) );
#304 =( GEOMETRIC_REPRESENTATION_CONTEXT ( 3 ) GLOBAL_UNCERTAINTY_ASSIGNED_CONTEXT ( ( #187 ) ) GLOBAL_UNIT_ASSIGNED_CONTEXT ( ( #241, #164, #24 ) ) REPRESENTATION_CONTEXT ( 'NONE', 'WORKASPACE' ) );
#305 = EDGE_CURVE ( 'NONE', #290, #269, #200, .T. ) ;
#306 = DIRECTION ( 'NONE',  ( -1.129778105074695746E-16, 1.000000000000000000, -0.000000000000000000 ) ) ;
#307 =( CONVERSION_BASED_UNIT ( 'INCH', #141 ) LENGTH_UNIT ( ) NAMED_UNIT ( #204 ) );
#308 = AXIS2_PLACEMENT_3D ( 'NONE', #301, #278, #150 ) ;
#309 = LINE ( 'NONE', #96, #220 ) ;
ENDSEC;
END-ISO-10303-21;
