ISO-10303-21;
HEADER;
FILE_DESCRIPTION (( 'STEP AP214' ),
    '1' );
FILE_NAME ('Micro_GEM-140-3.STEP',
    '2021-09-01T19:42:34',
    ( '' ),
    ( '' ),
    'SwSTEP 2.0',
    'SolidWorks 2020',
    '' );
FILE_SCHEMA (( 'AUTOMOTIVE_DESIGN' ));
ENDSEC;

DATA;
#1 = AXIS2_PLACEMENT_3D ( 'NONE', #81, #149, #242 ) ;
#2 = DIRECTION ( 'NONE',  ( 1.000000000000000000, 0.0000000000000000000, -0.0000000000000000000 ) ) ;
#3 = ADVANCED_FACE ( 'NONE', ( #216 ), #105, .T. ) ;
#4 = DIRECTION ( 'NONE',  ( 1.224646799147353207E-16, 0.0000000000000000000, 1.000000000000000000 ) ) ;
#5 = SURFACE_STYLE_FILL_AREA ( #235 ) ;
#6 = ORIENTED_EDGE ( 'NONE', *, *, #273, .F. ) ;
#7 =( NAMED_UNIT ( * ) SI_UNIT ( $, .STERADIAN. ) SOLID_ANGLE_UNIT ( ) );
#8 = EDGE_LOOP ( 'NONE', ( #264, #259, #162, #265 ) ) ;
#9 = EDGE_CURVE ( 'NONE', #282, #288, #83, .T. ) ;
#10 = DIMENSIONAL_EXPONENTS ( 1.000000000000000000, 0.0000000000000000000, 0.0000000000000000000, 0.0000000000000000000, 0.0000000000000000000, 0.0000000000000000000, 0.0000000000000000000 ) ;
#11 = ORIENTED_EDGE ( 'NONE', *, *, #44, .T. ) ;
#12 = LINE ( 'NONE', #33, #57 ) ;
#13 = AXIS2_PLACEMENT_3D ( 'NONE', #182, #163, #133 ) ;
#14 = EDGE_LOOP ( 'NONE', ( #172, #36, #60, #237 ) ) ;
#15 = EDGE_CURVE ( 'NONE', #218, #167, #12, .T. ) ;
#16 = CARTESIAN_POINT ( 'NONE',  ( -0.07874999999999980627, 0.0000000000000000000, 2.000000000000000000 ) ) ;
#17 = CARTESIAN_POINT ( 'NONE',  ( 1.053276796084074714E-33, 0.0000000000000000000, 8.600657731007888113E-18 ) ) ;
#18 = CARTESIAN_POINT ( 'NONE',  ( 0.0000000000000000000, 0.0000000000000000000, 0.0000000000000000000 ) ) ;
#19 = AXIS2_PLACEMENT_3D ( 'NONE', #177, #173, #290 ) ;
#20 = MECHANICAL_DESIGN_GEOMETRIC_PRESENTATION_REPRESENTATION (  '', ( #220 ), #247 ) ;
#21 = SURFACE_STYLE_USAGE ( .BOTH. , #22 ) ;
#22 = SURFACE_SIDE_STYLE ('',( #268 ) ) ;
#23 = CARTESIAN_POINT ( 'NONE',  ( -0.09375000000000001388, 0.0000000000000000000, 1.984999999999999654 ) ) ;
#24 = CIRCLE ( 'NONE', #148, 0.09375000000000001388 ) ;
#25 = CARTESIAN_POINT ( 'NONE',  ( 0.07874999999999980627, 1.056257864264590573E-17, 2.000000000000000000 ) ) ;
#26 = DIRECTION ( 'NONE',  ( 0.0000000000000000000, 0.0000000000000000000, 1.000000000000000000 ) ) ;
#27 = VECTOR ( 'NONE', #292, 39.37007874015748143 ) ;
#28 = CARTESIAN_POINT ( 'NONE',  ( -0.07022970000000000601, 0.0000000000000000000, 1.720131546201577623E-17 ) ) ;
#29 =( NAMED_UNIT ( * ) PLANE_ANGLE_UNIT ( ) SI_UNIT ( $, .RADIAN. ) );
#30 = EDGE_LOOP ( 'NONE', ( #152, #255, #147, #125 ) ) ;
#31 = ORIENTED_EDGE ( 'NONE', *, *, #257, .T. ) ;
#32 =( LENGTH_UNIT ( ) NAMED_UNIT ( * ) SI_UNIT ( $, .METRE. ) );
#33 = CARTESIAN_POINT ( 'NONE',  ( -0.07022969999999995050, 8.600657731007888113E-18, 0.5000000000000000000 ) ) ;
#34 = MANIFOLD_SOLID_BREP ( 'Cut-Revolve1', #151 ) ;
#35 = ORIENTED_EDGE ( 'NONE', *, *, #66, .T. ) ;
#36 = ORIENTED_EDGE ( 'NONE', *, *, #9, .T. ) ;
#37 = VECTOR ( 'NONE', #254, 39.37007874015748143 ) ;
#38 = DIRECTION ( 'NONE',  ( 0.0000000000000000000, 0.0000000000000000000, 1.000000000000000000 ) ) ;
#39 =( NAMED_UNIT ( * ) SI_UNIT ( $, .STERADIAN. ) SOLID_ANGLE_UNIT ( ) );
#40 = ADVANCED_FACE ( 'NONE', ( #199 ), #74, .T. ) ;
#41 = CARTESIAN_POINT ( 'NONE',  ( 0.0000000000000000000, 0.0000000000000000000, 1.984999999999999654 ) ) ;
#42 = DIRECTION ( 'NONE',  ( -1.000000000000000000, 0.0000000000000000000, 0.0000000000000000000 ) ) ;
#43 = PRESENTATION_LAYER_ASSIGNMENT (  '', '', ( #263 ) ) ;
#44 = EDGE_CURVE ( 'NONE', #286, #282, #123, .T. ) ;
#45 = CARTESIAN_POINT ( 'NONE',  ( 0.0000000000000000000, 0.0000000000000000000, 2.000000000000000000 ) ) ;
#46 = CARTESIAN_POINT ( 'NONE',  ( 6.123233995736766036E-17, 0.0000000000000000000, 0.5000000000000000000 ) ) ;
#47 = EDGE_CURVE ( 'NONE', #236, #218, #287, .T. ) ;
#48 = FACE_OUTER_BOUND ( 'NONE', #30, .T. ) ;
#49 = DIRECTION ( 'NONE',  ( 0.0000000000000000000, 0.0000000000000000000, 1.000000000000000000 ) ) ;
#50 = CARTESIAN_POINT ( 'NONE',  ( 0.07022970000000007540, 0.0000000000000000000, 0.5000000000000000000 ) ) ;
#51 = LENGTH_MEASURE_WITH_UNIT ( LENGTH_MEASURE( 0.02539999999999999897 ), #97 );
#52 = CARTESIAN_POINT ( 'NONE',  ( 0.07022970000000007540, 0.0000000000000000000, 0.5000000000000000000 ) ) ;
#53 = AXIS2_PLACEMENT_3D ( 'NONE', #46, #4, #278 ) ;
#54 = PRESENTATION_STYLE_ASSIGNMENT (( #120 ) ) ;
#55 = EDGE_LOOP ( 'NONE', ( #185, #85, #150, #56 ) ) ;
#56 = ORIENTED_EDGE ( 'NONE', *, *, #240, .F. ) ;
#57 = VECTOR ( 'NONE', #168, 39.37007874015747433 ) ;
#58 = PRESENTATION_LAYER_ASSIGNMENT (  '', '', ( #220 ) ) ;
#59 = ORIENTED_EDGE ( 'NONE', *, *, #130, .F. ) ;
#60 = ORIENTED_EDGE ( 'NONE', *, *, #66, .F. ) ;
#61 = ADVANCED_FACE ( 'NONE', ( #244 ), #289, .T. ) ;
#62 = EDGE_CURVE ( 'NONE', #124, #187, #297, .T. ) ;
#63 = EDGE_LOOP ( 'NONE', ( #31, #215 ) ) ;
#64 = CIRCLE ( 'NONE', #70, 0.07874999999999980627 ) ;
#65 = DIRECTION ( 'NONE',  ( 0.0000000000000000000, 0.0000000000000000000, -1.000000000000000000 ) ) ;
#66 = EDGE_CURVE ( 'NONE', #262, #288, #24, .T. ) ;
#67 = CARTESIAN_POINT ( 'NONE',  ( 6.123233995736766036E-17, 0.0000000000000000000, 0.5000000000000000000 ) ) ;
#68 = DIRECTION ( 'NONE',  ( 1.000000000000000000, 0.0000000000000000000, 0.0000000000000000000 ) ) ;
#69 = CARTESIAN_POINT ( 'NONE',  ( 0.0000000000000000000, 0.0000000000000000000, 2.000000000000000000 ) ) ;
#70 = AXIS2_PLACEMENT_3D ( 'NONE', #138, #26, #116 ) ;
#71 = FACE_OUTER_BOUND ( 'NONE', #8, .T. ) ;
#72 = CARTESIAN_POINT ( 'NONE',  ( 0.09375000000000001388, 1.148106374200643863E-17, 2.000000000000000000 ) ) ;
#73 = DIRECTION ( 'NONE',  ( -1.000000000000000000, 0.0000000000000000000, 0.0000000000000000000 ) ) ;
#74 = CONICAL_SURFACE ( 'NONE', #153, 0.07022970000000000601, 0.1745329251994338915 ) ;
#75 = PRODUCT_DEFINITION ( 'UNKNOWN', '', #118, #204 ) ;
#76 = DIRECTION ( 'NONE',  ( -1.000000000000000000, 0.0000000000000000000, 0.0000000000000000000 ) ) ;
#77 = DIRECTION ( 'NONE',  ( -1.224646799147353207E-16, -0.0000000000000000000, -1.000000000000000000 ) ) ;
#78 = CARTESIAN_POINT ( 'NONE',  ( 0.0000000000000000000, 0.0000000000000000000, 2.000000000000000000 ) ) ;
#79 = VECTOR ( 'NONE', #119, 39.37007874015748143 ) ;
#80 = ORIENTED_EDGE ( 'NONE', *, *, #261, .T. ) ;
#81 = CARTESIAN_POINT ( 'NONE',  ( 0.0000000000000000000, 0.0000000000000000000, 0.0000000000000000000 ) ) ;
#82 = DIMENSIONAL_EXPONENTS ( 1.000000000000000000, 0.0000000000000000000, 0.0000000000000000000, 0.0000000000000000000, 0.0000000000000000000, 0.0000000000000000000, 0.0000000000000000000 ) ;
#83 = LINE ( 'NONE', #238, #296 ) ;
#84 = AXIS2_PLACEMENT_3D ( 'NONE', #158, #65, #127 ) ;
#85 = ORIENTED_EDGE ( 'NONE', *, *, #15, .T. ) ;
#86 = ORIENTED_EDGE ( 'NONE', *, *, #257, .F. ) ;
#87 = FACE_OUTER_BOUND ( 'NONE', #102, .T. ) ;
#88 = CIRCLE ( 'NONE', #13, 0.09375000000000001388 ) ;
#89 = DIRECTION ( 'NONE',  ( -1.000000000000000000, 0.0000000000000000000, 0.0000000000000000000 ) ) ;
#90 = ADVANCED_FACE ( 'NONE', ( #200 ), #223, .T. ) ;
#91 = DIRECTION ( 'NONE',  ( -0.0000000000000000000, -0.0000000000000000000, -1.000000000000000000 ) ) ;
#92 = DIRECTION ( 'NONE',  ( -1.000000000000000000, 0.0000000000000000000, 1.224646799147353207E-16 ) ) ;
#93 = COLOUR_RGB ( '',0.7921568627450980005, 0.8196078431372548767, 0.9333333333333333481 ) ;
#94 = ADVANCED_FACE ( 'NONE', ( #87 ), #222, .T. ) ;
#95 = FACE_OUTER_BOUND ( 'NONE', #170, .T. ) ;
#96 = DIRECTION ( 'NONE',  ( -1.224646799147353207E-16, -0.0000000000000000000, -1.000000000000000000 ) ) ;
#97 =( LENGTH_UNIT ( ) NAMED_UNIT ( * ) SI_UNIT ( $, .METRE. ) );
#98 = AXIS2_PLACEMENT_3D ( 'NONE', #18, #129, #92 ) ;
#99 = CARTESIAN_POINT ( 'NONE',  ( 0.0000000000000000000, 0.0000000000000000000, 2.000000000000000000 ) ) ;
#100 = UNCERTAINTY_MEASURE_WITH_UNIT (LENGTH_MEASURE( 1.000000000000000082E-05 ), #155, 'distance_accuracy_value', 'NONE');
#101 = DIRECTION ( 'NONE',  ( -1.000000000000000000, 0.0000000000000000000, 1.224646799147353207E-16 ) ) ;
#102 = EDGE_LOOP ( 'NONE', ( #35, #121, #6, #59 ) ) ;
#103 = APPLICATION_PROTOCOL_DEFINITION ( 'draft international standard', 'automotive_design', 1998, #245 ) ;
#104 = EDGE_LOOP ( 'NONE', ( #126, #144, #122, #188 ) ) ;
#105 = CYLINDRICAL_SURFACE ( 'NONE', #1, 0.07022970000000000601 ) ;
#106 = ADVANCED_BREP_SHAPE_REPRESENTATION ( 'Micro_GEM-140-3', ( #34, #192 ), #219 ) ;
#107 = CARTESIAN_POINT ( 'NONE',  ( 6.123233995736766036E-17, 0.0000000000000000000, 0.5000000000000000000 ) ) ;
#108 = DIRECTION ( 'NONE',  ( 0.7071067811865463515, 8.659560562354916834E-17, -0.7071067811865486830 ) ) ;
#109 = APPLICATION_CONTEXT ( 'automotive_design' ) ;
#110 = DIRECTION ( 'NONE',  ( -0.0000000000000000000, -0.0000000000000000000, -1.000000000000000000 ) ) ;
#111 = LINE ( 'NONE', #271, #27 ) ;
#112 = DIRECTION ( 'NONE',  ( -1.224646799147353207E-16, -0.0000000000000000000, -1.000000000000000000 ) ) ;
#113 = AXIS2_PLACEMENT_3D ( 'NONE', #136, #112, #141 ) ;
#114 = CARTESIAN_POINT ( 'NONE',  ( 0.09375000000000001388, 1.148106374200643863E-17, 1.984999999999999654 ) ) ;
#115 = EDGE_CURVE ( 'NONE', #218, #187, #111, .T. ) ;
#116 = DIRECTION ( 'NONE',  ( 1.000000000000000000, 0.0000000000000000000, 0.0000000000000000000 ) ) ;
#117 = AXIS2_PLACEMENT_3D ( 'NONE', #227, #210, #2 ) ;
#118 = PRODUCT_DEFINITION_FORMATION_WITH_SPECIFIED_SOURCE ( 'ANY', '', #171, .NOT_KNOWN. ) ;
#119 = DIRECTION ( 'NONE',  ( 0.1736481776669313859, 0.0000000000000000000, 0.9848077530122077983 ) ) ;
#120 = SURFACE_STYLE_USAGE ( .BOTH. , #281 ) ;
#121 = ORIENTED_EDGE ( 'NONE', *, *, #146, .T. ) ;
#122 = ORIENTED_EDGE ( 'NONE', *, *, #115, .T. ) ;
#123 = CIRCLE ( 'NONE', #291, 0.07874999999999980627 ) ;
#124 = VERTEX_POINT ( 'NONE', #154 ) ;
#125 = ORIENTED_EDGE ( 'NONE', *, *, #284, .T. ) ;
#126 = ORIENTED_EDGE ( 'NONE', *, *, #217, .F. ) ;
#127 = DIRECTION ( 'NONE',  ( -1.000000000000000000, 0.0000000000000000000, 0.0000000000000000000 ) ) ;
#128 = DIRECTION ( 'NONE',  ( 1.224646799147353207E-16, 0.0000000000000000000, 1.000000000000000000 ) ) ;
#129 = DIRECTION ( 'NONE',  ( -1.224646799147353207E-16, -0.0000000000000000000, -1.000000000000000000 ) ) ;
#130 = EDGE_CURVE ( 'NONE', #262, #167, #132, .T. ) ;
#131 = ADVANCED_FACE ( 'NONE', ( #71 ), #169, .T. ) ;
#132 = LINE ( 'NONE', #195, #164 ) ;
#133 = DIRECTION ( 'NONE',  ( 1.000000000000000000, 0.0000000000000000000, 0.0000000000000000000 ) ) ;
#134 = APPLICATION_PROTOCOL_DEFINITION ( 'draft international standard', 'automotive_design', 1998, #109 ) ;
#135 = EDGE_CURVE ( 'NONE', #286, #262, #221, .T. ) ;
#136 = CARTESIAN_POINT ( 'NONE',  ( 7.756793420066120836E-17, 0.0000000000000000000, 0.6333902497819535737 ) ) ;
#137 = AXIS2_PLACEMENT_3D ( 'NONE', #299, #96, #207 ) ;
#138 = CARTESIAN_POINT ( 'NONE',  ( 0.0000000000000000000, 0.0000000000000000000, 2.000000000000000000 ) ) ;
#139 = ADVANCED_FACE ( 'NONE', ( #274 ), #270, .T. ) ;
#140 = DIRECTION ( 'NONE',  ( -0.7071067811865463515, 0.0000000000000000000, -0.7071067811865486830 ) ) ;
#141 = DIRECTION ( 'NONE',  ( 1.000000000000000000, 0.0000000000000000000, 0.0000000000000000000 ) ) ;
#142 = AXIS2_PLACEMENT_3D ( 'NONE', #69, #110, #89 ) ;
#143 = ADVANCED_FACE ( 'NONE', ( #203 ), #298, .F. ) ;
#144 = ORIENTED_EDGE ( 'NONE', *, *, #47, .T. ) ;
#145 = ORIENTED_EDGE ( 'NONE', *, *, #130, .T. ) ;
#146 = EDGE_CURVE ( 'NONE', #288, #194, #229, .T. ) ;
#147 = ORIENTED_EDGE ( 'NONE', *, *, #240, .T. ) ;
#148 = AXIS2_PLACEMENT_3D ( 'NONE', #41, #198, #294 ) ;
#149 = DIRECTION ( 'NONE',  ( -1.224646799147353207E-16, -0.0000000000000000000, -1.000000000000000000 ) ) ;
#150 = ORIENTED_EDGE ( 'NONE', *, *, #273, .T. ) ;
#151 = CLOSED_SHELL ( 'NONE', ( #3, #40, #139, #94, #193, #61, #131, #251, #90, #143 ) ) ;
#152 = ORIENTED_EDGE ( 'NONE', *, *, #15, .F. ) ;
#153 = AXIS2_PLACEMENT_3D ( 'NONE', #107, #128, #68 ) ;
#154 = CARTESIAN_POINT ( 'NONE',  ( 0.07022970000000000601, 8.600657731007888113E-18, 0.0000000000000000000 ) ) ;
#155 =( CONVERSION_BASED_UNIT ( 'INCH', #295 ) LENGTH_UNIT ( ) NAMED_UNIT ( #183 ) );
#156 = DIRECTION ( 'NONE',  ( -1.000000000000000000, 0.0000000000000000000, 1.224646799147353207E-16 ) ) ;
#157 = DIRECTION ( 'NONE',  ( -1.224646799147353207E-16, -0.0000000000000000000, -1.000000000000000000 ) ) ;
#158 = CARTESIAN_POINT ( 'NONE',  ( 0.0000000000000000000, 0.0000000000000000000, 2.000000000000000000 ) ) ;
#159 = DIRECTION ( 'NONE',  ( -0.0000000000000000000, -0.0000000000000000000, -1.000000000000000000 ) ) ;
#160 = CARTESIAN_POINT ( 'NONE',  ( -0.09374999999999991673, 0.0000000000000000000, 0.6333902497819535737 ) ) ;
#161 = CARTESIAN_POINT ( 'NONE',  ( -0.07022969999999995050, 1.004086073650716183E-17, 0.5000000000000000000 ) ) ;
#162 = ORIENTED_EDGE ( 'NONE', *, *, #135, .T. ) ;
#163 = DIRECTION ( 'NONE',  ( 0.0000000000000000000, 0.0000000000000000000, -1.000000000000000000 ) ) ;
#164 = VECTOR ( 'NONE', #91, 39.37007874015748143 ) ;
#165 = ORIENTED_EDGE ( 'NONE', *, *, #217, .T. ) ;
#166 = LENGTH_MEASURE_WITH_UNIT ( LENGTH_MEASURE( 0.02539999999999999897 ), #32 );
#167 = VERTEX_POINT ( 'NONE', #160 ) ;
#168 = DIRECTION ( 'NONE',  ( -0.1736481776669311916, 2.126576849575783316E-17, 0.9848077530122080203 ) ) ;
#169 = CONICAL_SURFACE ( 'NONE', #84, 0.07874999999999980627, 0.7853981633974466137 ) ;
#170 = EDGE_LOOP ( 'NONE', ( #211, #80, #145, #239 ) ) ;
#171 = PRODUCT ( 'Micro_GEM-140-3', 'Micro_GEM-140-3', '', ( #205 ) ) ;
#172 = ORIENTED_EDGE ( 'NONE', *, *, #293, .F. ) ;
#173 = DIRECTION ( 'NONE',  ( 0.0000000000000000000, 0.0000000000000000000, 1.000000000000000000 ) ) ;
#174 = CONICAL_SURFACE ( 'NONE', #53, 0.07022970000000000601, 0.1745329251994338915 ) ;
#175 = AXIS2_PLACEMENT_3D ( 'NONE', #78, #178, #73 ) ;
#176 = COLOUR_RGB ( '',0.7921568627450980005, 0.8196078431372548767, 0.9333333333333333481 ) ;
#177 = CARTESIAN_POINT ( 'NONE',  ( 0.0000000000000000000, 0.0000000000000000000, 2.000000000000000000 ) ) ;
#178 = DIRECTION ( 'NONE',  ( 0.0000000000000000000, 0.0000000000000000000, -1.000000000000000000 ) ) ;
#179 = CARTESIAN_POINT ( 'NONE',  ( -0.07874999999999980627, 0.0000000000000000000, 2.000000000000000000 ) ) ;
#180 = VECTOR ( 'NONE', #252, 39.37007874015748143 ) ;
#181 = CARTESIAN_POINT ( 'NONE',  ( 1.053276796084074714E-33, 0.0000000000000000000, 8.600657731007888113E-18 ) ) ;
#182 = CARTESIAN_POINT ( 'NONE',  ( 0.0000000000000000000, 0.0000000000000000000, 1.984999999999999654 ) ) ;
#183 = DIMENSIONAL_EXPONENTS ( 1.000000000000000000, 0.0000000000000000000, 0.0000000000000000000, 0.0000000000000000000, 0.0000000000000000000, 0.0000000000000000000, 0.0000000000000000000 ) ;
#184 = FILL_AREA_STYLE_COLOUR ( '', #176 ) ;
#185 = ORIENTED_EDGE ( 'NONE', *, *, #275, .F. ) ;
#186 =( NAMED_UNIT ( * ) PLANE_ANGLE_UNIT ( ) SI_UNIT ( $, .RADIAN. ) );
#187 = VERTEX_POINT ( 'NONE', #28 ) ;
#188 = ORIENTED_EDGE ( 'NONE', *, *, #62, .F. ) ;
#189 = FILL_AREA_STYLE_COLOUR ( '', #93 ) ;
#190 = AXIS2_PLACEMENT_3D ( 'NONE', #17, #266, #156 ) ;
#191 = AXIS2_PLACEMENT_3D ( 'NONE', #202, #272, #228 ) ;
#192 = AXIS2_PLACEMENT_3D ( 'NONE', #253, #49, #206 ) ;
#193 = ADVANCED_FACE ( 'NONE', ( #95 ), #277, .T. ) ;
#194 = VERTEX_POINT ( 'NONE', #234 ) ;
#195 = CARTESIAN_POINT ( 'NONE',  ( -0.09375000000000001388, 0.0000000000000000000, 2.000000000000000000 ) ) ;
#196 = PRESENTATION_STYLE_ASSIGNMENT (( #21 ) ) ;
#197 = MECHANICAL_DESIGN_GEOMETRIC_PRESENTATION_REPRESENTATION (  '', ( #263 ), #208 ) ;
#198 = DIRECTION ( 'NONE',  ( 0.0000000000000000000, 0.0000000000000000000, -1.000000000000000000 ) ) ;
#199 = FACE_OUTER_BOUND ( 'NONE', #55, .T. ) ;
#200 = FACE_OUTER_BOUND ( 'NONE', #104, .T. ) ;
#201 = AXIS2_PLACEMENT_3D ( 'NONE', #99, #159, #76 ) ;
#202 = CARTESIAN_POINT ( 'NONE',  ( 6.123233995736766036E-17, 0.0000000000000000000, 0.5000000000000000000 ) ) ;
#203 = FACE_OUTER_BOUND ( 'NONE', #63, .T. ) ;
#204 = PRODUCT_DEFINITION_CONTEXT ( 'detailed design', #109, 'design' ) ;
#205 = PRODUCT_CONTEXT ( 'NONE', #245, 'mechanical' ) ;
#206 = DIRECTION ( 'NONE',  ( 1.000000000000000000, 0.0000000000000000000, 0.0000000000000000000 ) ) ;
#207 = DIRECTION ( 'NONE',  ( 1.000000000000000000, 0.0000000000000000000, 0.0000000000000000000 ) ) ;
#208 =( GEOMETRIC_REPRESENTATION_CONTEXT ( 3 ) GLOBAL_UNCERTAINTY_ASSIGNED_CONTEXT ( ( #100 ) ) GLOBAL_UNIT_ASSIGNED_CONTEXT ( ( #155, #225, #39 ) ) REPRESENTATION_CONTEXT ( 'NONE', 'WORKASPACE' ) );
#209 = UNCERTAINTY_MEASURE_WITH_UNIT (LENGTH_MEASURE( 1.000000000000000082E-05 ), #232, 'distance_accuracy_value', 'NONE');
#210 = DIRECTION ( 'NONE',  ( 0.0000000000000000000, 0.0000000000000000000, 1.000000000000000000 ) ) ;
#211 = ORIENTED_EDGE ( 'NONE', *, *, #146, .F. ) ;
#212 =( CONVERSION_BASED_UNIT ( 'INCH', #166 ) LENGTH_UNIT ( ) NAMED_UNIT ( #82 ) );
#213 = ORIENTED_EDGE ( 'NONE', *, *, #275, .T. ) ;
#214 = AXIS2_PLACEMENT_3D ( 'NONE', #181, #77, #101 ) ;
#215 = ORIENTED_EDGE ( 'NONE', *, *, #62, .T. ) ;
#216 = FACE_OUTER_BOUND ( 'NONE', #241, .T. ) ;
#217 = EDGE_CURVE ( 'NONE', #236, #124, #249, .T. ) ;
#218 = VERTEX_POINT ( 'NONE', #161 ) ;
#219 =( GEOMETRIC_REPRESENTATION_CONTEXT ( 3 ) GLOBAL_UNCERTAINTY_ASSIGNED_CONTEXT ( ( #209 ) ) GLOBAL_UNIT_ASSIGNED_CONTEXT ( ( #232, #29, #7 ) ) REPRESENTATION_CONTEXT ( 'NONE', 'WORKASPACE' ) );
#220 = STYLED_ITEM ( 'NONE', ( #54 ), #106 ) ;
#221 = LINE ( 'NONE', #16, #280 ) ;
#222 = CYLINDRICAL_SURFACE ( 'NONE', #142, 0.09375000000000001388 ) ;
#223 = CYLINDRICAL_SURFACE ( 'NONE', #98, 0.07022970000000000601 ) ;
#224 = CIRCLE ( 'NONE', #113, 0.09375000000000001388 ) ;
#225 =( NAMED_UNIT ( * ) PLANE_ANGLE_UNIT ( ) SI_UNIT ( $, .RADIAN. ) );
#226 = FILL_AREA_STYLE ('',( #189 ) ) ;
#227 = CARTESIAN_POINT ( 'NONE',  ( 0.0000000000000000000, 0.0000000000000000000, 0.0000000000000000000 ) ) ;
#228 = DIRECTION ( 'NONE',  ( -1.000000000000000000, 0.0000000000000000000, 0.0000000000000000000 ) ) ;
#229 = LINE ( 'NONE', #72, #37 ) ;
#230 = PRODUCT_RELATED_PRODUCT_CATEGORY ( 'part', '', ( #171 ) ) ;
#231 = UNCERTAINTY_MEASURE_WITH_UNIT (LENGTH_MEASURE( 1.000000000000000082E-05 ), #212, 'distance_accuracy_value', 'NONE');
#232 =( CONVERSION_BASED_UNIT ( 'INCH', #51 ) LENGTH_UNIT ( ) NAMED_UNIT ( #10 ) );
#233 = CIRCLE ( 'NONE', #191, 0.07022970000000000601 ) ;
#234 = CARTESIAN_POINT ( 'NONE',  ( 0.09375000000000009714, 1.148106374200644787E-17, 0.6333902497819535737 ) ) ;
#235 = FILL_AREA_STYLE ('',( #184 ) ) ;
#236 = VERTEX_POINT ( 'NONE', #50 ) ;
#237 = ORIENTED_EDGE ( 'NONE', *, *, #135, .F. ) ;
#238 = CARTESIAN_POINT ( 'NONE',  ( 0.07874999999999980627, 9.644093543285380530E-18, 2.000000000000000000 ) ) ;
#239 = ORIENTED_EDGE ( 'NONE', *, *, #284, .F. ) ;
#240 = EDGE_CURVE ( 'NONE', #236, #194, #256, .T. ) ;
#241 = EDGE_LOOP ( 'NONE', ( #213, #165, #86, #283 ) ) ;
#242 = DIRECTION ( 'NONE',  ( -1.000000000000000000, 0.0000000000000000000, 1.224646799147353207E-16 ) ) ;
#243 = CIRCLE ( 'NONE', #214, 0.07022970000000000601 ) ;
#244 = FACE_OUTER_BOUND ( 'NONE', #285, .T. ) ;
#245 = APPLICATION_CONTEXT ( 'automotive_design' ) ;
#246 = AXIS2_PLACEMENT_3D ( 'NONE', #67, #157, #42 ) ;
#247 =( GEOMETRIC_REPRESENTATION_CONTEXT ( 3 ) GLOBAL_UNCERTAINTY_ASSIGNED_CONTEXT ( ( #231 ) ) GLOBAL_UNIT_ASSIGNED_CONTEXT ( ( #212, #186, #258 ) ) REPRESENTATION_CONTEXT ( 'NONE', 'WORKASPACE' ) );
#248 =( LENGTH_UNIT ( ) NAMED_UNIT ( * ) SI_UNIT ( $, .METRE. ) );
#249 = LINE ( 'NONE', #250, #180 ) ;
#250 = CARTESIAN_POINT ( 'NONE',  ( 0.07022970000000000601, 8.600657731007888113E-18, -8.600657731007888113E-18 ) ) ;
#251 = ADVANCED_FACE ( 'NONE', ( #48 ), #174, .T. ) ;
#252 = DIRECTION ( 'NONE',  ( -1.224646799147353207E-16, -0.0000000000000000000, -1.000000000000000000 ) ) ;
#253 = CARTESIAN_POINT ( 'NONE',  ( 0.0000000000000000000, 0.0000000000000000000, 0.0000000000000000000 ) ) ;
#254 = DIRECTION ( 'NONE',  ( -0.0000000000000000000, -0.0000000000000000000, -1.000000000000000000 ) ) ;
#255 = ORIENTED_EDGE ( 'NONE', *, *, #47, .F. ) ;
#256 = LINE ( 'NONE', #52, #79 ) ;
#257 = EDGE_CURVE ( 'NONE', #187, #124, #243, .T. ) ;
#258 =( NAMED_UNIT ( * ) SI_UNIT ( $, .STERADIAN. ) SOLID_ANGLE_UNIT ( ) );
#259 = ORIENTED_EDGE ( 'NONE', *, *, #44, .F. ) ;
#260 = ORIENTED_EDGE ( 'NONE', *, *, #293, .T. ) ;
#261 = EDGE_CURVE ( 'NONE', #288, #262, #88, .T. ) ;
#262 = VERTEX_POINT ( 'NONE', #23 ) ;
#263 = STYLED_ITEM ( 'NONE', ( #196 ), #34 ) ;
#264 = ORIENTED_EDGE ( 'NONE', *, *, #9, .F. ) ;
#265 = ORIENTED_EDGE ( 'NONE', *, *, #261, .F. ) ;
#266 = DIRECTION ( 'NONE',  ( -1.224646799147353207E-16, -0.0000000000000000000, -1.000000000000000000 ) ) ;
#267 = CIRCLE ( 'NONE', #137, 0.09375000000000001388 ) ;
#268 = SURFACE_STYLE_FILL_AREA ( #226 ) ;
#269 = DIRECTION ( 'NONE',  ( 1.000000000000000000, 0.0000000000000000000, 0.0000000000000000000 ) ) ;
#270 = CONICAL_SURFACE ( 'NONE', #175, 0.07874999999999980627, 0.7853981633974466137 ) ;
#271 = CARTESIAN_POINT ( 'NONE',  ( -0.07022970000000000601, 0.0000000000000000000, 8.600657731007888113E-18 ) ) ;
#272 = DIRECTION ( 'NONE',  ( -1.224646799147353207E-16, -0.0000000000000000000, -1.000000000000000000 ) ) ;
#273 = EDGE_CURVE ( 'NONE', #167, #194, #224, .T. ) ;
#274 = FACE_OUTER_BOUND ( 'NONE', #14, .T. ) ;
#275 = EDGE_CURVE ( 'NONE', #218, #236, #233, .T. ) ;
#276 = SHAPE_DEFINITION_REPRESENTATION ( #279, #106 ) ;
#277 = CYLINDRICAL_SURFACE ( 'NONE', #201, 0.09375000000000001388 ) ;
#278 = DIRECTION ( 'NONE',  ( 1.000000000000000000, 0.0000000000000000000, 0.0000000000000000000 ) ) ;
#279 = PRODUCT_DEFINITION_SHAPE ( 'NONE', 'NONE',  #75 ) ;
#280 = VECTOR ( 'NONE', #140, 39.37007874015748143 ) ;
#281 = SURFACE_SIDE_STYLE ('',( #5 ) ) ;
#282 = VERTEX_POINT ( 'NONE', #25 ) ;
#283 = ORIENTED_EDGE ( 'NONE', *, *, #115, .F. ) ;
#284 = EDGE_CURVE ( 'NONE', #194, #167, #267, .T. ) ;
#285 = EDGE_LOOP ( 'NONE', ( #11, #260 ) ) ;
#286 = VERTEX_POINT ( 'NONE', #179 ) ;
#287 = CIRCLE ( 'NONE', #246, 0.07022970000000000601 ) ;
#288 = VERTEX_POINT ( 'NONE', #114 ) ;
#289 = PLANE ( 'NONE',  #19 ) ;
#290 = DIRECTION ( 'NONE',  ( 1.000000000000000000, 0.0000000000000000000, -0.0000000000000000000 ) ) ;
#291 = AXIS2_PLACEMENT_3D ( 'NONE', #45, #38, #269 ) ;
#292 = DIRECTION ( 'NONE',  ( -1.224646799147353207E-16, -0.0000000000000000000, -1.000000000000000000 ) ) ;
#293 = EDGE_CURVE ( 'NONE', #282, #286, #64, .T. ) ;
#294 = DIRECTION ( 'NONE',  ( 1.000000000000000000, 0.0000000000000000000, 0.0000000000000000000 ) ) ;
#295 = LENGTH_MEASURE_WITH_UNIT ( LENGTH_MEASURE( 0.02539999999999999897 ), #248 );
#296 = VECTOR ( 'NONE', #108, 39.37007874015748143 ) ;
#297 = CIRCLE ( 'NONE', #190, 0.07022970000000000601 ) ;
#298 = PLANE ( 'NONE',  #117 ) ;
#299 = CARTESIAN_POINT ( 'NONE',  ( 7.756793420066120836E-17, 0.0000000000000000000, 0.6333902497819535737 ) ) ;
ENDSEC;
END-ISO-10303-21;
