ISO-10303-21;
HEADER;
FILE_DESCRIPTION (( 'STEP AP214' ),
    '1' );
FILE_NAME ('Micro_GEM-562-4X.STEP',
    '2021-09-01T20:58:08',
    ( '' ),
    ( '' ),
    'SwSTEP 2.0',
    'SolidWorks 2020',
    '' );
FILE_SCHEMA (( 'AUTOMOTIVE_DESIGN' ));
ENDSEC;

DATA;
#1 = CONICAL_SURFACE ( 'NONE', #202, 0.2809687499999999338, 0.1745329251994338637 ) ;
#2 = VERTEX_POINT ( 'NONE', #227 ) ;
#3 = DIRECTION ( 'NONE',  ( 1.000000000000000000, 0.0000000000000000000, -0.0000000000000000000 ) ) ;
#4 = ORIENTED_EDGE ( 'NONE', *, *, #271, .T. ) ;
#5 = CYLINDRICAL_SURFACE ( 'NONE', #60, 0.2812500000000000555 ) ;
#6 = DIRECTION ( 'NONE',  ( -1.000000000000000000, 0.0000000000000000000, 0.0000000000000000000 ) ) ;
#7 = CARTESIAN_POINT ( 'NONE',  ( 4.213856314347737298E-33, 0.0000000000000000000, 3.440874803479328548E-17 ) ) ;
#8 = AXIS2_PLACEMENT_3D ( 'NONE', #7, #29, #44 ) ;
#9 = DIRECTION ( 'NONE',  ( -0.7071067811865443531, 0.0000000000000000000, -0.7071067811865507924 ) ) ;
#10 = CARTESIAN_POINT ( 'NONE',  ( 0.0000000000000000000, 0.0000000000000000000, 3.500000000000000000 ) ) ;
#11 = FACE_OUTER_BOUND ( 'NONE', #162, .T. ) ;
#12 = COLOUR_RGB ( '',0.7921568627450980005, 0.8196078431372548767, 0.9333333333333333481 ) ;
#13 = AXIS2_PLACEMENT_3D ( 'NONE', #248, #175, #196 ) ;
#14 = DIRECTION ( 'NONE',  ( -1.000000000000000000, 0.0000000000000000000, 0.0000000000000000000 ) ) ;
#15 = APPLICATION_PROTOCOL_DEFINITION ( 'draft international standard', 'automotive_design', 1998, #46 ) ;
#16 = AXIS2_PLACEMENT_3D ( 'NONE', #111, #289, #199 ) ;
#17 = PRODUCT ( 'Micro_GEM-562-4X', 'Micro_GEM-562-4X', '', ( #90 ) ) ;
#18 =( NAMED_UNIT ( * ) SI_UNIT ( $, .STERADIAN. ) SOLID_ANGLE_UNIT ( ) );
#19 = ADVANCED_FACE ( 'NONE', ( #108 ), #239, .F. ) ;
#20 = DIRECTION ( 'NONE',  ( 1.000000000000000000, 0.0000000000000000000, 0.0000000000000000000 ) ) ;
#21 = DIRECTION ( 'NONE',  ( -1.000000000000000000, 0.0000000000000000000, 0.0000000000000000000 ) ) ;
#22 = ORIENTED_EDGE ( 'NONE', *, *, #97, .F. ) ;
#23 = EDGE_LOOP ( 'NONE', ( #50, #298, #273, #142 ) ) ;
#24 = VECTOR ( 'NONE', #151, 39.37007874015748143 ) ;
#25 = AXIS2_PLACEMENT_3D ( 'NONE', #285, #243, #105 ) ;
#26 = EDGE_LOOP ( 'NONE', ( #118, #207, #4, #278 ) ) ;
#27 = CARTESIAN_POINT ( 'NONE',  ( 0.2662500000000004863, 3.260622102729833328E-17, 3.500000000000000000 ) ) ;
#28 = CARTESIAN_POINT ( 'NONE',  ( 0.0000000000000000000, 0.0000000000000000000, 3.500000000000000000 ) ) ;
#29 = DIRECTION ( 'NONE',  ( -1.224646799147353207E-16, -0.0000000000000000000, -1.000000000000000000 ) ) ;
#30 = CARTESIAN_POINT ( 'NONE',  ( 0.0000000000000000000, 0.0000000000000000000, 3.485000000000000320 ) ) ;
#31 = FILL_AREA_STYLE ('',( #34 ) ) ;
#32 = AXIS2_PLACEMENT_3D ( 'NONE', #33, #259, #212 ) ;
#33 = CARTESIAN_POINT ( 'NONE',  ( 0.0000000000000000000, 0.0000000000000000000, 3.485000000000000320 ) ) ;
#34 = FILL_AREA_STYLE_COLOUR ( '', #12 ) ;
#35 = MANIFOLD_SOLID_BREP ( 'Cut-Revolve1', #161 ) ;
#36 = DIRECTION ( 'NONE',  ( -1.224646799147353207E-16, -0.0000000000000000000, -1.000000000000000000 ) ) ;
#37 = DIRECTION ( 'NONE',  ( -1.224646799147353207E-16, -0.0000000000000000000, -1.000000000000000000 ) ) ;
#38 = AXIS2_PLACEMENT_3D ( 'NONE', #55, #211, #3 ) ;
#39 =( LENGTH_UNIT ( ) NAMED_UNIT ( * ) SI_UNIT ( $, .METRE. ) );
#40 = DIRECTION ( 'NONE',  ( -1.224646799147353207E-16, -0.0000000000000000000, -1.000000000000000000 ) ) ;
#41 = EDGE_CURVE ( 'NONE', #65, #2, #139, .T. ) ;
#42 = CARTESIAN_POINT ( 'NONE',  ( -0.2809687499999999338, 0.0000000000000000000, 3.440874803479328548E-17 ) ) ;
#43 = PRODUCT_DEFINITION_SHAPE ( 'NONE', 'NONE',  #116 ) ;
#44 = DIRECTION ( 'NONE',  ( -1.000000000000000000, 0.0000000000000000000, 1.224646799147353207E-16 ) ) ;
#45 = VECTOR ( 'NONE', #37, 39.37007874015748143 ) ;
#46 = APPLICATION_CONTEXT ( 'automotive_design' ) ;
#47 = CIRCLE ( 'NONE', #52, 0.2662500000000004863 ) ;
#48 = VERTEX_POINT ( 'NONE', #183 ) ;
#49 = EDGE_LOOP ( 'NONE', ( #181, #164 ) ) ;
#50 = ORIENTED_EDGE ( 'NONE', *, *, #200, .T. ) ;
#51 = DIRECTION ( 'NONE',  ( 1.000000000000000000, 0.0000000000000000000, 0.0000000000000000000 ) ) ;
#52 = AXIS2_PLACEMENT_3D ( 'NONE', #10, #195, #74 ) ;
#53 = SURFACE_STYLE_FILL_AREA ( #31 ) ;
#54 = FACE_OUTER_BOUND ( 'NONE', #23, .T. ) ;
#55 = CARTESIAN_POINT ( 'NONE',  ( 0.0000000000000000000, 0.0000000000000000000, 3.500000000000000000 ) ) ;
#56 = LINE ( 'NONE', #214, #133 ) ;
#57 = PRESENTATION_LAYER_ASSIGNMENT (  '', '', ( #286 ) ) ;
#58 = DIRECTION ( 'NONE',  ( -1.000000000000000000, 0.0000000000000000000, 0.0000000000000000000 ) ) ;
#59 = CARTESIAN_POINT ( 'NONE',  ( 1.530808498934191571E-16, 0.0000000000000000000, 1.250000000000000000 ) ) ;
#60 = AXIS2_PLACEMENT_3D ( 'NONE', #189, #242, #6 ) ;
#61 = CARTESIAN_POINT ( 'NONE',  ( -0.2812500000000000555, 0.0000000000000000000, 3.500000000000000000 ) ) ;
#62 = LINE ( 'NONE', #61, #210 ) ;
#63 = EDGE_CURVE ( 'NONE', #48, #68, #228, .T. ) ;
#64 = AXIS2_PLACEMENT_3D ( 'NONE', #297, #293, #20 ) ;
#65 = VERTEX_POINT ( 'NONE', #150 ) ;
#66 = ORIENTED_EDGE ( 'NONE', *, *, #41, .T. ) ;
#67 = AXIS2_PLACEMENT_3D ( 'NONE', #201, #40, #14 ) ;
#68 = VERTEX_POINT ( 'NONE', #99 ) ;
#69 = STYLED_ITEM ( 'NONE', ( #129 ), #130 ) ;
#70 = ORIENTED_EDGE ( 'NONE', *, *, #136, .T. ) ;
#71 = FACE_OUTER_BOUND ( 'NONE', #93, .T. ) ;
#72 = ADVANCED_FACE ( 'NONE', ( #279 ), #96, .T. ) ;
#73 = ORIENTED_EDGE ( 'NONE', *, *, #190, .T. ) ;
#74 = DIRECTION ( 'NONE',  ( 1.000000000000000000, 0.0000000000000000000, 0.0000000000000000000 ) ) ;
#75 = CARTESIAN_POINT ( 'NONE',  ( 1.530808498934191571E-16, 0.0000000000000000000, 1.250000000000000000 ) ) ;
#76 = FACE_OUTER_BOUND ( 'NONE', #206, .T. ) ;
#77 = DIRECTION ( 'NONE',  ( -1.224646799147353207E-16, -0.0000000000000000000, -1.000000000000000000 ) ) ;
#78 = PRESENTATION_STYLE_ASSIGNMENT (( #217 ) ) ;
#79 = CARTESIAN_POINT ( 'NONE',  ( 1.532761869376289433E-16, 0.0000000000000000000, 1.251595048011768130 ) ) ;
#80 = CIRCLE ( 'NONE', #67, 0.2809687499999999338 ) ;
#81 = SURFACE_STYLE_FILL_AREA ( #223 ) ;
#82 = CARTESIAN_POINT ( 'NONE',  ( 0.2812500000000001665, 3.444319122601932821E-17, 1.251595048011768130 ) ) ;
#83 = EDGE_CURVE ( 'NONE', #95, #253, #112, .T. ) ;
#84 = DIRECTION ( 'NONE',  ( 0.0000000000000000000, 0.0000000000000000000, 1.000000000000000000 ) ) ;
#85 = AXIS2_PLACEMENT_3D ( 'NONE', #28, #171, #215 ) ;
#86 =( CONVERSION_BASED_UNIT ( 'INCH', #87 ) LENGTH_UNIT ( ) NAMED_UNIT ( #247 ) );
#87 = LENGTH_MEASURE_WITH_UNIT ( LENGTH_MEASURE( 0.02539999999999999897 ), #39 );
#88 = CIRCLE ( 'NONE', #205, 0.2812500000000000555 ) ;
#89 = VERTEX_POINT ( 'NONE', #261 ) ;
#90 = PRODUCT_CONTEXT ( 'NONE', #46, 'mechanical' ) ;
#91 = EDGE_CURVE ( 'NONE', #65, #95, #237, .T. ) ;
#92 = ORIENTED_EDGE ( 'NONE', *, *, #245, .F. ) ;
#93 = EDGE_LOOP ( 'NONE', ( #230, #115, #209, #186 ) ) ;
#94 = CONICAL_SURFACE ( 'NONE', #290, 0.2662500000000004863, 0.7853981633974437271 ) ;
#95 = VERTEX_POINT ( 'NONE', #169 ) ;
#96 = CYLINDRICAL_SURFACE ( 'NONE', #264, 0.2809687499999999338 ) ;
#97 = EDGE_CURVE ( 'NONE', #135, #120, #47, .T. ) ;
#98 = ORIENTED_EDGE ( 'NONE', *, *, #172, .T. ) ;
#99 = CARTESIAN_POINT ( 'NONE',  ( -0.2809687499999999893, 0.0000000000000000000, 6.881749606958657096E-17 ) ) ;
#100 =( LENGTH_UNIT ( ) NAMED_UNIT ( * ) SI_UNIT ( $, .METRE. ) );
#101 = CARTESIAN_POINT ( 'NONE',  ( -0.2662500000000004863, 0.0000000000000000000, 3.500000000000000000 ) ) ;
#102 = LINE ( 'NONE', #170, #126 ) ;
#103 = ADVANCED_FACE ( 'NONE', ( #257 ), #148, .T. ) ;
#104 = DIRECTION ( 'NONE',  ( 1.000000000000000000, 0.0000000000000000000, 0.0000000000000000000 ) ) ;
#105 = DIRECTION ( 'NONE',  ( 1.000000000000000000, 0.0000000000000000000, -0.0000000000000000000 ) ) ;
#106 = CARTESIAN_POINT ( 'NONE',  ( 0.0000000000000000000, 0.0000000000000000000, 3.500000000000000000 ) ) ;
#107 = AXIS2_PLACEMENT_3D ( 'NONE', #75, #232, #21 ) ;
#108 = FACE_OUTER_BOUND ( 'NONE', #49, .T. ) ;
#109 =( LENGTH_UNIT ( ) NAMED_UNIT ( * ) SI_UNIT ( $, .METRE. ) );
#110 = EDGE_CURVE ( 'NONE', #68, #48, #235, .T. ) ;
#111 = CARTESIAN_POINT ( 'NONE',  ( 1.530808498934191571E-16, 0.0000000000000000000, 1.250000000000000000 ) ) ;
#112 = CIRCLE ( 'NONE', #176, 0.2812500000000000555 ) ;
#113 = SURFACE_SIDE_STYLE ('',( #81 ) ) ;
#114 = UNCERTAINTY_MEASURE_WITH_UNIT (LENGTH_MEASURE( 1.000000000000000082E-05 ), #225, 'distance_accuracy_value', 'NONE');
#115 = ORIENTED_EDGE ( 'NONE', *, *, #266, .F. ) ;
#116 = PRODUCT_DEFINITION ( 'UNKNOWN', '', #231, #292 ) ;
#117 = ORIENTED_EDGE ( 'NONE', *, *, #91, .F. ) ;
#118 = ORIENTED_EDGE ( 'NONE', *, *, #179, .F. ) ;
#119 = APPLICATION_PROTOCOL_DEFINITION ( 'draft international standard', 'automotive_design', 1998, #158 ) ;
#120 = VERTEX_POINT ( 'NONE', #101 ) ;
#121 = CARTESIAN_POINT ( 'NONE',  ( -0.2809687499999998228, 3.440874803479328548E-17, 1.250000000000000000 ) ) ;
#122 = VERTEX_POINT ( 'NONE', #165 ) ;
#123 = DIRECTION ( 'NONE',  ( 1.000000000000000000, 0.0000000000000000000, 0.0000000000000000000 ) ) ;
#124 = CARTESIAN_POINT ( 'NONE',  ( 0.0000000000000000000, 0.0000000000000000000, 3.500000000000000000 ) ) ;
#125 = CARTESIAN_POINT ( 'NONE',  ( -0.2662500000000004863, 0.0000000000000000000, 3.500000000000000000 ) ) ;
#126 = VECTOR ( 'NONE', #193, 39.37007874015748143 ) ;
#127 = CARTESIAN_POINT ( 'NONE',  ( 1.532761869376289433E-16, 0.0000000000000000000, 1.251595048011768130 ) ) ;
#128 = LINE ( 'NONE', #267, #280 ) ;
#129 = PRESENTATION_STYLE_ASSIGNMENT (( #270 ) ) ;
#130 = ADVANCED_BREP_SHAPE_REPRESENTATION ( 'Micro_GEM-562-4X', ( #35, #64 ), #168 ) ;
#131 = FACE_OUTER_BOUND ( 'NONE', #296, .T. ) ;
#132 = DIRECTION ( 'NONE',  ( 1.000000000000000000, 0.0000000000000000000, 0.0000000000000000000 ) ) ;
#133 = VECTOR ( 'NONE', #240, 39.37007874015748143 ) ;
#134 = LENGTH_MEASURE_WITH_UNIT ( LENGTH_MEASURE( 0.02539999999999999897 ), #100 );
#135 = VERTEX_POINT ( 'NONE', #191 ) ;
#136 = EDGE_CURVE ( 'NONE', #253, #95, #88, .T. ) ;
#137 = ORIENTED_EDGE ( 'NONE', *, *, #200, .F. ) ;
#138 = SHAPE_DEFINITION_REPRESENTATION ( #43, #130 ) ;
#139 = CIRCLE ( 'NONE', #107, 0.2809687499999999338 ) ;
#140 = ORIENTED_EDGE ( 'NONE', *, *, #83, .T. ) ;
#141 = PRODUCT_RELATED_PRODUCT_CATEGORY ( 'part', '', ( #17 ) ) ;
#142 = ORIENTED_EDGE ( 'NONE', *, *, #272, .F. ) ;
#143 = ORIENTED_EDGE ( 'NONE', *, *, #172, .F. ) ;
#144 =( NAMED_UNIT ( * ) SI_UNIT ( $, .STERADIAN. ) SOLID_ANGLE_UNIT ( ) );
#145 = FACE_OUTER_BOUND ( 'NONE', #256, .T. ) ;
#146 = AXIS2_PLACEMENT_3D ( 'NONE', #263, #187, #283 ) ;
#147 = DIRECTION ( 'NONE',  ( -1.224646799147353207E-16, -0.0000000000000000000, -1.000000000000000000 ) ) ;
#148 = PLANE ( 'NONE',  #38 ) ;
#149 = EDGE_CURVE ( 'NONE', #122, #89, #295, .T. ) ;
#150 = CARTESIAN_POINT ( 'NONE',  ( -0.2809687499999998228, 3.442596963040630068E-17, 1.250000000000000000 ) ) ;
#151 = DIRECTION ( 'NONE',  ( 0.7071067811865443531, 8.659560562354894648E-17, -0.7071067811865507924 ) ) ;
#152 = FACE_OUTER_BOUND ( 'NONE', #255, .T. ) ;
#153 = CYLINDRICAL_SURFACE ( 'NONE', #180, 0.2809687499999999338 ) ;
#154 = DIRECTION ( 'NONE',  ( -0.0000000000000000000, -0.0000000000000000000, -1.000000000000000000 ) ) ;
#155 = UNCERTAINTY_MEASURE_WITH_UNIT (LENGTH_MEASURE( 1.000000000000000082E-05 ), #221, 'distance_accuracy_value', 'NONE');
#156 = EDGE_CURVE ( 'NONE', #120, #89, #277, .T. ) ;
#157 = LENGTH_MEASURE_WITH_UNIT ( LENGTH_MEASURE( 0.02539999999999999897 ), #109 );
#158 = APPLICATION_CONTEXT ( 'automotive_design' ) ;
#159 = ORIENTED_EDGE ( 'NONE', *, *, #41, .F. ) ;
#160 = CIRCLE ( 'NONE', #32, 0.2812500000000000555 ) ;
#161 = CLOSED_SHELL ( 'NONE', ( #213, #252, #177, #208, #294, #103, #163, #218, #72, #19 ) ) ;
#162 = EDGE_LOOP ( 'NONE', ( #117, #276, #98, #70 ) ) ;
#163 = ADVANCED_FACE ( 'NONE', ( #71 ), #224, .T. ) ;
#164 = ORIENTED_EDGE ( 'NONE', *, *, #63, .T. ) ;
#165 = CARTESIAN_POINT ( 'NONE',  ( 0.2812500000000000555, 3.444319122601930972E-17, 3.485000000000000320 ) ) ;
#166 = ORIENTED_EDGE ( 'NONE', *, *, #110, .F. ) ;
#167 = DIRECTION ( 'NONE',  ( 0.0000000000000000000, 0.0000000000000000000, -1.000000000000000000 ) ) ;
#168 =( GEOMETRIC_REPRESENTATION_CONTEXT ( 3 ) GLOBAL_UNCERTAINTY_ASSIGNED_CONTEXT ( ( #226 ) ) GLOBAL_UNIT_ASSIGNED_CONTEXT ( ( #86, #265, #244 ) ) REPRESENTATION_CONTEXT ( 'NONE', 'WORKASPACE' ) );
#169 = CARTESIAN_POINT ( 'NONE',  ( -0.2812499999999998890, 0.0000000000000000000, 1.251595048011768130 ) ) ;
#170 = CARTESIAN_POINT ( 'NONE',  ( 0.2809687500000001004, 0.0000000000000000000, 1.250000000000000000 ) ) ;
#171 = DIRECTION ( 'NONE',  ( 0.0000000000000000000, 0.0000000000000000000, -1.000000000000000000 ) ) ;
#172 = EDGE_CURVE ( 'NONE', #2, #253, #102, .T. ) ;
#173 = CIRCLE ( 'NONE', #185, 0.2662500000000004863 ) ;
#174 = DIRECTION ( 'NONE',  ( -0.0000000000000000000, -0.0000000000000000000, -1.000000000000000000 ) ) ;
#175 = DIRECTION ( 'NONE',  ( -0.0000000000000000000, -0.0000000000000000000, -1.000000000000000000 ) ) ;
#176 = AXIS2_PLACEMENT_3D ( 'NONE', #127, #77, #104 ) ;
#177 = ADVANCED_FACE ( 'NONE', ( #145 ), #94, .T. ) ;
#178 = MECHANICAL_DESIGN_GEOMETRIC_PRESENTATION_REPRESENTATION (  '', ( #69 ), #249 ) ;
#179 = EDGE_CURVE ( 'NONE', #2, #48, #56, .T. ) ;
#180 = AXIS2_PLACEMENT_3D ( 'NONE', #288, #36, #198 ) ;
#181 = ORIENTED_EDGE ( 'NONE', *, *, #110, .T. ) ;
#182 = ORIENTED_EDGE ( 'NONE', *, *, #97, .T. ) ;
#183 = CARTESIAN_POINT ( 'NONE',  ( 0.2809687499999999893, 3.440874803479329165E-17, -7.582401355855259480E-33 ) ) ;
#184 = ORIENTED_EDGE ( 'NONE', *, *, #272, .T. ) ;
#185 = AXIS2_PLACEMENT_3D ( 'NONE', #106, #84, #220 ) ;
#186 = ORIENTED_EDGE ( 'NONE', *, *, #149, .F. ) ;
#187 = DIRECTION ( 'NONE',  ( -1.224646799147353207E-16, -0.0000000000000000000, -1.000000000000000000 ) ) ;
#188 = ORIENTED_EDGE ( 'NONE', *, *, #149, .T. ) ;
#189 = CARTESIAN_POINT ( 'NONE',  ( 0.0000000000000000000, 0.0000000000000000000, 3.500000000000000000 ) ) ;
#190 = EDGE_CURVE ( 'NONE', #135, #122, #281, .T. ) ;
#191 = CARTESIAN_POINT ( 'NONE',  ( 0.2662500000000004863, 3.352470612665882150E-17, 3.500000000000000000 ) ) ;
#192 = AXIS2_PLACEMENT_3D ( 'NONE', #30, #167, #123 ) ;
#193 = DIRECTION ( 'NONE',  ( 0.1736481776669313581, 0.0000000000000000000, 0.9848077530122077983 ) ) ;
#194 = PRESENTATION_LAYER_ASSIGNMENT (  '', '', ( #69 ) ) ;
#195 = DIRECTION ( 'NONE',  ( 0.0000000000000000000, 0.0000000000000000000, 1.000000000000000000 ) ) ;
#196 = DIRECTION ( 'NONE',  ( -1.000000000000000000, 0.0000000000000000000, 0.0000000000000000000 ) ) ;
#197 = SURFACE_SIDE_STYLE ('',( #53 ) ) ;
#198 = DIRECTION ( 'NONE',  ( -1.000000000000000000, 0.0000000000000000000, 1.224646799147353454E-16 ) ) ;
#199 = DIRECTION ( 'NONE',  ( 1.000000000000000000, 0.0000000000000000000, 0.0000000000000000000 ) ) ;
#200 = EDGE_CURVE ( 'NONE', #89, #122, #160, .T. ) ;
#201 = CARTESIAN_POINT ( 'NONE',  ( 1.530808498934191571E-16, 0.0000000000000000000, 1.250000000000000000 ) ) ;
#202 = AXIS2_PLACEMENT_3D ( 'NONE', #59, #203, #132 ) ;
#203 = DIRECTION ( 'NONE',  ( 1.224646799147353207E-16, 0.0000000000000000000, 1.000000000000000000 ) ) ;
#204 =( NAMED_UNIT ( * ) PLANE_ANGLE_UNIT ( ) SI_UNIT ( $, .RADIAN. ) );
#205 = AXIS2_PLACEMENT_3D ( 'NONE', #79, #238, #51 ) ;
#206 = EDGE_LOOP ( 'NONE', ( #66, #258, #166, #234 ) ) ;
#207 = ORIENTED_EDGE ( 'NONE', *, *, #222, .T. ) ;
#208 = ADVANCED_FACE ( 'NONE', ( #54 ), #5, .T. ) ;
#209 = ORIENTED_EDGE ( 'NONE', *, *, #156, .T. ) ;
#210 = VECTOR ( 'NONE', #154, 39.37007874015748143 ) ;
#211 = DIRECTION ( 'NONE',  ( 0.0000000000000000000, 0.0000000000000000000, 1.000000000000000000 ) ) ;
#212 = DIRECTION ( 'NONE',  ( 1.000000000000000000, 0.0000000000000000000, 0.0000000000000000000 ) ) ;
#213 = ADVANCED_FACE ( 'NONE', ( #76 ), #153, .T. ) ;
#214 = CARTESIAN_POINT ( 'NONE',  ( 0.2809687499999999338, 3.440874803479328548E-17, -3.440874803479328548E-17 ) ) ;
#215 = DIRECTION ( 'NONE',  ( -1.000000000000000000, 0.0000000000000000000, 0.0000000000000000000 ) ) ;
#216 = DIRECTION ( 'NONE',  ( -0.1736481776669311639, 2.126576849575783008E-17, 0.9848077530122080203 ) ) ;
#217 = SURFACE_STYLE_USAGE ( .BOTH. , #197 ) ;
#218 = ADVANCED_FACE ( 'NONE', ( #11 ), #1, .T. ) ;
#219 = LINE ( 'NONE', #42, #45 ) ;
#220 = DIRECTION ( 'NONE',  ( 1.000000000000000000, 0.0000000000000000000, 0.0000000000000000000 ) ) ;
#221 =( CONVERSION_BASED_UNIT ( 'INCH', #134 ) LENGTH_UNIT ( ) NAMED_UNIT ( #260 ) );
#222 = EDGE_CURVE ( 'NONE', #2, #65, #80, .T. ) ;
#223 = FILL_AREA_STYLE ('',( #287 ) ) ;
#224 = CONICAL_SURFACE ( 'NONE', #85, 0.2662500000000004863, 0.7853981633974437271 ) ;
#225 =( CONVERSION_BASED_UNIT ( 'INCH', #157 ) LENGTH_UNIT ( ) NAMED_UNIT ( #268 ) );
#226 = UNCERTAINTY_MEASURE_WITH_UNIT (LENGTH_MEASURE( 1.000000000000000082E-05 ), #86, 'distance_accuracy_value', 'NONE');
#227 = CARTESIAN_POINT ( 'NONE',  ( 0.2809687500000001004, 0.0000000000000000000, 1.250000000000000000 ) ) ;
#228 = CIRCLE ( 'NONE', #8, 0.2809687499999999893 ) ;
#229 = ORIENTED_EDGE ( 'NONE', *, *, #266, .T. ) ;
#230 = ORIENTED_EDGE ( 'NONE', *, *, #190, .F. ) ;
#231 = PRODUCT_DEFINITION_FORMATION_WITH_SPECIFIED_SOURCE ( 'ANY', '', #17, .NOT_KNOWN. ) ;
#232 = DIRECTION ( 'NONE',  ( -1.224646799147353207E-16, -0.0000000000000000000, -1.000000000000000000 ) ) ;
#233 = ORIENTED_EDGE ( 'NONE', *, *, #136, .F. ) ;
#234 = ORIENTED_EDGE ( 'NONE', *, *, #271, .F. ) ;
#235 = CIRCLE ( 'NONE', #146, 0.2809687499999999893 ) ;
#236 = DIRECTION ( 'NONE',  ( -1.000000000000000000, 0.0000000000000000000, 1.224646799147353454E-16 ) ) ;
#237 = LINE ( 'NONE', #121, #250 ) ;
#238 = DIRECTION ( 'NONE',  ( -1.224646799147353207E-16, -0.0000000000000000000, -1.000000000000000000 ) ) ;
#239 = PLANE ( 'NONE',  #25 ) ;
#240 = DIRECTION ( 'NONE',  ( -1.224646799147353207E-16, -0.0000000000000000000, -1.000000000000000000 ) ) ;
#241 =( GEOMETRIC_REPRESENTATION_CONTEXT ( 3 ) GLOBAL_UNCERTAINTY_ASSIGNED_CONTEXT ( ( #155 ) ) GLOBAL_UNIT_ASSIGNED_CONTEXT ( ( #221, #284, #144 ) ) REPRESENTATION_CONTEXT ( 'NONE', 'WORKASPACE' ) );
#242 = DIRECTION ( 'NONE',  ( -0.0000000000000000000, -0.0000000000000000000, -1.000000000000000000 ) ) ;
#243 = DIRECTION ( 'NONE',  ( 0.0000000000000000000, 0.0000000000000000000, 1.000000000000000000 ) ) ;
#244 =( NAMED_UNIT ( * ) SI_UNIT ( $, .STERADIAN. ) SOLID_ANGLE_UNIT ( ) );
#245 = EDGE_CURVE ( 'NONE', #122, #253, #128, .T. ) ;
#246 = MECHANICAL_DESIGN_GEOMETRIC_PRESENTATION_REPRESENTATION (  '', ( #286 ), #241 ) ;
#247 = DIMENSIONAL_EXPONENTS ( 1.000000000000000000, 0.0000000000000000000, 0.0000000000000000000, 0.0000000000000000000, 0.0000000000000000000, 0.0000000000000000000, 0.0000000000000000000 ) ;
#248 = CARTESIAN_POINT ( 'NONE',  ( 0.0000000000000000000, 0.0000000000000000000, 3.500000000000000000 ) ) ;
#249 =( GEOMETRIC_REPRESENTATION_CONTEXT ( 3 ) GLOBAL_UNCERTAINTY_ASSIGNED_CONTEXT ( ( #114 ) ) GLOBAL_UNIT_ASSIGNED_CONTEXT ( ( #225, #204, #18 ) ) REPRESENTATION_CONTEXT ( 'NONE', 'WORKASPACE' ) );
#250 = VECTOR ( 'NONE', #216, 39.37007874015747433 ) ;
#251 = ORIENTED_EDGE ( 'NONE', *, *, #91, .T. ) ;
#252 = ADVANCED_FACE ( 'NONE', ( #152 ), #274, .T. ) ;
#253 = VERTEX_POINT ( 'NONE', #82 ) ;
#254 = COLOUR_RGB ( '',0.7921568627450980005, 0.8196078431372548767, 0.9333333333333333481 ) ;
#255 = EDGE_LOOP ( 'NONE', ( #159, #251, #140, #143 ) ) ;
#256 = EDGE_LOOP ( 'NONE', ( #22, #73, #137, #299 ) ) ;
#257 = FACE_OUTER_BOUND ( 'NONE', #275, .T. ) ;
#258 = ORIENTED_EDGE ( 'NONE', *, *, #179, .T. ) ;
#259 = DIRECTION ( 'NONE',  ( 0.0000000000000000000, 0.0000000000000000000, -1.000000000000000000 ) ) ;
#260 = DIMENSIONAL_EXPONENTS ( 1.000000000000000000, 0.0000000000000000000, 0.0000000000000000000, 0.0000000000000000000, 0.0000000000000000000, 0.0000000000000000000, 0.0000000000000000000 ) ;
#261 = CARTESIAN_POINT ( 'NONE',  ( -0.2812500000000000555, 0.0000000000000000000, 3.485000000000000320 ) ) ;
#262 = DIRECTION ( 'NONE',  ( 0.0000000000000000000, 0.0000000000000000000, -1.000000000000000000 ) ) ;
#263 = CARTESIAN_POINT ( 'NONE',  ( 4.213856314347737298E-33, 0.0000000000000000000, 3.440874803479328548E-17 ) ) ;
#264 = AXIS2_PLACEMENT_3D ( 'NONE', #282, #147, #236 ) ;
#265 =( NAMED_UNIT ( * ) PLANE_ANGLE_UNIT ( ) SI_UNIT ( $, .RADIAN. ) );
#266 = EDGE_CURVE ( 'NONE', #120, #135, #173, .T. ) ;
#267 = CARTESIAN_POINT ( 'NONE',  ( 0.2812500000000000555, 3.444319122601930972E-17, 3.500000000000000000 ) ) ;
#268 = DIMENSIONAL_EXPONENTS ( 1.000000000000000000, 0.0000000000000000000, 0.0000000000000000000, 0.0000000000000000000, 0.0000000000000000000, 0.0000000000000000000, 0.0000000000000000000 ) ;
#269 = VECTOR ( 'NONE', #9, 39.37007874015748143 ) ;
#270 = SURFACE_STYLE_USAGE ( .BOTH. , #113 ) ;
#271 = EDGE_CURVE ( 'NONE', #65, #68, #219, .T. ) ;
#272 = EDGE_CURVE ( 'NONE', #89, #95, #62, .T. ) ;
#273 = ORIENTED_EDGE ( 'NONE', *, *, #83, .F. ) ;
#274 = CONICAL_SURFACE ( 'NONE', #16, 0.2809687499999999338, 0.1745329251994338637 ) ;
#275 = EDGE_LOOP ( 'NONE', ( #229, #182 ) ) ;
#276 = ORIENTED_EDGE ( 'NONE', *, *, #222, .F. ) ;
#277 = LINE ( 'NONE', #125, #269 ) ;
#278 = ORIENTED_EDGE ( 'NONE', *, *, #63, .F. ) ;
#279 = FACE_OUTER_BOUND ( 'NONE', #26, .T. ) ;
#280 = VECTOR ( 'NONE', #174, 39.37007874015748143 ) ;
#281 = LINE ( 'NONE', #27, #24 ) ;
#282 = CARTESIAN_POINT ( 'NONE',  ( 0.0000000000000000000, 0.0000000000000000000, 0.0000000000000000000 ) ) ;
#283 = DIRECTION ( 'NONE',  ( -1.000000000000000000, 0.0000000000000000000, 1.224646799147353207E-16 ) ) ;
#284 =( NAMED_UNIT ( * ) PLANE_ANGLE_UNIT ( ) SI_UNIT ( $, .RADIAN. ) );
#285 = CARTESIAN_POINT ( 'NONE',  ( 0.0000000000000000000, 0.0000000000000000000, 0.0000000000000000000 ) ) ;
#286 = STYLED_ITEM ( 'NONE', ( #78 ), #35 ) ;
#287 = FILL_AREA_STYLE_COLOUR ( '', #254 ) ;
#288 = CARTESIAN_POINT ( 'NONE',  ( 0.0000000000000000000, 0.0000000000000000000, 0.0000000000000000000 ) ) ;
#289 = DIRECTION ( 'NONE',  ( 1.224646799147353207E-16, 0.0000000000000000000, 1.000000000000000000 ) ) ;
#290 = AXIS2_PLACEMENT_3D ( 'NONE', #124, #262, #58 ) ;
#291 = CYLINDRICAL_SURFACE ( 'NONE', #13, 0.2812500000000000555 ) ;
#292 = PRODUCT_DEFINITION_CONTEXT ( 'detailed design', #158, 'design' ) ;
#293 = DIRECTION ( 'NONE',  ( 0.0000000000000000000, 0.0000000000000000000, 1.000000000000000000 ) ) ;
#294 = ADVANCED_FACE ( 'NONE', ( #131 ), #291, .T. ) ;
#295 = CIRCLE ( 'NONE', #192, 0.2812500000000000555 ) ;
#296 = EDGE_LOOP ( 'NONE', ( #92, #188, #184, #233 ) ) ;
#297 = CARTESIAN_POINT ( 'NONE',  ( 0.0000000000000000000, 0.0000000000000000000, 0.0000000000000000000 ) ) ;
#298 = ORIENTED_EDGE ( 'NONE', *, *, #245, .T. ) ;
#299 = ORIENTED_EDGE ( 'NONE', *, *, #156, .F. ) ;
ENDSEC;
END-ISO-10303-21;
